ISO-10303-21;
HEADER;
FILE_DESCRIPTION (( 'STEP AP203' ),
    '1' );
FILE_NAME ('b7b4.STEP',
    '2022-06-20T09:20:00',
    ( '' ),
    ( '' ),
    'SwSTEP 2.0',
    'SolidWorks 2019',
    '' );
FILE_SCHEMA (( 'CONFIG_CONTROL_DESIGN' ));
ENDSEC;

DATA;
#1 = ADVANCED_FACE ( 'NONE', ( #126 ), #5, .F. ) ;
#2 = DATE_AND_TIME ( #199, #93 ) ;
#3 = ORIENTED_EDGE ( 'NONE', *, *, #224, .T. ) ;
#4 = APPROVAL_STATUS ( 'not_yet_approved' ) ;
#5 = PLANE ( 'NONE',  #143 ) ;
#6 = CC_DESIGN_APPROVAL ( #300, ( #118 ) ) ;
#7 =( NAMED_UNIT ( * ) PLANE_ANGLE_UNIT ( ) SI_UNIT ( $, .RADIAN. ) );
#8 = CARTESIAN_POINT ( 'NONE',  ( 10.00000000000000000, 1.224646799147353256E-15, 408.0000000000000568 ) ) ;
#9 = APPROVAL_ROLE ( '' ) ;
#10 = DIRECTION ( 'NONE',  ( 1.000000000000000000, 0.000000000000000000, 0.000000000000000000 ) ) ;
#11 = DIRECTION ( 'NONE',  ( 1.000000000000000000, 0.000000000000000000, -0.000000000000000000 ) ) ;
#12 = FACE_OUTER_BOUND ( 'NONE', #254, .T. ) ;
#13 = APPROVAL ( #195, 'NEURÈENÝ' ) ;
#14 = FACE_OUTER_BOUND ( 'NONE', #66, .T. ) ;
#15 = FACE_OUTER_BOUND ( 'NONE', #251, .T. ) ;
#16 = DIRECTION ( 'NONE',  ( -0.000000000000000000, -0.000000000000000000, -1.000000000000000000 ) ) ;
#17 = DIRECTION ( 'NONE',  ( -1.000000000000000000, 0.000000000000000000, 0.000000000000000000 ) ) ;
#18 = EDGE_CURVE ( 'NONE', #64, #92, #31, .T. ) ;
#19 = CIRCLE ( 'NONE', #226, 13.00000000000000178 ) ;
#20 = ORIENTED_EDGE ( 'NONE', *, *, #177, .F. ) ;
#21 = EDGE_CURVE ( 'NONE', #92, #42, #19, .T. ) ;
#22 = ORIENTED_EDGE ( 'NONE', *, *, #177, .T. ) ;
#23 = CIRCLE ( 'NONE', #201, 13.00000000000000178 ) ;
#24 = DIRECTION ( 'NONE',  ( 0.000000000000000000, 0.000000000000000000, 1.000000000000000000 ) ) ;
#25 = ADVANCED_BREP_SHAPE_REPRESENTATION ( 'b7b4', ( #128, #99 ), #306 ) ;
#26 = VERTEX_POINT ( 'NONE', #8 ) ;
#27 = CARTESIAN_POINT ( 'NONE',  ( 0.000000000000000000, 0.000000000000000000, 0.000000000000000000 ) ) ;
#28 = FACE_OUTER_BOUND ( 'NONE', #144, .T. ) ;
#29 = AXIS2_PLACEMENT_3D ( 'NONE', #43, #200, #97 ) ;
#30 = EDGE_CURVE ( 'NONE', #42, #92, #260, .T. ) ;
#31 = LINE ( 'NONE', #75, #275 ) ;
#32 = AXIS2_PLACEMENT_3D ( 'NONE', #104, #24, #205 ) ;
#33 = CALENDAR_DATE ( 2022, 20, 6 ) ;
#34 = DIRECTION ( 'NONE',  ( 1.000000000000000000, 0.000000000000000000, 0.000000000000000000 ) ) ;
#35 = CARTESIAN_POINT ( 'NONE',  ( 0.000000000000000000, 0.000000000000000000, 8.000000000000000000 ) ) ;
#36 = PLANE ( 'NONE',  #298 ) ;
#37 = AXIS2_PLACEMENT_3D ( 'NONE', #55, #295, #287 ) ;
#38 = APPROVAL_PERSON_ORGANIZATION ( #240, #300, #9 ) ;
#39 = ADVANCED_FACE ( 'NONE', ( #179 ), #113, .F. ) ;
#40 = VERTEX_POINT ( 'NONE', #269 ) ;
#41 =( LENGTH_UNIT ( ) NAMED_UNIT ( * ) SI_UNIT ( .MILLI., .METRE. ) );
#42 = VERTEX_POINT ( 'NONE', #59 ) ;
#43 = CARTESIAN_POINT ( 'NONE',  ( 0.000000000000000000, 0.000000000000000000, 408.0000000000000568 ) ) ;
#44 = AXIS2_PLACEMENT_3D ( 'NONE', #27, #191, #225 ) ;
#45 = ORIENTED_EDGE ( 'NONE', *, *, #103, .T. ) ;
#46 = ORIENTED_EDGE ( 'NONE', *, *, #252, .F. ) ;
#47 = CARTESIAN_POINT ( 'NONE',  ( -10.20000000000000107, 1.249139735130300365E-15, 7.999999999999992895 ) ) ;
#48 = LOCAL_TIME ( 11, 20, 0.000000000000000000, #123 ) ;
#49 = ADVANCED_FACE ( 'NONE', ( #246 ), #222, .T. ) ;
#50 = APPLICATION_PROTOCOL_DEFINITION ( 'international standard', 'config_control_design', 1994, #274 ) ;
#51 = APPROVAL_DATE_TIME ( #265, #13 ) ;
#52 = DIRECTION ( 'NONE',  ( 1.000000000000000000, 0.000000000000000000, 0.000000000000000000 ) ) ;
#53 = CIRCLE ( 'NONE', #37, 13.00000000000000178 ) ;
#54 = PERSON_AND_ORGANIZATION ( #279, #116 ) ;
#55 = CARTESIAN_POINT ( 'NONE',  ( 0.000000000000000000, 0.000000000000000000, 8.000000000000000000 ) ) ;
#56 = EDGE_CURVE ( 'NONE', #64, #273, #53, .T. ) ;
#57 = PERSON_AND_ORGANIZATION_ROLE ( 'creator' ) ;
#58 = DIRECTION ( 'NONE',  ( 0.000000000000000000, 0.000000000000000000, 1.000000000000000000 ) ) ;
#59 = CARTESIAN_POINT ( 'NONE',  ( 13.00000000000000178, 1.592040838891559293E-15, 0.000000000000000000 ) ) ;
#60 = CARTESIAN_POINT ( 'NONE',  ( -13.00000000000000178, 0.000000000000000000, 0.000000000000000000 ) ) ;
#61 = VECTOR ( 'NONE', #280, 1000.000000000000000 ) ;
#62 = ADVANCED_FACE ( 'NONE', ( #14 ), #36, .T. ) ;
#63 = CARTESIAN_POINT ( 'NONE',  ( 0.000000000000000000, 0.000000000000000000, 408.0000000000000568 ) ) ;
#64 = VERTEX_POINT ( 'NONE', #290 ) ;
#65 = AXIS2_PLACEMENT_3D ( 'NONE', #178, #134, #223 ) ;
#66 = EDGE_LOOP ( 'NONE', ( #22, #3 ) ) ;
#67 = CYLINDRICAL_SURFACE ( 'NONE', #83, 13.00000000000000178 ) ;
#68 = ORIENTED_EDGE ( 'NONE', *, *, #224, .F. ) ;
#69 = DIRECTION ( 'NONE',  ( 0.000000000000000000, 0.000000000000000000, 1.000000000000000000 ) ) ;
#70 = VERTEX_POINT ( 'NONE', #136 ) ;
#71 = LINE ( 'NONE', #259, #168 ) ;
#72 = CIRCLE ( 'NONE', #172, 10.00000000000000000 ) ;
#73 = ADVANCED_FACE ( 'NONE', ( #12 ), #112, .T. ) ;
#74 = CARTESIAN_POINT ( 'NONE',  ( 13.00000000000000178, 1.592040838891559293E-15, 8.000000000000000000 ) ) ;
#75 = CARTESIAN_POINT ( 'NONE',  ( -13.00000000000000178, 0.000000000000000000, 8.000000000000000000 ) ) ;
#76 = DATE_AND_TIME ( #170, #129 ) ;
#77 = CIRCLE ( 'NONE', #153, 10.00000000000000000 ) ;
#78 = APPLICATION_CONTEXT ( 'configuration controlled 3d designs of mechanical parts and assemblies' ) ;
#79 = CARTESIAN_POINT ( 'NONE',  ( 0.000000000000000000, 0.000000000000000000, 0.000000000000000000 ) ) ;
#80 = COORDINATED_UNIVERSAL_TIME_OFFSET ( 1, 0, .AHEAD. ) ;
#81 = CARTESIAN_POINT ( 'NONE',  ( 0.000000000000000000, 0.000000000000000000, 0.000000000000000000 ) ) ;
#82 = PERSON_AND_ORGANIZATION ( #279, #116 ) ;
#83 = AXIS2_PLACEMENT_3D ( 'NONE', #230, #157, #121 ) ;
#84 = DIRECTION ( 'NONE',  ( 0.000000000000000000, 0.000000000000000000, 1.000000000000000000 ) ) ;
#85 = DIRECTION ( 'NONE',  ( 0.000000000000000000, 0.000000000000000000, 1.000000000000000000 ) ) ;
#86 = DIRECTION ( 'NONE',  ( 1.000000000000000000, 0.000000000000000000, -0.000000000000000000 ) ) ;
#87 = DIRECTION ( 'NONE',  ( 0.000000000000000000, 0.000000000000000000, 1.000000000000000000 ) ) ;
#88 = CYLINDRICAL_SURFACE ( 'NONE', #29, 10.00000000000000000 ) ;
#89 = DIRECTION ( 'NONE',  ( -1.000000000000000000, 0.000000000000000000, 0.000000000000000000 ) ) ;
#90 = ORIENTED_EDGE ( 'NONE', *, *, #164, .T. ) ;
#91 = ADVANCED_FACE ( 'NONE', ( #245, #220 ), #108, .T. ) ;
#92 = VERTEX_POINT ( 'NONE', #60 ) ;
#93 = LOCAL_TIME ( 11, 20, 0.000000000000000000, #105 ) ;
#94 = ORIENTED_EDGE ( 'NONE', *, *, #109, .F. ) ;
#95 = ORIENTED_EDGE ( 'NONE', *, *, #158, .T. ) ;
#96 = ORIENTED_EDGE ( 'NONE', *, *, #252, .T. ) ;
#97 = DIRECTION ( 'NONE',  ( -1.000000000000000000, 0.000000000000000000, 0.000000000000000000 ) ) ;
#98 = PRODUCT_DEFINITION_FORMATION_WITH_SPECIFIED_SOURCE ( 'LIBOVOLNÝ', '', #215, .NOT_KNOWN. ) ;
#99 = AXIS2_PLACEMENT_3D ( 'NONE', #79, #125, #217 ) ;
#100 = CIRCLE ( 'NONE', #162, 10.00000000000000000 ) ;
#101 = COORDINATED_UNIVERSAL_TIME_OFFSET ( 1, 0, .AHEAD. ) ;
#102 = PERSON_AND_ORGANIZATION ( #279, #116 ) ;
#103 = EDGE_CURVE ( 'NONE', #183, #40, #100, .T. ) ;
#104 = CARTESIAN_POINT ( 'NONE',  ( 0.000000000000000000, 0.000000000000000000, 8.199999999999985079 ) ) ;
#105 = COORDINATED_UNIVERSAL_TIME_OFFSET ( 1, 0, .AHEAD. ) ;
#106 = CARTESIAN_POINT ( 'NONE',  ( 0.000000000000000000, 0.000000000000000000, 8.000000000000000000 ) ) ;
#107 = AXIS2_PLACEMENT_3D ( 'NONE', #182, #272, #176 ) ;
#108 = PLANE ( 'NONE',  #139 ) ;
#109 = EDGE_CURVE ( 'NONE', #40, #282, #247, .T. ) ;
#110 = DIRECTION ( 'NONE',  ( 1.000000000000000000, 0.000000000000000000, 0.000000000000000000 ) ) ;
#111 = FACE_OUTER_BOUND ( 'NONE', #239, .T. ) ;
#112 = CYLINDRICAL_SURFACE ( 'NONE', #232, 10.00000000000000000 ) ;
#113 = TOROIDAL_SURFACE ( 'NONE', #190, 10.20000000000000107, 0.2000000000000000111 ) ;
#114 = EDGE_CURVE ( 'NONE', #183, #206, #155, .T. ) ;
#115 = ORIENTED_EDGE ( 'NONE', *, *, #228, .T. ) ;
#116 = ORGANIZATION ( 'NEURÈENÝ', 'NEURÈENÝ', '' ) ;
#117 = ORIENTED_EDGE ( 'NONE', *, *, #169, .T. ) ;
#118 = PRODUCT_DEFINITION ( 'NEZNÁMÝ', '', #98, #267 ) ;
#119 = DIRECTION ( 'NONE',  ( -0.000000000000000000, -0.000000000000000000, -1.000000000000000000 ) ) ;
#120 = ORIENTED_EDGE ( 'NONE', *, *, #169, .F. ) ;
#121 = DIRECTION ( 'NONE',  ( -1.000000000000000000, 0.000000000000000000, 0.000000000000000000 ) ) ;
#122 = LOCAL_TIME ( 11, 20, 0.000000000000000000, #80 ) ;
#123 = COORDINATED_UNIVERSAL_TIME_OFFSET ( 1, 0, .AHEAD. ) ;
#124 = CC_DESIGN_PERSON_AND_ORGANIZATION_ASSIGNMENT ( #82, #127, ( #118 ) ) ;
#125 = DIRECTION ( 'NONE',  ( 0.000000000000000000, 0.000000000000000000, 1.000000000000000000 ) ) ;
#126 = FACE_OUTER_BOUND ( 'NONE', #299, .T. ) ;
#127 = PERSON_AND_ORGANIZATION_ROLE ( 'creator' ) ;
#128 = MANIFOLD_SOLID_BREP ( 'Zaoblit1', #231 ) ;
#129 = LOCAL_TIME ( 11, 20, 0.000000000000000000, #101 ) ;
#130 = CARTESIAN_POINT ( 'NONE',  ( 0.000000000000000000, 0.000000000000000000, 0.000000000000000000 ) ) ;
#131 = PERSON_AND_ORGANIZATION_ROLE ( 'design_supplier' ) ;
#132 = DIRECTION ( 'NONE',  ( 1.000000000000000000, 0.000000000000000000, 0.000000000000000000 ) ) ;
#133 = PERSON_AND_ORGANIZATION ( #279, #116 ) ;
#134 = DIRECTION ( 'NONE',  ( 1.224646799147353207E-16, 1.000000000000000000, -0.000000000000000000 ) ) ;
#135 = ADVANCED_FACE ( 'NONE', ( #15 ), #146, .F. ) ;
#136 = CARTESIAN_POINT ( 'NONE',  ( -10.00000000000000000, 0.000000000000000000, 408.0000000000000568 ) ) ;
#137 = AXIS2_PLACEMENT_3D ( 'NONE', #303, #16, #293 ) ;
#138 = DIRECTION ( 'NONE',  ( -0.000000000000000000, -0.000000000000000000, -1.000000000000000000 ) ) ;
#139 = AXIS2_PLACEMENT_3D ( 'NONE', #35, #87, #86 ) ;
#140 = DIRECTION ( 'NONE',  ( 1.000000000000000000, 0.000000000000000000, 0.000000000000000000 ) ) ;
#141 = PRODUCT_RELATED_PRODUCT_CATEGORY ( 'detail', '', ( #215 ) ) ;
#142 = EDGE_LOOP ( 'NONE', ( #277, #188, #163, #258 ) ) ;
#143 = AXIS2_PLACEMENT_3D ( 'NONE', #81, #241, #145 ) ;
#144 = EDGE_LOOP ( 'NONE', ( #120, #203, #256, #297 ) ) ;
#145 = DIRECTION ( 'NONE',  ( 1.000000000000000000, 0.000000000000000000, -0.000000000000000000 ) ) ;
#146 = TOROIDAL_SURFACE ( 'NONE', #32, 10.20000000000000107, 0.2000000000000000111 ) ;
#147 = DIRECTION ( 'NONE',  ( 0.000000000000000000, 0.000000000000000000, 1.000000000000000000 ) ) ;
#148 = APPLICATION_PROTOCOL_DEFINITION ( 'international standard', 'config_control_design', 1994, #78 ) ;
#149 = EDGE_CURVE ( 'NONE', #273, #42, #154, .T. ) ;
#150 = CARTESIAN_POINT ( 'NONE',  ( 0.000000000000000000, 0.000000000000000000, 8.199999999999985079 ) ) ;
#151 = APPROVAL_STATUS ( 'not_yet_approved' ) ;
#152 = DIRECTION ( 'NONE',  ( 0.000000000000000000, 0.000000000000000000, 1.000000000000000000 ) ) ;
#153 = AXIS2_PLACEMENT_3D ( 'NONE', #160, #257, #307 ) ;
#154 = LINE ( 'NONE', #301, #268 ) ;
#155 = CIRCLE ( 'NONE', #107, 0.2000000000000005107 ) ;
#156 = ORIENTED_EDGE ( 'NONE', *, *, #228, .F. ) ;
#157 = DIRECTION ( 'NONE',  ( -0.000000000000000000, -0.000000000000000000, -1.000000000000000000 ) ) ;
#158 = EDGE_CURVE ( 'NONE', #282, #206, #236, .T. ) ;
#159 = EDGE_LOOP ( 'NONE', ( #302, #161, #156, #187 ) ) ;
#160 = CARTESIAN_POINT ( 'NONE',  ( 0.000000000000000000, 0.000000000000000000, 408.0000000000000568 ) ) ;
#161 = ORIENTED_EDGE ( 'NONE', *, *, #109, .T. ) ;
#162 = AXIS2_PLACEMENT_3D ( 'NONE', #150, #85, #110 ) ;
#163 = ORIENTED_EDGE ( 'NONE', *, *, #18, .T. ) ;
#164 = EDGE_CURVE ( 'NONE', #40, #183, #250, .T. ) ;
#165 = CARTESIAN_POINT ( 'NONE',  ( 10.00000000000000000, 1.224646799147353256E-15, 8.199999999999985079 ) ) ;
#166 = DIRECTION ( 'NONE',  ( -0.000000000000000000, -0.000000000000000000, -1.000000000000000000 ) ) ;
#167 = SHAPE_DEFINITION_REPRESENTATION ( #181, #25 ) ;
#168 = VECTOR ( 'NONE', #119, 1000.000000000000000 ) ;
#169 = EDGE_CURVE ( 'NONE', #273, #64, #23, .T. ) ;
#170 = CALENDAR_DATE ( 2022, 20, 6 ) ;
#171 = DATE_TIME_ROLE ( 'classification_date' ) ;
#172 = AXIS2_PLACEMENT_3D ( 'NONE', #281, #69, #140 ) ;
#173 = CARTESIAN_POINT ( 'NONE',  ( 0.000000000000000000, 0.000000000000000000, 8.199999999999985079 ) ) ;
#174 = PERSON_AND_ORGANIZATION ( #279, #116 ) ;
#175 = CARTESIAN_POINT ( 'NONE',  ( 0.000000000000000000, 0.000000000000000000, 8.000000000000000000 ) ) ;
#176 = DIRECTION ( 'NONE',  ( 0.000000000000000000, 0.000000000000000000, -1.000000000000000000 ) ) ;
#177 = EDGE_CURVE ( 'NONE', #70, #26, #72, .T. ) ;
#178 = CARTESIAN_POINT ( 'NONE',  ( -10.20000000000000107, 1.249139735130300365E-15, 8.199999999999985079 ) ) ;
#179 = FACE_OUTER_BOUND ( 'NONE', #159, .T. ) ;
#180 = APPROVAL_PERSON_ORGANIZATION ( #54, #194, #261 ) ;
#181 = PRODUCT_DEFINITION_SHAPE ( 'NONE', 'NONE',  #118 ) ;
#182 = CARTESIAN_POINT ( 'NONE',  ( 10.20000000000000107, 0.000000000000000000, 8.199999999999985079 ) ) ;
#183 = VERTEX_POINT ( 'NONE', #165 ) ;
#184 = CIRCLE ( 'NONE', #137, 10.20000000000000107 ) ;
#185 = ORIENTED_EDGE ( 'NONE', *, *, #248, .T. ) ;
#186 = ORIENTED_EDGE ( 'NONE', *, *, #248, .F. ) ;
#187 = ORIENTED_EDGE ( 'NONE', *, *, #114, .F. ) ;
#188 = ORIENTED_EDGE ( 'NONE', *, *, #56, .F. ) ;
#189 = CARTESIAN_POINT ( 'NONE',  ( -10.00000000000000000, 0.000000000000000000, 408.0000000000000568 ) ) ;
#190 = AXIS2_PLACEMENT_3D ( 'NONE', #173, #243, #132 ) ;
#191 = DIRECTION ( 'NONE',  ( 0.000000000000000000, 0.000000000000000000, 1.000000000000000000 ) ) ;
#192 = APPROVAL_DATE_TIME ( #237, #194 ) ;
#193 = ORIENTED_EDGE ( 'NONE', *, *, #158, .F. ) ;
#194 = APPROVAL ( #151, 'NEURÈENÝ' ) ;
#195 = APPROVAL_STATUS ( 'not_yet_approved' ) ;
#196 = CC_DESIGN_APPROVAL ( #13, ( #98 ) ) ;
#197 = DATE_AND_TIME ( #288, #48 ) ;
#198 = PERSON_AND_ORGANIZATION_ROLE ( 'classification_officer' ) ;
#199 = CALENDAR_DATE ( 2022, 20, 6 ) ;
#200 = DIRECTION ( 'NONE',  ( -0.000000000000000000, -0.000000000000000000, -1.000000000000000000 ) ) ;
#201 = AXIS2_PLACEMENT_3D ( 'NONE', #175, #58, #10 ) ;
#202 = AXIS2_PLACEMENT_3D ( 'NONE', #208, #305, #34 ) ;
#203 = ORIENTED_EDGE ( 'NONE', *, *, #149, .T. ) ;
#204 = CARTESIAN_POINT ( 'NONE',  ( 10.20000000000000107, 0.000000000000000000, 7.999999999999992895 ) ) ;
#205 = DIRECTION ( 'NONE',  ( 1.000000000000000000, 0.000000000000000000, 0.000000000000000000 ) ) ;
#206 = VERTEX_POINT ( 'NONE', #204 ) ;
#207 = ORIENTED_EDGE ( 'NONE', *, *, #114, .T. ) ;
#208 = CARTESIAN_POINT ( 'NONE',  ( 0.000000000000000000, 0.000000000000000000, 8.000000000000000000 ) ) ;
#209 = APPROVAL_PERSON_ORGANIZATION ( #285, #13, #286 ) ;
#210 = SECURITY_CLASSIFICATION_LEVEL ( 'unclassified' ) ;
#211 = CC_DESIGN_PERSON_AND_ORGANIZATION_ASSIGNMENT ( #174, #131, ( #98 ) ) ;
#212 = MECHANICAL_CONTEXT ( 'NONE', #78, 'mechanical' ) ;
#213 = PERSON_AND_ORGANIZATION_ROLE ( 'design_owner' ) ;
#214 = CC_DESIGN_APPROVAL ( #194, ( #221 ) ) ;
#215 = PRODUCT ( 'b7b4', 'b7b4', '', ( #212 ) ) ;
#216 = DIRECTION ( 'NONE',  ( 1.000000000000000000, 0.000000000000000000, 0.000000000000000000 ) ) ;
#217 = DIRECTION ( 'NONE',  ( 1.000000000000000000, 0.000000000000000000, 0.000000000000000000 ) ) ;
#218 = DATE_TIME_ROLE ( 'creation_date' ) ;
#219 = CC_DESIGN_PERSON_AND_ORGANIZATION_ASSIGNMENT ( #263, #213, ( #215 ) ) ;
#220 = FACE_OUTER_BOUND ( 'NONE', #264, .T. ) ;
#221 = SECURITY_CLASSIFICATION ( '', '', #210 ) ;
#222 = CYLINDRICAL_SURFACE ( 'NONE', #284, 13.00000000000000178 ) ;
#223 = DIRECTION ( 'NONE',  ( -1.000000000000000000, 1.224646799147353207E-16, 0.000000000000000000 ) ) ;
#224 = EDGE_CURVE ( 'NONE', #26, #70, #77, .T. ) ;
#225 = DIRECTION ( 'NONE',  ( 1.000000000000000000, 0.000000000000000000, 0.000000000000000000 ) ) ;
#226 = AXIS2_PLACEMENT_3D ( 'NONE', #130, #147, #216 ) ;
#227 = AXIS2_PLACEMENT_3D ( 'NONE', #266, #84, #52 ) ;
#228 = EDGE_CURVE ( 'NONE', #206, #282, #184, .T. ) ;
#229 = ORIENTED_EDGE ( 'NONE', *, *, #30, .F. ) ;
#230 = CARTESIAN_POINT ( 'NONE',  ( 0.000000000000000000, 0.000000000000000000, 8.000000000000000000 ) ) ;
#231 = CLOSED_SHELL ( 'NONE', ( #39, #234, #296, #49, #91, #1, #73, #62, #135 ) ) ;
#232 = AXIS2_PLACEMENT_3D ( 'NONE', #63, #138, #89 ) ;
#233 = ORIENTED_EDGE ( 'NONE', *, *, #56, .T. ) ;
#234 = ADVANCED_FACE ( 'NONE', ( #111 ), #88, .T. ) ;
#235 = DIRECTION ( 'NONE',  ( -0.000000000000000000, -0.000000000000000000, -1.000000000000000000 ) ) ;
#236 = CIRCLE ( 'NONE', #202, 10.20000000000000107 ) ;
#237 = DATE_AND_TIME ( #270, #289 ) ;
#238 = CC_DESIGN_DATE_AND_TIME_ASSIGNMENT ( #2, #171, ( #221 ) ) ;
#239 = EDGE_LOOP ( 'NONE', ( #68, #185, #45, #46 ) ) ;
#240 = PERSON_AND_ORGANIZATION ( #279, #116 ) ;
#241 = DIRECTION ( 'NONE',  ( 0.000000000000000000, 0.000000000000000000, 1.000000000000000000 ) ) ;
#242 = APPROVAL_DATE_TIME ( #197, #300 ) ;
#243 = DIRECTION ( 'NONE',  ( 0.000000000000000000, 0.000000000000000000, 1.000000000000000000 ) ) ;
#244 = COORDINATED_UNIVERSAL_TIME_OFFSET ( 1, 0, .AHEAD. ) ;
#245 = FACE_BOUND ( 'NONE', #278, .T. ) ;
#246 = FACE_OUTER_BOUND ( 'NONE', #142, .T. ) ;
#247 = CIRCLE ( 'NONE', #65, 0.2000000000000005107 ) ;
#248 = EDGE_CURVE ( 'NONE', #26, #183, #71, .T. ) ;
#249 = CARTESIAN_POINT ( 'NONE',  ( 0.000000000000000000, 0.000000000000000000, 408.0000000000000568 ) ) ;
#250 = CIRCLE ( 'NONE', #227, 10.00000000000000000 ) ;
#251 = EDGE_LOOP ( 'NONE', ( #94, #276, #207, #193 ) ) ;
#252 = EDGE_CURVE ( 'NONE', #70, #40, #304, .T. ) ;
#253 = ORIENTED_EDGE ( 'NONE', *, *, #21, .F. ) ;
#254 = EDGE_LOOP ( 'NONE', ( #186, #20, #96, #90 ) ) ;
#255 = CC_DESIGN_SECURITY_CLASSIFICATION ( #221, ( #98 ) ) ;
#256 = ORIENTED_EDGE ( 'NONE', *, *, #30, .T. ) ;
#257 = DIRECTION ( 'NONE',  ( 0.000000000000000000, 0.000000000000000000, 1.000000000000000000 ) ) ;
#258 = ORIENTED_EDGE ( 'NONE', *, *, #21, .T. ) ;
#259 = CARTESIAN_POINT ( 'NONE',  ( 10.00000000000000000, 1.224646799147353256E-15, 408.0000000000000568 ) ) ;
#260 = CIRCLE ( 'NONE', #44, 13.00000000000000178 ) ;
#261 = APPROVAL_ROLE ( '' ) ;
#262 = CC_DESIGN_PERSON_AND_ORGANIZATION_ASSIGNMENT ( #133, #57, ( #98 ) ) ;
#263 = PERSON_AND_ORGANIZATION ( #279, #116 ) ;
#264 = EDGE_LOOP ( 'NONE', ( #233, #117 ) ) ;
#265 = DATE_AND_TIME ( #33, #122 ) ;
#266 = CARTESIAN_POINT ( 'NONE',  ( 0.000000000000000000, 0.000000000000000000, 8.199999999999985079 ) ) ;
#267 = DESIGN_CONTEXT ( 'detailed design', #274, 'design' ) ;
#268 = VECTOR ( 'NONE', #235, 1000.000000000000000 ) ;
#269 = CARTESIAN_POINT ( 'NONE',  ( -10.00000000000000000, 0.000000000000000000, 8.199999999999985079 ) ) ;
#270 = CALENDAR_DATE ( 2022, 20, 6 ) ;
#271 = CC_DESIGN_DATE_AND_TIME_ASSIGNMENT ( #76, #218, ( #118 ) ) ;
#272 = DIRECTION ( 'NONE',  ( 0.000000000000000000, -1.000000000000000000, 0.000000000000000000 ) ) ;
#273 = VERTEX_POINT ( 'NONE', #74 ) ;
#274 = APPLICATION_CONTEXT ( 'configuration controlled 3d designs of mechanical parts and assemblies' ) ;
#275 = VECTOR ( 'NONE', #166, 1000.000000000000000 ) ;
#276 = ORIENTED_EDGE ( 'NONE', *, *, #103, .F. ) ;
#277 = ORIENTED_EDGE ( 'NONE', *, *, #149, .F. ) ;
#278 = EDGE_LOOP ( 'NONE', ( #115, #95 ) ) ;
#279 = PERSON ( 'NEURÈENÝ', 'NEURÈENÝ', 'NEURÈENÝ', ('NEURÈENÝ'), ('NEURÈENÝ'), ('NEURÈENÝ') ) ;
#280 = DIRECTION ( 'NONE',  ( -0.000000000000000000, -0.000000000000000000, -1.000000000000000000 ) ) ;
#281 = CARTESIAN_POINT ( 'NONE',  ( 0.000000000000000000, 0.000000000000000000, 408.0000000000000568 ) ) ;
#282 = VERTEX_POINT ( 'NONE', #47 ) ;
#283 =( NAMED_UNIT ( * ) SI_UNIT ( $, .STERADIAN. ) SOLID_ANGLE_UNIT ( ) );
#284 = AXIS2_PLACEMENT_3D ( 'NONE', #106, #292, #17 ) ;
#285 = PERSON_AND_ORGANIZATION ( #279, #116 ) ;
#286 = APPROVAL_ROLE ( '' ) ;
#287 = DIRECTION ( 'NONE',  ( 1.000000000000000000, 0.000000000000000000, 0.000000000000000000 ) ) ;
#288 = CALENDAR_DATE ( 2022, 20, 6 ) ;
#289 = LOCAL_TIME ( 11, 20, 0.000000000000000000, #244 ) ;
#290 = CARTESIAN_POINT ( 'NONE',  ( -13.00000000000000178, 0.000000000000000000, 8.000000000000000000 ) ) ;
#291 = CC_DESIGN_PERSON_AND_ORGANIZATION_ASSIGNMENT ( #102, #198, ( #221 ) ) ;
#292 = DIRECTION ( 'NONE',  ( -0.000000000000000000, -0.000000000000000000, -1.000000000000000000 ) ) ;
#293 = DIRECTION ( 'NONE',  ( 1.000000000000000000, 0.000000000000000000, 0.000000000000000000 ) ) ;
#294 = UNCERTAINTY_MEASURE_WITH_UNIT (LENGTH_MEASURE( 1.000000000000000082E-05 ), #41, 'distance_accuracy_value', 'NONE');
#295 = DIRECTION ( 'NONE',  ( 0.000000000000000000, 0.000000000000000000, 1.000000000000000000 ) ) ;
#296 = ADVANCED_FACE ( 'NONE', ( #28 ), #67, .T. ) ;
#297 = ORIENTED_EDGE ( 'NONE', *, *, #18, .F. ) ;
#298 = AXIS2_PLACEMENT_3D ( 'NONE', #249, #152, #11 ) ;
#299 = EDGE_LOOP ( 'NONE', ( #253, #229 ) ) ;
#300 = APPROVAL ( #4, 'NEURÈENÝ' ) ;
#301 = CARTESIAN_POINT ( 'NONE',  ( 13.00000000000000178, 1.592040838891559293E-15, 8.000000000000000000 ) ) ;
#302 = ORIENTED_EDGE ( 'NONE', *, *, #164, .F. ) ;
#303 = CARTESIAN_POINT ( 'NONE',  ( 0.000000000000000000, 0.000000000000000000, 8.000000000000000000 ) ) ;
#304 = LINE ( 'NONE', #189, #61 ) ;
#305 = DIRECTION ( 'NONE',  ( -0.000000000000000000, -0.000000000000000000, -1.000000000000000000 ) ) ;
#306 =( GEOMETRIC_REPRESENTATION_CONTEXT ( 3 ) GLOBAL_UNCERTAINTY_ASSIGNED_CONTEXT ( ( #294 ) ) GLOBAL_UNIT_ASSIGNED_CONTEXT ( ( #41, #7, #283 ) ) REPRESENTATION_CONTEXT ( 'NONE', 'WORKASPACE' ) );
#307 = DIRECTION ( 'NONE',  ( 1.000000000000000000, 0.000000000000000000, 0.000000000000000000 ) ) ;
ENDSEC;
END-ISO-10303-21;
