ISO-10303-21;
HEADER;
FILE_DESCRIPTION (( 'STEP AP203' ),
    '1' );
FILE_NAME ('20fe.STEP',
    '2022-06-20T10:24:46',
    ( '' ),
    ( '' ),
    'SwSTEP 2.0',
    'SolidWorks 2019',
    '' );
FILE_SCHEMA (( 'CONFIG_CONTROL_DESIGN' ));
ENDSEC;

DATA;
#1 = APPROVAL_STATUS ( 'not_yet_approved' ) ;
#2 = APPLICATION_CONTEXT ( 'configuration controlled 3d designs of mechanical parts and assemblies' ) ;
#3 = PRODUCT_DEFINITION_FORMATION_WITH_SPECIFIED_SOURCE ( 'LIBOVOLNÝ', '', #259, .NOT_KNOWN. ) ;
#4 = EDGE_LOOP ( 'NONE', ( #291, #175 ) ) ;
#5 = EDGE_LOOP ( 'NONE', ( #76, #168, #100, #121 ) ) ;
#6 = FACE_OUTER_BOUND ( 'NONE', #126, .T. ) ;
#7 = ORIENTED_EDGE ( 'NONE', *, *, #142, .F. ) ;
#8 = CARTESIAN_POINT ( 'NONE',  ( 0.7999999999999999334, 0.000000000000000000, 1.200000000000006173 ) ) ;
#9 = VERTEX_POINT ( 'NONE', #215 ) ;
#10 = VECTOR ( 'NONE', #302, 1000.000000000000000 ) ;
#11 = CC_DESIGN_PERSON_AND_ORGANIZATION_ASSIGNMENT ( #281, #181, ( #259 ) ) ;
#12 = DIRECTION ( 'NONE',  ( 0.000000000000000000, 0.000000000000000000, -1.000000000000000000 ) ) ;
#13 = FACE_OUTER_BOUND ( 'NONE', #150, .T. ) ;
#14 = DIRECTION ( 'NONE',  ( 0.000000000000000000, 0.000000000000000000, 1.000000000000000000 ) ) ;
#15 = DIRECTION ( 'NONE',  ( -0.000000000000000000, -0.000000000000000000, -1.000000000000000000 ) ) ;
#16 = CC_DESIGN_APPROVAL ( #265, ( #3 ) ) ;
#17 = COORDINATED_UNIVERSAL_TIME_OFFSET ( 1, 0, .AHEAD. ) ;
#18 = PLANE ( 'NONE',  #191 ) ;
#19 = AXIS2_PLACEMENT_3D ( 'NONE', #106, #240, #27 ) ;
#20 = CALENDAR_DATE ( 2022, 20, 6 ) ;
#21 = CC_DESIGN_APPROVAL ( #307, ( #221 ) ) ;
#22 = ADVANCED_FACE ( 'NONE', ( #13 ), #217, .T. ) ;
#23 = ORIENTED_EDGE ( 'NONE', *, *, #184, .T. ) ;
#24 = EDGE_CURVE ( 'NONE', #79, #81, #53, .T. ) ;
#25 = LOCAL_TIME ( 12, 24, 46.00000000000000000, #165 ) ;
#26 = ORIENTED_EDGE ( 'NONE', *, *, #189, .F. ) ;
#27 = DIRECTION ( 'NONE',  ( 1.000000000000000000, 0.000000000000000000, 0.000000000000000000 ) ) ;
#28 = ORIENTED_EDGE ( 'NONE', *, *, #198, .T. ) ;
#29 = CARTESIAN_POINT ( 'NONE',  ( 1.250000000000000000, 1.530808498934191571E-16, 1.199999999999999956 ) ) ;
#30 = CIRCLE ( 'NONE', #290, 0.5999999999999999778 ) ;
#31 = VERTEX_POINT ( 'NONE', #276 ) ;
#32 = DIRECTION ( 'NONE',  ( -1.000000000000000000, 0.000000000000000000, 0.000000000000000000 ) ) ;
#33 = EDGE_LOOP ( 'NONE', ( #125, #123, #173, #49 ) ) ;
#34 = AXIS2_PLACEMENT_3D ( 'NONE', #248, #271, #128 ) ;
#35 = CARTESIAN_POINT ( 'NONE',  ( 0.000000000000000000, 0.000000000000000000, 1.199999999999999956 ) ) ;
#36 = CARTESIAN_POINT ( 'NONE',  ( 0.000000000000000000, 0.000000000000000000, 161.2000000000000171 ) ) ;
#37 = CARTESIAN_POINT ( 'NONE',  ( 0.000000000000000000, 0.000000000000000000, 161.2000000000000171 ) ) ;
#38 = DIRECTION ( 'NONE',  ( -1.000000000000000000, 0.000000000000000000, 0.000000000000000000 ) ) ;
#39 = APPROVAL_DATE_TIME ( #185, #265 ) ;
#40 = CC_DESIGN_DATE_AND_TIME_ASSIGNMENT ( #180, #253, ( #221 ) ) ;
#41 = PERSON_AND_ORGANIZATION_ROLE ( 'design_supplier' ) ;
#42 = APPROVAL_STATUS ( 'not_yet_approved' ) ;
#43 = ADVANCED_FACE ( 'NONE', ( #57 ), #213, .T. ) ;
#44 =( NAMED_UNIT ( * ) PLANE_ANGLE_UNIT ( ) SI_UNIT ( $, .RADIAN. ) );
#45 = CIRCLE ( 'NONE', #34, 1.250000000000000000 ) ;
#46 = ORIENTED_EDGE ( 'NONE', *, *, #120, .F. ) ;
#47 = EDGE_CURVE ( 'NONE', #9, #295, #119, .T. ) ;
#48 = VECTOR ( 'NONE', #199, 1000.000000000000000 ) ;
#49 = ORIENTED_EDGE ( 'NONE', *, *, #286, .F. ) ;
#50 = LOCAL_TIME ( 12, 24, 46.00000000000000000, #17 ) ;
#51 = ORIENTED_EDGE ( 'NONE', *, *, #262, .T. ) ;
#52 = DIRECTION ( 'NONE',  ( 1.000000000000000000, 0.000000000000000000, -0.000000000000000000 ) ) ;
#53 = LINE ( 'NONE', #109, #48 ) ;
#54 = DIRECTION ( 'NONE',  ( 0.000000000000000000, 0.000000000000000000, 1.000000000000000000 ) ) ;
#55 = ORIENTED_EDGE ( 'NONE', *, *, #47, .T. ) ;
#56 = DIRECTION ( 'NONE',  ( 1.000000000000000000, 0.000000000000000000, -0.000000000000000000 ) ) ;
#57 = FACE_OUTER_BOUND ( 'NONE', #33, .T. ) ;
#58 =( GEOMETRIC_REPRESENTATION_CONTEXT ( 3 ) GLOBAL_UNCERTAINTY_ASSIGNED_CONTEXT ( ( #88 ) ) GLOBAL_UNIT_ASSIGNED_CONTEXT ( ( #163, #44, #67 ) ) REPRESENTATION_CONTEXT ( 'NONE', 'WORKASPACE' ) );
#59 = DIRECTION ( 'NONE',  ( 1.000000000000000000, 0.000000000000000000, 0.000000000000000000 ) ) ;
#60 = EDGE_CURVE ( 'NONE', #81, #269, #30, .T. ) ;
#61 = CIRCLE ( 'NONE', #72, 0.5999999999999999778 ) ;
#62 = FACE_OUTER_BOUND ( 'NONE', #5, .T. ) ;
#63 = PERSON_AND_ORGANIZATION_ROLE ( 'creator' ) ;
#64 = AXIS2_PLACEMENT_3D ( 'NONE', #219, #15, #32 ) ;
#65 = DATE_AND_TIME ( #282, #99 ) ;
#66 = ADVANCED_FACE ( 'NONE', ( #62 ), #137, .T. ) ;
#67 =( NAMED_UNIT ( * ) SI_UNIT ( $, .STERADIAN. ) SOLID_ANGLE_UNIT ( ) );
#68 = ADVANCED_BREP_SHAPE_REPRESENTATION ( '20fe', ( #210, #164 ), #58 ) ;
#69 = AXIS2_PLACEMENT_3D ( 'NONE', #108, #80, #279 ) ;
#70 = EDGE_LOOP ( 'NONE', ( #169, #268 ) ) ;
#71 = AXIS2_PLACEMENT_3D ( 'NONE', #300, #249, #280 ) ;
#72 = AXIS2_PLACEMENT_3D ( 'NONE', #226, #14, #112 ) ;
#73 = VERTEX_POINT ( 'NONE', #87 ) ;
#74 = CARTESIAN_POINT ( 'NONE',  ( 0.000000000000000000, 0.000000000000000000, 1.199999999999999956 ) ) ;
#75 = AXIS2_PLACEMENT_3D ( 'NONE', #77, #193, #56 ) ;
#76 = ORIENTED_EDGE ( 'NONE', *, *, #24, .F. ) ;
#77 = CARTESIAN_POINT ( 'NONE',  ( 0.000000000000000000, 0.000000000000000000, 0.000000000000000000 ) ) ;
#78 = EDGE_CURVE ( 'NONE', #269, #170, #207, .T. ) ;
#79 = VERTEX_POINT ( 'NONE', #113 ) ;
#80 = DIRECTION ( 'NONE',  ( 0.000000000000000000, 0.000000000000000000, 1.000000000000000000 ) ) ;
#81 = VERTEX_POINT ( 'NONE', #254 ) ;
#82 = CARTESIAN_POINT ( 'NONE',  ( -1.250000000000000000, 0.000000000000000000, 1.199999999999999956 ) ) ;
#83 = DIRECTION ( 'NONE',  ( 1.000000000000000000, 0.000000000000000000, 0.000000000000000000 ) ) ;
#84 = ADVANCED_FACE ( 'NONE', ( #157, #230 ), #18, .T. ) ;
#85 = CIRCLE ( 'NONE', #270, 0.7999999999999999334 ) ;
#86 = CARTESIAN_POINT ( 'NONE',  ( 0.7999999999999999334, 0.000000000000000000, 1.400000000000012346 ) ) ;
#87 = CARTESIAN_POINT ( 'NONE',  ( -0.5999999999999999778, 0.000000000000000000, 161.2000000000000171 ) ) ;
#88 = UNCERTAINTY_MEASURE_WITH_UNIT (LENGTH_MEASURE( 1.000000000000000082E-05 ), #163, 'distance_accuracy_value', 'NONE');
#89 = CALENDAR_DATE ( 2022, 20, 6 ) ;
#90 = CLOSED_SHELL ( 'NONE', ( #105, #43, #147, #22, #84, #161, #66, #187, #153 ) ) ;
#91 = PRODUCT_DEFINITION_SHAPE ( 'NONE', 'NONE',  #221 ) ;
#92 = COORDINATED_UNIVERSAL_TIME_OFFSET ( 1, 0, .AHEAD. ) ;
#93 = PERSON_AND_ORGANIZATION ( #127, #195 ) ;
#94 = CIRCLE ( 'NONE', #114, 0.5999999999999999778 ) ;
#95 = PRODUCT_RELATED_PRODUCT_CATEGORY ( 'detail', '', ( #259 ) ) ;
#96 = APPROVAL_PERSON_ORGANIZATION ( #141, #265, #183 ) ;
#97 = EDGE_CURVE ( 'NONE', #269, #81, #61, .T. ) ;
#98 = APPROVAL_ROLE ( '' ) ;
#99 = LOCAL_TIME ( 12, 24, 46.00000000000000000, #92 ) ;
#100 = ORIENTED_EDGE ( 'NONE', *, *, #286, .T. ) ;
#101 = DIRECTION ( 'NONE',  ( -1.000000000000000000, 0.000000000000000000, 0.000000000000000000 ) ) ;
#102 = APPLICATION_CONTEXT ( 'configuration controlled 3d designs of mechanical parts and assemblies' ) ;
#103 = PLANE ( 'NONE',  #75 ) ;
#104 = ORIENTED_EDGE ( 'NONE', *, *, #262, .F. ) ;
#105 = ADVANCED_FACE ( 'NONE', ( #201 ), #218, .F. ) ;
#106 = CARTESIAN_POINT ( 'NONE',  ( 0.000000000000000000, 0.000000000000000000, 1.400000000000012346 ) ) ;
#107 = CIRCLE ( 'NONE', #188, 1.250000000000000000 ) ;
#108 = CARTESIAN_POINT ( 'NONE',  ( 0.000000000000000000, 0.000000000000000000, 1.199999999999999956 ) ) ;
#109 = CARTESIAN_POINT ( 'NONE',  ( 0.5999999999999999778, 7.347880794884117764E-17, 161.2000000000000171 ) ) ;
#110 = FACE_OUTER_BOUND ( 'NONE', #192, .T. ) ;
#111 = EDGE_CURVE ( 'NONE', #73, #79, #94, .T. ) ;
#112 = DIRECTION ( 'NONE',  ( 1.000000000000000000, 0.000000000000000000, 0.000000000000000000 ) ) ;
#113 = CARTESIAN_POINT ( 'NONE',  ( 0.5999999999999999778, 7.347880794884117764E-17, 161.2000000000000171 ) ) ;
#114 = AXIS2_PLACEMENT_3D ( 'NONE', #277, #133, #156 ) ;
#115 = AXIS2_PLACEMENT_3D ( 'NONE', #177, #179, #159 ) ;
#116 = PERSON_AND_ORGANIZATION ( #127, #195 ) ;
#117 = CALENDAR_DATE ( 2022, 20, 6 ) ;
#118 = CARTESIAN_POINT ( 'NONE',  ( 0.000000000000000000, 0.000000000000000000, 0.000000000000000000 ) ) ;
#119 = CIRCLE ( 'NONE', #134, 1.250000000000000000 ) ;
#120 = EDGE_CURVE ( 'NONE', #170, #152, #261, .T. ) ;
#121 = ORIENTED_EDGE ( 'NONE', *, *, #97, .T. ) ;
#122 = CIRCLE ( 'NONE', #69, 1.250000000000000000 ) ;
#123 = ORIENTED_EDGE ( 'NONE', *, *, #24, .T. ) ;
#124 = CARTESIAN_POINT ( 'NONE',  ( 0.000000000000000000, 0.000000000000000000, 1.199999999999999956 ) ) ;
#125 = ORIENTED_EDGE ( 'NONE', *, *, #172, .F. ) ;
#126 = EDGE_LOOP ( 'NONE', ( #190, #130, #51, #46 ) ) ;
#127 = PERSON ( 'NEURÈENÝ', 'NEURÈENÝ', 'NEURÈENÝ', ('NEURÈENÝ'), ('NEURÈENÝ'), ('NEURÈENÝ') ) ;
#128 = DIRECTION ( 'NONE',  ( 1.000000000000000000, 0.000000000000000000, 0.000000000000000000 ) ) ;
#129 = SECURITY_CLASSIFICATION ( '', '', #139 ) ;
#130 = ORIENTED_EDGE ( 'NONE', *, *, #60, .F. ) ;
#131 = PLANE ( 'NONE',  #287 ) ;
#132 = DIRECTION ( 'NONE',  ( 1.000000000000000000, 0.000000000000000000, -0.000000000000000000 ) ) ;
#133 = DIRECTION ( 'NONE',  ( 0.000000000000000000, 0.000000000000000000, 1.000000000000000000 ) ) ;
#134 = AXIS2_PLACEMENT_3D ( 'NONE', #203, #278, #59 ) ;
#135 = CARTESIAN_POINT ( 'NONE',  ( 0.000000000000000000, 0.000000000000000000, 1.199999999999999956 ) ) ;
#136 = COORDINATED_UNIVERSAL_TIME_OFFSET ( 1, 0, .AHEAD. ) ;
#137 = CYLINDRICAL_SURFACE ( 'NONE', #288, 0.5999999999999999778 ) ;
#138 = VECTOR ( 'NONE', #176, 1000.000000000000000 ) ;
#139 = SECURITY_CLASSIFICATION_LEVEL ( 'unclassified' ) ;
#140 = MECHANICAL_CONTEXT ( 'NONE', #2, 'mechanical' ) ;
#141 = PERSON_AND_ORGANIZATION ( #127, #195 ) ;
#142 = EDGE_CURVE ( 'NONE', #152, #170, #85, .T. ) ;
#143 = DATE_AND_TIME ( #264, #25 ) ;
#144 = AXIS2_PLACEMENT_3D ( 'NONE', #299, #251, #200 ) ;
#145 = EDGE_LOOP ( 'NONE', ( #239, #246 ) ) ;
#146 = LINE ( 'NONE', #275, #222 ) ;
#147 = ADVANCED_FACE ( 'NONE', ( #110 ), #216, .T. ) ;
#148 = ORIENTED_EDGE ( 'NONE', *, *, #78, .T. ) ;
#149 = LINE ( 'NONE', #82, #138 ) ;
#150 = EDGE_LOOP ( 'NONE', ( #238, #298, #220, #23 ) ) ;
#151 = DIRECTION ( 'NONE',  ( 0.000000000000000000, 0.000000000000000000, 1.000000000000000000 ) ) ;
#152 = VERTEX_POINT ( 'NONE', #8 ) ;
#153 = ADVANCED_FACE ( 'NONE', ( #6 ), #229, .F. ) ;
#154 = DIRECTION ( 'NONE',  ( 1.000000000000000000, 0.000000000000000000, 0.000000000000000000 ) ) ;
#155 = CARTESIAN_POINT ( 'NONE',  ( 0.000000000000000000, 0.000000000000000000, 1.400000000000012346 ) ) ;
#156 = DIRECTION ( 'NONE',  ( 1.000000000000000000, 0.000000000000000000, 0.000000000000000000 ) ) ;
#157 = FACE_BOUND ( 'NONE', #4, .T. ) ;
#158 = CARTESIAN_POINT ( 'NONE',  ( -1.250000000000000000, 0.000000000000000000, 0.000000000000000000 ) ) ;
#159 = DIRECTION ( 'NONE',  ( -1.000000000000000000, 1.224646799147352714E-16, 0.000000000000000000 ) ) ;
#160 = DATE_AND_TIME ( #20, #237 ) ;
#161 = ADVANCED_FACE ( 'NONE', ( #296 ), #103, .F. ) ;
#162 = DATE_TIME_ROLE ( 'classification_date' ) ;
#163 =( LENGTH_UNIT ( ) NAMED_UNIT ( * ) SI_UNIT ( .MILLI., .METRE. ) );
#164 = AXIS2_PLACEMENT_3D ( 'NONE', #118, #232, #304 ) ;
#165 = COORDINATED_UNIVERSAL_TIME_OFFSET ( 1, 0, .AHEAD. ) ;
#166 = CIRCLE ( 'NONE', #256, 0.5999999999999999778 ) ;
#167 = APPROVAL_DATE_TIME ( #143, #250 ) ;
#168 = ORIENTED_EDGE ( 'NONE', *, *, #111, .F. ) ;
#169 = ORIENTED_EDGE ( 'NONE', *, *, #111, .T. ) ;
#170 = VERTEX_POINT ( 'NONE', #171 ) ;
#171 = CARTESIAN_POINT ( 'NONE',  ( -0.7999999999999999334, 9.797174393178824918E-17, 1.200000000000006173 ) ) ;
#172 = EDGE_CURVE ( 'NONE', #79, #73, #166, .T. ) ;
#173 = ORIENTED_EDGE ( 'NONE', *, *, #60, .T. ) ;
#174 = LINE ( 'NONE', #29, #10 ) ;
#175 = ORIENTED_EDGE ( 'NONE', *, *, #120, .T. ) ;
#176 = DIRECTION ( 'NONE',  ( -0.000000000000000000, -0.000000000000000000, -1.000000000000000000 ) ) ;
#177 = CARTESIAN_POINT ( 'NONE',  ( -0.7999999999999999334, 9.797174393178824918E-17, 1.400000000000012346 ) ) ;
#178 = CARTESIAN_POINT ( 'NONE',  ( -0.5999999999999999778, 0.000000000000000000, 1.400000000000012346 ) ) ;
#179 = DIRECTION ( 'NONE',  ( 1.224646799147353207E-16, 1.000000000000000000, -0.000000000000000000 ) ) ;
#180 = DATE_AND_TIME ( #89, #234 ) ;
#181 = PERSON_AND_ORGANIZATION_ROLE ( 'design_owner' ) ;
#182 = APPROVAL_PERSON_ORGANIZATION ( #258, #250, #98 ) ;
#183 = APPROVAL_ROLE ( '' ) ;
#184 = EDGE_CURVE ( 'NONE', #295, #9, #45, .T. ) ;
#185 = DATE_AND_TIME ( #117, #50 ) ;
#186 = ORIENTED_EDGE ( 'NONE', *, *, #284, .T. ) ;
#187 = ADVANCED_FACE ( 'NONE', ( #273 ), #131, .T. ) ;
#188 = AXIS2_PLACEMENT_3D ( 'NONE', #35, #151, #245 ) ;
#189 = EDGE_CURVE ( 'NONE', #224, #295, #149, .T. ) ;
#190 = ORIENTED_EDGE ( 'NONE', *, *, #78, .F. ) ;
#191 = AXIS2_PLACEMENT_3D ( 'NONE', #135, #206, #132 ) ;
#192 = EDGE_LOOP ( 'NONE', ( #289, #28, #55, #26 ) ) ;
#193 = DIRECTION ( 'NONE',  ( 0.000000000000000000, 0.000000000000000000, 1.000000000000000000 ) ) ;
#194 = CARTESIAN_POINT ( 'NONE',  ( 0.000000000000000000, 0.000000000000000000, 1.199999999999999956 ) ) ;
#195 = ORGANIZATION ( 'NEURÈENÝ', 'NEURÈENÝ', '' ) ;
#196 = DIRECTION ( 'NONE',  ( 1.000000000000000000, 0.000000000000000000, 0.000000000000000000 ) ) ;
#197 = DIRECTION ( 'NONE',  ( 0.000000000000000000, -1.000000000000000000, 0.000000000000000000 ) ) ;
#198 = EDGE_CURVE ( 'NONE', #31, #9, #174, .T. ) ;
#199 = DIRECTION ( 'NONE',  ( -0.000000000000000000, -0.000000000000000000, -1.000000000000000000 ) ) ;
#200 = DIRECTION ( 'NONE',  ( 1.000000000000000000, 0.000000000000000000, 0.000000000000000000 ) ) ;
#201 = FACE_OUTER_BOUND ( 'NONE', #293, .T. ) ;
#202 = CARTESIAN_POINT ( 'NONE',  ( 0.000000000000000000, 0.000000000000000000, 161.2000000000000171 ) ) ;
#203 = CARTESIAN_POINT ( 'NONE',  ( 0.000000000000000000, 0.000000000000000000, 0.000000000000000000 ) ) ;
#204 = CC_DESIGN_PERSON_AND_ORGANIZATION_ASSIGNMENT ( #285, #41, ( #3 ) ) ;
#205 = PERSON_AND_ORGANIZATION ( #127, #195 ) ;
#206 = DIRECTION ( 'NONE',  ( 0.000000000000000000, 0.000000000000000000, 1.000000000000000000 ) ) ;
#207 = CIRCLE ( 'NONE', #115, 0.2000000000000000944 ) ;
#208 = COORDINATED_UNIVERSAL_TIME_OFFSET ( 1, 0, .AHEAD. ) ;
#209 = AXIS2_PLACEMENT_3D ( 'NONE', #86, #197, #12 ) ;
#210 = MANIFOLD_SOLID_BREP ( 'Zaoblit1', #90 ) ;
#211 = APPROVAL_DATE_TIME ( #160, #307 ) ;
#212 = EDGE_CURVE ( 'NONE', #31, #224, #107, .T. ) ;
#213 = CYLINDRICAL_SURFACE ( 'NONE', #71, 0.5999999999999999778 ) ;
#214 = AXIS2_PLACEMENT_3D ( 'NONE', #124, #242, #294 ) ;
#215 = CARTESIAN_POINT ( 'NONE',  ( 1.250000000000000000, 1.530808498934191571E-16, 0.000000000000000000 ) ) ;
#216 = CYLINDRICAL_SURFACE ( 'NONE', #64, 1.250000000000000000 ) ;
#217 = CYLINDRICAL_SURFACE ( 'NONE', #267, 1.250000000000000000 ) ;
#218 = TOROIDAL_SURFACE ( 'NONE', #19, 0.7999999999999999334, 0.2000000000000000111 ) ;
#219 = CARTESIAN_POINT ( 'NONE',  ( 0.000000000000000000, 0.000000000000000000, 1.199999999999999956 ) ) ;
#220 = ORIENTED_EDGE ( 'NONE', *, *, #189, .T. ) ;
#221 = PRODUCT_DEFINITION ( 'NEZNÁMÝ', '', #3, #257 ) ;
#222 = VECTOR ( 'NONE', #255, 1000.000000000000000 ) ;
#223 = CARTESIAN_POINT ( 'NONE',  ( -1.250000000000000000, 0.000000000000000000, 1.199999999999999956 ) ) ;
#224 = VERTEX_POINT ( 'NONE', #223 ) ;
#225 = DIRECTION ( 'NONE',  ( -0.000000000000000000, -0.000000000000000000, -1.000000000000000000 ) ) ;
#226 = CARTESIAN_POINT ( 'NONE',  ( 0.000000000000000000, 0.000000000000000000, 1.400000000000012346 ) ) ;
#227 = CC_DESIGN_DATE_AND_TIME_ASSIGNMENT ( #65, #162, ( #129 ) ) ;
#228 = PERSON_AND_ORGANIZATION_ROLE ( 'creator' ) ;
#229 = TOROIDAL_SURFACE ( 'NONE', #144, 0.7999999999999999334, 0.2000000000000000111 ) ;
#230 = FACE_OUTER_BOUND ( 'NONE', #241, .T. ) ;
#231 = PERSON_AND_ORGANIZATION ( #127, #195 ) ;
#232 = DIRECTION ( 'NONE',  ( 0.000000000000000000, 0.000000000000000000, 1.000000000000000000 ) ) ;
#233 = APPROVAL_ROLE ( '' ) ;
#234 = LOCAL_TIME ( 12, 24, 46.00000000000000000, #136 ) ;
#235 = APPROVAL_STATUS ( 'not_yet_approved' ) ;
#236 = CC_DESIGN_PERSON_AND_ORGANIZATION_ASSIGNMENT ( #231, #305, ( #129 ) ) ;
#237 = LOCAL_TIME ( 12, 24, 46.00000000000000000, #208 ) ;
#238 = ORIENTED_EDGE ( 'NONE', *, *, #198, .F. ) ;
#239 = ORIENTED_EDGE ( 'NONE', *, *, #184, .F. ) ;
#240 = DIRECTION ( 'NONE',  ( 0.000000000000000000, 0.000000000000000000, 1.000000000000000000 ) ) ;
#241 = EDGE_LOOP ( 'NONE', ( #186, #244 ) ) ;
#242 = DIRECTION ( 'NONE',  ( -0.000000000000000000, -0.000000000000000000, -1.000000000000000000 ) ) ;
#243 = CC_DESIGN_PERSON_AND_ORGANIZATION_ASSIGNMENT ( #93, #228, ( #221 ) ) ;
#244 = ORIENTED_EDGE ( 'NONE', *, *, #212, .T. ) ;
#245 = DIRECTION ( 'NONE',  ( 1.000000000000000000, 0.000000000000000000, 0.000000000000000000 ) ) ;
#246 = ORIENTED_EDGE ( 'NONE', *, *, #47, .F. ) ;
#247 = CC_DESIGN_APPROVAL ( #250, ( #129 ) ) ;
#248 = CARTESIAN_POINT ( 'NONE',  ( 0.000000000000000000, 0.000000000000000000, 0.000000000000000000 ) ) ;
#249 = DIRECTION ( 'NONE',  ( -0.000000000000000000, -0.000000000000000000, -1.000000000000000000 ) ) ;
#250 = APPROVAL ( #42, 'NEURÈENÝ' ) ;
#251 = DIRECTION ( 'NONE',  ( 0.000000000000000000, 0.000000000000000000, 1.000000000000000000 ) ) ;
#252 = DIRECTION ( 'NONE',  ( 0.000000000000000000, 0.000000000000000000, 1.000000000000000000 ) ) ;
#253 = DATE_TIME_ROLE ( 'creation_date' ) ;
#254 = CARTESIAN_POINT ( 'NONE',  ( 0.5999999999999999778, 7.347880794884117764E-17, 1.400000000000012346 ) ) ;
#255 = DIRECTION ( 'NONE',  ( -0.000000000000000000, -0.000000000000000000, -1.000000000000000000 ) ) ;
#256 = AXIS2_PLACEMENT_3D ( 'NONE', #37, #292, #154 ) ;
#257 = DESIGN_CONTEXT ( 'detailed design', #102, 'design' ) ;
#258 = PERSON_AND_ORGANIZATION ( #127, #195 ) ;
#259 = PRODUCT ( '20fe', '20fe', '', ( #140 ) ) ;
#260 = APPLICATION_PROTOCOL_DEFINITION ( 'international standard', 'config_control_design', 1994, #2 ) ;
#261 = CIRCLE ( 'NONE', #214, 0.7999999999999999334 ) ;
#262 = EDGE_CURVE ( 'NONE', #81, #152, #266, .T. ) ;
#263 = SHAPE_DEFINITION_REPRESENTATION ( #91, #68 ) ;
#264 = CALENDAR_DATE ( 2022, 20, 6 ) ;
#265 = APPROVAL ( #1, 'NEURÈENÝ' ) ;
#266 = CIRCLE ( 'NONE', #209, 0.2000000000000000944 ) ;
#267 = AXIS2_PLACEMENT_3D ( 'NONE', #194, #272, #101 ) ;
#268 = ORIENTED_EDGE ( 'NONE', *, *, #172, .T. ) ;
#269 = VERTEX_POINT ( 'NONE', #178 ) ;
#270 = AXIS2_PLACEMENT_3D ( 'NONE', #74, #225, #196 ) ;
#271 = DIRECTION ( 'NONE',  ( 0.000000000000000000, 0.000000000000000000, 1.000000000000000000 ) ) ;
#272 = DIRECTION ( 'NONE',  ( -0.000000000000000000, -0.000000000000000000, -1.000000000000000000 ) ) ;
#273 = FACE_OUTER_BOUND ( 'NONE', #70, .T. ) ;
#274 = ORIENTED_EDGE ( 'NONE', *, *, #97, .F. ) ;
#275 = CARTESIAN_POINT ( 'NONE',  ( -0.5999999999999999778, 0.000000000000000000, 161.2000000000000171 ) ) ;
#276 = CARTESIAN_POINT ( 'NONE',  ( 1.250000000000000000, 1.530808498934191571E-16, 1.199999999999999956 ) ) ;
#277 = CARTESIAN_POINT ( 'NONE',  ( 0.000000000000000000, 0.000000000000000000, 161.2000000000000171 ) ) ;
#278 = DIRECTION ( 'NONE',  ( 0.000000000000000000, 0.000000000000000000, 1.000000000000000000 ) ) ;
#279 = DIRECTION ( 'NONE',  ( 1.000000000000000000, 0.000000000000000000, 0.000000000000000000 ) ) ;
#280 = DIRECTION ( 'NONE',  ( -1.000000000000000000, 0.000000000000000000, 0.000000000000000000 ) ) ;
#281 = PERSON_AND_ORGANIZATION ( #127, #195 ) ;
#282 = CALENDAR_DATE ( 2022, 20, 6 ) ;
#283 = CC_DESIGN_SECURITY_CLASSIFICATION ( #129, ( #3 ) ) ;
#284 = EDGE_CURVE ( 'NONE', #224, #31, #122, .T. ) ;
#285 = PERSON_AND_ORGANIZATION ( #127, #195 ) ;
#286 = EDGE_CURVE ( 'NONE', #73, #269, #146, .T. ) ;
#287 = AXIS2_PLACEMENT_3D ( 'NONE', #202, #54, #52 ) ;
#288 = AXIS2_PLACEMENT_3D ( 'NONE', #36, #303, #38 ) ;
#289 = ORIENTED_EDGE ( 'NONE', *, *, #212, .F. ) ;
#290 = AXIS2_PLACEMENT_3D ( 'NONE', #155, #252, #83 ) ;
#291 = ORIENTED_EDGE ( 'NONE', *, *, #142, .T. ) ;
#292 = DIRECTION ( 'NONE',  ( 0.000000000000000000, 0.000000000000000000, 1.000000000000000000 ) ) ;
#293 = EDGE_LOOP ( 'NONE', ( #274, #148, #7, #104 ) ) ;
#294 = DIRECTION ( 'NONE',  ( 1.000000000000000000, 0.000000000000000000, 0.000000000000000000 ) ) ;
#295 = VERTEX_POINT ( 'NONE', #158 ) ;
#296 = FACE_OUTER_BOUND ( 'NONE', #145, .T. ) ;
#297 = CC_DESIGN_PERSON_AND_ORGANIZATION_ASSIGNMENT ( #205, #63, ( #3 ) ) ;
#298 = ORIENTED_EDGE ( 'NONE', *, *, #284, .F. ) ;
#299 = CARTESIAN_POINT ( 'NONE',  ( 0.000000000000000000, 0.000000000000000000, 1.400000000000012346 ) ) ;
#300 = CARTESIAN_POINT ( 'NONE',  ( 0.000000000000000000, 0.000000000000000000, 161.2000000000000171 ) ) ;
#301 = APPROVAL_PERSON_ORGANIZATION ( #116, #307, #233 ) ;
#302 = DIRECTION ( 'NONE',  ( -0.000000000000000000, -0.000000000000000000, -1.000000000000000000 ) ) ;
#303 = DIRECTION ( 'NONE',  ( -0.000000000000000000, -0.000000000000000000, -1.000000000000000000 ) ) ;
#304 = DIRECTION ( 'NONE',  ( 1.000000000000000000, 0.000000000000000000, 0.000000000000000000 ) ) ;
#305 = PERSON_AND_ORGANIZATION_ROLE ( 'classification_officer' ) ;
#306 = APPLICATION_PROTOCOL_DEFINITION ( 'international standard', 'config_control_design', 1994, #102 ) ;
#307 = APPROVAL ( #235, 'NEURÈENÝ' ) ;
ENDSEC;
END-ISO-10303-21;
