ISO-10303-21;
HEADER;
FILE_DESCRIPTION (( 'STEP AP203' ),
    '1' );
FILE_NAME ('b352.STEP',
    '2022-06-20T09:34:34',
    ( '' ),
    ( '' ),
    'SwSTEP 2.0',
    'SolidWorks 2019',
    '' );
FILE_SCHEMA (( 'CONFIG_CONTROL_DESIGN' ));
ENDSEC;

DATA;
#1 = PERSON_AND_ORGANIZATION ( #174, #99 ) ;
#2 = APPROVAL_DATE_TIME ( #120, #288 ) ;
#3 = ORIENTED_EDGE ( 'NONE', *, *, #246, .T. ) ;
#4 = PERSON_AND_ORGANIZATION ( #174, #99 ) ;
#5 = LOCAL_TIME ( 11, 34, 34.00000000000000000, #45 ) ;
#6 = CARTESIAN_POINT ( 'NONE',  ( 0.000000000000000000, 0.000000000000000000, 5.000000000000000000 ) ) ;
#7 = AXIS2_PLACEMENT_3D ( 'NONE', #6, #144, #219 ) ;
#8 = LOCAL_TIME ( 11, 34, 34.00000000000000000, #86 ) ;
#9 = ADVANCED_FACE ( 'NONE', ( #196 ), #123, .T. ) ;
#10 = AXIS2_PLACEMENT_3D ( 'NONE', #176, #269, #49 ) ;
#11 = APPROVAL_PERSON_ORGANIZATION ( #91, #83, #280 ) ;
#12 = CARTESIAN_POINT ( 'NONE',  ( 5.500000000000000000, 6.735557395310442023E-16, 805.0000000000000000 ) ) ;
#13 = ORIENTED_EDGE ( 'NONE', *, *, #108, .F. ) ;
#14 = PLANE ( 'NONE',  #18 ) ;
#15 = FACE_OUTER_BOUND ( 'NONE', #26, .T. ) ;
#16 = EDGE_CURVE ( 'NONE', #181, #189, #101, .T. ) ;
#17 = CARTESIAN_POINT ( 'NONE',  ( 8.000000000000000000, 9.797174393178825657E-16, 0.000000000000000000 ) ) ;
#18 = AXIS2_PLACEMENT_3D ( 'NONE', #170, #115, #250 ) ;
#19 = LINE ( 'NONE', #294, #50 ) ;
#20 = ORIENTED_EDGE ( 'NONE', *, *, #126, .F. ) ;
#21 = CARTESIAN_POINT ( 'NONE',  ( 8.000000000000000000, 9.797174393178825657E-16, 5.000000000000000000 ) ) ;
#22 = DIRECTION ( 'NONE',  ( 1.000000000000000000, 0.000000000000000000, 0.000000000000000000 ) ) ;
#23 = CALENDAR_DATE ( 2022, 20, 6 ) ;
#24 = PERSON_AND_ORGANIZATION_ROLE ( 'creator' ) ;
#25 = PERSON_AND_ORGANIZATION_ROLE ( 'creator' ) ;
#26 = EDGE_LOOP ( 'NONE', ( #225, #139 ) ) ;
#27 = CC_DESIGN_APPROVAL ( #83, ( #28 ) ) ;
#28 = PRODUCT_DEFINITION ( 'NEZNÁMÝ', '', #295, #151 ) ;
#29 = CIRCLE ( 'NONE', #208, 5.500000000000000000 ) ;
#30 = CARTESIAN_POINT ( 'NONE',  ( 0.000000000000000000, 0.000000000000000000, 0.000000000000000000 ) ) ;
#31 = SECURITY_CLASSIFICATION ( '', '', #197 ) ;
#32 = EDGE_CURVE ( 'NONE', #137, #60, #200, .T. ) ;
#33 = ORIENTED_EDGE ( 'NONE', *, *, #108, .T. ) ;
#34 = APPROVAL_DATE_TIME ( #159, #83 ) ;
#35 = CARTESIAN_POINT ( 'NONE',  ( 5.500000000000000000, 6.735557395310442023E-16, 805.0000000000000000 ) ) ;
#36 = ORIENTED_EDGE ( 'NONE', *, *, #105, .T. ) ;
#37 = FACE_OUTER_BOUND ( 'NONE', #299, .T. ) ;
#38 = LINE ( 'NONE', #12, #153 ) ;
#39 = DIRECTION ( 'NONE',  ( 0.000000000000000000, 0.000000000000000000, 1.000000000000000000 ) ) ;
#40 = ORIENTED_EDGE ( 'NONE', *, *, #246, .F. ) ;
#41 = CC_DESIGN_PERSON_AND_ORGANIZATION_ASSIGNMENT ( #292, #25, ( #295 ) ) ;
#42 = PLANE ( 'NONE',  #66 ) ;
#43 = DATE_TIME_ROLE ( 'creation_date' ) ;
#44 = ORIENTED_EDGE ( 'NONE', *, *, #249, .F. ) ;
#45 = COORDINATED_UNIVERSAL_TIME_OFFSET ( 1, 0, .AHEAD. ) ;
#46 = LOCAL_TIME ( 11, 34, 34.00000000000000000, #98 ) ;
#47 = EDGE_CURVE ( 'NONE', #181, #121, #29, .T. ) ;
#48 = FACE_OUTER_BOUND ( 'NONE', #276, .T. ) ;
#49 = DIRECTION ( 'NONE',  ( -1.000000000000000000, 1.224646799147353454E-16, 0.000000000000000000 ) ) ;
#50 = VECTOR ( 'NONE', #180, 1000.000000000000000 ) ;
#51 = DIRECTION ( 'NONE',  ( 0.000000000000000000, 0.000000000000000000, 1.000000000000000000 ) ) ;
#52 = CC_DESIGN_DATE_AND_TIME_ASSIGNMENT ( #177, #43, ( #28 ) ) ;
#53 = DIRECTION ( 'NONE',  ( 0.000000000000000000, 0.000000000000000000, 1.000000000000000000 ) ) ;
#54 =( GEOMETRIC_REPRESENTATION_CONTEXT ( 3 ) GLOBAL_UNCERTAINTY_ASSIGNED_CONTEXT ( ( #205 ) ) GLOBAL_UNIT_ASSIGNED_CONTEXT ( ( #301, #282, #231 ) ) REPRESENTATION_CONTEXT ( 'NONE', 'WORKASPACE' ) );
#55 = CARTESIAN_POINT ( 'NONE',  ( 0.000000000000000000, 0.000000000000000000, 5.199999999999982414 ) ) ;
#56 = CARTESIAN_POINT ( 'NONE',  ( 5.699999999999999289, 0.000000000000000000, 4.999999999999991118 ) ) ;
#57 = ORIENTED_EDGE ( 'NONE', *, *, #47, .F. ) ;
#58 = CALENDAR_DATE ( 2022, 20, 6 ) ;
#59 = CIRCLE ( 'NONE', #168, 5.500000000000000000 ) ;
#60 = VERTEX_POINT ( 'NONE', #267 ) ;
#61 = CARTESIAN_POINT ( 'NONE',  ( 0.000000000000000000, 0.000000000000000000, 5.000000000000000000 ) ) ;
#62 = CARTESIAN_POINT ( 'NONE',  ( 0.000000000000000000, 0.000000000000000000, 5.199999999999982414 ) ) ;
#63 = PERSON_AND_ORGANIZATION_ROLE ( 'design_owner' ) ;
#64 = CARTESIAN_POINT ( 'NONE',  ( 0.000000000000000000, 0.000000000000000000, 5.199999999999982414 ) ) ;
#65 = APPLICATION_PROTOCOL_DEFINITION ( 'international standard', 'config_control_design', 1994, #242 ) ;
#66 = AXIS2_PLACEMENT_3D ( 'NONE', #142, #51, #81 ) ;
#67 = ADVANCED_FACE ( 'NONE', ( #48 ), #260, .T. ) ;
#68 = DIRECTION ( 'NONE',  ( 1.000000000000000000, 0.000000000000000000, 0.000000000000000000 ) ) ;
#69 = CARTESIAN_POINT ( 'NONE',  ( 0.000000000000000000, 0.000000000000000000, 5.000000000000000000 ) ) ;
#70 = LOCAL_TIME ( 11, 34, 34.00000000000000000, #218 ) ;
#71 = DIRECTION ( 'NONE',  ( -1.000000000000000000, 0.000000000000000000, 0.000000000000000000 ) ) ;
#72 = APPROVAL_STATUS ( 'not_yet_approved' ) ;
#73 = ORIENTED_EDGE ( 'NONE', *, *, #32, .T. ) ;
#74 = APPROVAL_STATUS ( 'not_yet_approved' ) ;
#75 = CIRCLE ( 'NONE', #243, 8.000000000000000000 ) ;
#76 = ADVANCED_FACE ( 'NONE', ( #261 ), #42, .T. ) ;
#77 = CARTESIAN_POINT ( 'NONE',  ( 0.000000000000000000, 0.000000000000000000, 5.000000000000000000 ) ) ;
#78 = SHAPE_DEFINITION_REPRESENTATION ( #186, #216 ) ;
#79 = EDGE_CURVE ( 'NONE', #100, #248, #75, .T. ) ;
#80 = CIRCLE ( 'NONE', #107, 0.1999999999999996503 ) ;
#81 = DIRECTION ( 'NONE',  ( 1.000000000000000000, 0.000000000000000000, -0.000000000000000000 ) ) ;
#82 = AXIS2_PLACEMENT_3D ( 'NONE', #77, #175, #68 ) ;
#83 = APPROVAL ( #297, 'NEURÈENÝ' ) ;
#84 = DIRECTION ( 'NONE',  ( 0.000000000000000000, 0.000000000000000000, 1.000000000000000000 ) ) ;
#85 = EDGE_LOOP ( 'NONE', ( #33, #90 ) ) ;
#86 = COORDINATED_UNIVERSAL_TIME_OFFSET ( 1, 0, .AHEAD. ) ;
#87 = DIRECTION ( 'NONE',  ( 0.000000000000000000, 0.000000000000000000, 1.000000000000000000 ) ) ;
#88 = VERTEX_POINT ( 'NONE', #244 ) ;
#89 = DIRECTION ( 'NONE',  ( 1.000000000000000000, 0.000000000000000000, 0.000000000000000000 ) ) ;
#90 = ORIENTED_EDGE ( 'NONE', *, *, #249, .T. ) ;
#91 = PERSON_AND_ORGANIZATION ( #174, #99 ) ;
#92 = FACE_OUTER_BOUND ( 'NONE', #214, .T. ) ;
#93 = CARTESIAN_POINT ( 'NONE',  ( -8.000000000000000000, 0.000000000000000000, 5.000000000000000000 ) ) ;
#94 = DIRECTION ( 'NONE',  ( 0.000000000000000000, 0.000000000000000000, 1.000000000000000000 ) ) ;
#95 = DIRECTION ( 'NONE',  ( 0.000000000000000000, 0.000000000000000000, 1.000000000000000000 ) ) ;
#96 = AXIS2_PLACEMENT_3D ( 'NONE', #239, #131, #279 ) ;
#97 = ORIENTED_EDGE ( 'NONE', *, *, #224, .T. ) ;
#98 = COORDINATED_UNIVERSAL_TIME_OFFSET ( 1, 0, .AHEAD. ) ;
#99 = ORGANIZATION ( 'NEURÈENÝ', 'NEURÈENÝ', '' ) ;
#100 = VERTEX_POINT ( 'NONE', #149 ) ;
#101 = LINE ( 'NONE', #291, #307 ) ;
#102 = EDGE_CURVE ( 'NONE', #248, #100, #238, .T. ) ;
#103 = DIRECTION ( 'NONE',  ( 1.000000000000000000, 0.000000000000000000, 0.000000000000000000 ) ) ;
#104 = DIRECTION ( 'NONE',  ( 0.000000000000000000, 0.000000000000000000, 1.000000000000000000 ) ) ;
#105 = EDGE_CURVE ( 'NONE', #189, #60, #148, .T. ) ;
#106 = AXIS2_PLACEMENT_3D ( 'NONE', #30, #53, #129 ) ;
#107 = AXIS2_PLACEMENT_3D ( 'NONE', #273, #136, #253 ) ;
#108 = EDGE_CURVE ( 'NONE', #286, #88, #190, .T. ) ;
#109 = DIRECTION ( 'NONE',  ( -0.000000000000000000, -0.000000000000000000, -1.000000000000000000 ) ) ;
#110 = ORIENTED_EDGE ( 'NONE', *, *, #220, .F. ) ;
#111 = PLANE ( 'NONE',  #179 ) ;
#112 = CYLINDRICAL_SURFACE ( 'NONE', #185, 8.000000000000000000 ) ;
#113 = CARTESIAN_POINT ( 'NONE',  ( -5.500000000000000000, 0.000000000000000000, 805.0000000000000000 ) ) ;
#114 = LOCAL_TIME ( 11, 34, 34.00000000000000000, #268 ) ;
#115 = DIRECTION ( 'NONE',  ( 0.000000000000000000, 0.000000000000000000, 1.000000000000000000 ) ) ;
#116 = CARTESIAN_POINT ( 'NONE',  ( 0.000000000000000000, 0.000000000000000000, 805.0000000000000000 ) ) ;
#117 = ORIENTED_EDGE ( 'NONE', *, *, #152, .T. ) ;
#118 = DIRECTION ( 'NONE',  ( -0.000000000000000000, -0.000000000000000000, -1.000000000000000000 ) ) ;
#119 = CIRCLE ( 'NONE', #222, 8.000000000000000000 ) ;
#120 = DATE_AND_TIME ( #266, #114 ) ;
#121 = VERTEX_POINT ( 'NONE', #35 ) ;
#122 = CALENDAR_DATE ( 2022, 20, 6 ) ;
#123 = CYLINDRICAL_SURFACE ( 'NONE', #7, 8.000000000000000000 ) ;
#124 = PERSON_AND_ORGANIZATION ( #174, #99 ) ;
#125 = ORIENTED_EDGE ( 'NONE', *, *, #126, .T. ) ;
#126 = EDGE_CURVE ( 'NONE', #189, #206, #270, .T. ) ;
#127 = AXIS2_PLACEMENT_3D ( 'NONE', #284, #118, #182 ) ;
#128 = TOROIDAL_SURFACE ( 'NONE', #240, 5.699999999999999289, 0.2000000000000000111 ) ;
#129 = DIRECTION ( 'NONE',  ( 1.000000000000000000, 0.000000000000000000, 0.000000000000000000 ) ) ;
#130 = ORIENTED_EDGE ( 'NONE', *, *, #220, .T. ) ;
#131 = DIRECTION ( 'NONE',  ( 0.000000000000000000, 0.000000000000000000, 1.000000000000000000 ) ) ;
#132 = ORIENTED_EDGE ( 'NONE', *, *, #215, .F. ) ;
#133 = PERSON_AND_ORGANIZATION ( #174, #99 ) ;
#134 = EDGE_LOOP ( 'NONE', ( #73, #97 ) ) ;
#135 = CARTESIAN_POINT ( 'NONE',  ( 0.000000000000000000, 0.000000000000000000, 0.000000000000000000 ) ) ;
#136 = DIRECTION ( 'NONE',  ( 0.000000000000000000, -1.000000000000000000, 0.000000000000000000 ) ) ;
#137 = VERTEX_POINT ( 'NONE', #56 ) ;
#138 = CC_DESIGN_PERSON_AND_ORGANIZATION_ASSIGNMENT ( #161, #63, ( #300 ) ) ;
#139 = ORIENTED_EDGE ( 'NONE', *, *, #102, .F. ) ;
#140 = DIRECTION ( 'NONE',  ( 0.000000000000000000, 0.000000000000000000, 1.000000000000000000 ) ) ;
#141 = DIRECTION ( 'NONE',  ( 0.000000000000000000, 0.000000000000000000, 1.000000000000000000 ) ) ;
#142 = CARTESIAN_POINT ( 'NONE',  ( 0.000000000000000000, 0.000000000000000000, 805.0000000000000000 ) ) ;
#143 = EDGE_CURVE ( 'NONE', #206, #137, #80, .T. ) ;
#144 = DIRECTION ( 'NONE',  ( -0.000000000000000000, -0.000000000000000000, -1.000000000000000000 ) ) ;
#145 = AXIS2_PLACEMENT_3D ( 'NONE', #135, #141, #89 ) ;
#146 = APPROVAL_DATE_TIME ( #147, #192 ) ;
#147 = DATE_AND_TIME ( #23, #5 ) ;
#148 = CIRCLE ( 'NONE', #10, 0.1999999999999996503 ) ;
#149 = CARTESIAN_POINT ( 'NONE',  ( -8.000000000000000000, 0.000000000000000000, 0.000000000000000000 ) ) ;
#150 = APPROVAL_ROLE ( '' ) ;
#151 = DESIGN_CONTEXT ( 'detailed design', #275, 'design' ) ;
#152 = EDGE_CURVE ( 'NONE', #206, #189, #59, .T. ) ;
#153 = VECTOR ( 'NONE', #109, 1000.000000000000000 ) ;
#154 = CARTESIAN_POINT ( 'NONE',  ( -5.500000000000000000, 0.000000000000000000, 5.199999999999982414 ) ) ;
#155 = EDGE_CURVE ( 'NONE', #121, #206, #38, .T. ) ;
#156 = EDGE_LOOP ( 'NONE', ( #44, #3, #278, #132 ) ) ;
#157 = CLOSED_SHELL ( 'NONE', ( #199, #67, #304, #9, #271, #265, #274, #76, #165 ) ) ;
#158 = ORIENTED_EDGE ( 'NONE', *, *, #143, .T. ) ;
#159 = DATE_AND_TIME ( #58, #8 ) ;
#160 = ORIENTED_EDGE ( 'NONE', *, *, #215, .T. ) ;
#161 = PERSON_AND_ORGANIZATION ( #174, #99 ) ;
#162 = DIRECTION ( 'NONE',  ( 1.000000000000000000, 0.000000000000000000, 0.000000000000000000 ) ) ;
#163 = ORIENTED_EDGE ( 'NONE', *, *, #32, .F. ) ;
#164 = DIRECTION ( 'NONE',  ( -0.000000000000000000, -0.000000000000000000, -1.000000000000000000 ) ) ;
#165 = ADVANCED_FACE ( 'NONE', ( #166 ), #251, .F. ) ;
#166 = FACE_OUTER_BOUND ( 'NONE', #263, .T. ) ;
#167 = FACE_OUTER_BOUND ( 'NONE', #156, .T. ) ;
#168 = AXIS2_PLACEMENT_3D ( 'NONE', #55, #203, #257 ) ;
#169 = DIRECTION ( 'NONE',  ( 0.000000000000000000, 0.000000000000000000, 1.000000000000000000 ) ) ;
#170 = CARTESIAN_POINT ( 'NONE',  ( 0.000000000000000000, 0.000000000000000000, 0.000000000000000000 ) ) ;
#171 = CC_DESIGN_PERSON_AND_ORGANIZATION_ASSIGNMENT ( #237, #287, ( #295 ) ) ;
#172 = CALENDAR_DATE ( 2022, 20, 6 ) ;
#173 = ORIENTED_EDGE ( 'NONE', *, *, #16, .T. ) ;
#174 = PERSON ( 'NEURÈENÝ', 'NEURÈENÝ', 'NEURÈENÝ', ('NEURÈENÝ'), ('NEURÈENÝ'), ('NEURÈENÝ') ) ;
#175 = DIRECTION ( 'NONE',  ( -0.000000000000000000, -0.000000000000000000, -1.000000000000000000 ) ) ;
#176 = CARTESIAN_POINT ( 'NONE',  ( -5.699999999999999289, 6.980486755139912122E-16, 5.199999999999982414 ) ) ;
#177 = DATE_AND_TIME ( #122, #46 ) ;
#178 = CARTESIAN_POINT ( 'NONE',  ( 0.000000000000000000, 0.000000000000000000, 0.000000000000000000 ) ) ;
#179 = AXIS2_PLACEMENT_3D ( 'NONE', #61, #95, #212 ) ;
#180 = DIRECTION ( 'NONE',  ( -0.000000000000000000, -0.000000000000000000, -1.000000000000000000 ) ) ;
#181 = VERTEX_POINT ( 'NONE', #113 ) ;
#182 = DIRECTION ( 'NONE',  ( -1.000000000000000000, 0.000000000000000000, 0.000000000000000000 ) ) ;
#183 = AXIS2_PLACEMENT_3D ( 'NONE', #233, #194, #71 ) ;
#184 = ORIENTED_EDGE ( 'NONE', *, *, #79, .T. ) ;
#185 = AXIS2_PLACEMENT_3D ( 'NONE', #69, #191, #207 ) ;
#186 = PRODUCT_DEFINITION_SHAPE ( 'NONE', 'NONE',  #28 ) ;
#187 = ORIENTED_EDGE ( 'NONE', *, *, #155, .F. ) ;
#188 = DIRECTION ( 'NONE',  ( -0.000000000000000000, -0.000000000000000000, -1.000000000000000000 ) ) ;
#189 = VERTEX_POINT ( 'NONE', #154 ) ;
#190 = CIRCLE ( 'NONE', #96, 8.000000000000000000 ) ;
#191 = DIRECTION ( 'NONE',  ( -0.000000000000000000, -0.000000000000000000, -1.000000000000000000 ) ) ;
#192 = APPROVAL ( #74, 'NEURÈENÝ' ) ;
#193 = AXIS2_PLACEMENT_3D ( 'NONE', #306, #188, #283 ) ;
#194 = DIRECTION ( 'NONE',  ( -0.000000000000000000, -0.000000000000000000, -1.000000000000000000 ) ) ;
#195 = APPROVAL_ROLE ( '' ) ;
#196 = FACE_OUTER_BOUND ( 'NONE', #247, .T. ) ;
#197 = SECURITY_CLASSIFICATION_LEVEL ( 'unclassified' ) ;
#198 = ORIENTED_EDGE ( 'NONE', *, *, #47, .T. ) ;
#199 = ADVANCED_FACE ( 'NONE', ( #92 ), #128, .F. ) ;
#200 = CIRCLE ( 'NONE', #82, 5.699999999999999289 ) ;
#201 = AXIS2_PLACEMENT_3D ( 'NONE', #62, #87, #162 ) ;
#202 = PRODUCT_RELATED_PRODUCT_CATEGORY ( 'detail', '', ( #300 ) ) ;
#203 = DIRECTION ( 'NONE',  ( 0.000000000000000000, 0.000000000000000000, 1.000000000000000000 ) ) ;
#204 = CC_DESIGN_APPROVAL ( #288, ( #295 ) ) ;
#205 = UNCERTAINTY_MEASURE_WITH_UNIT (LENGTH_MEASURE( 1.000000000000000082E-05 ), #301, 'distance_accuracy_value', 'NONE');
#206 = VERTEX_POINT ( 'NONE', #281 ) ;
#207 = DIRECTION ( 'NONE',  ( -1.000000000000000000, 0.000000000000000000, 0.000000000000000000 ) ) ;
#208 = AXIS2_PLACEMENT_3D ( 'NONE', #235, #169, #22 ) ;
#209 = FACE_BOUND ( 'NONE', #134, .T. ) ;
#210 = DIRECTION ( 'NONE',  ( 1.000000000000000000, 0.000000000000000000, 0.000000000000000000 ) ) ;
#211 = ORIENTED_EDGE ( 'NONE', *, *, #105, .F. ) ;
#212 = DIRECTION ( 'NONE',  ( 1.000000000000000000, 0.000000000000000000, -0.000000000000000000 ) ) ;
#213 = DIRECTION ( 'NONE',  ( 1.000000000000000000, 0.000000000000000000, 0.000000000000000000 ) ) ;
#214 = EDGE_LOOP ( 'NONE', ( #20, #36, #163, #236 ) ) ;
#215 = EDGE_CURVE ( 'NONE', #286, #100, #19, .T. ) ;
#216 = ADVANCED_BREP_SHAPE_REPRESENTATION ( 'b352', ( #298, #145 ), #54 ) ;
#217 = DIRECTION ( 'NONE',  ( -0.000000000000000000, -0.000000000000000000, -1.000000000000000000 ) ) ;
#218 = COORDINATED_UNIVERSAL_TIME_OFFSET ( 1, 0, .AHEAD. ) ;
#219 = DIRECTION ( 'NONE',  ( -1.000000000000000000, 0.000000000000000000, 0.000000000000000000 ) ) ;
#220 = EDGE_CURVE ( 'NONE', #121, #181, #272, .T. ) ;
#221 = CC_DESIGN_APPROVAL ( #192, ( #31 ) ) ;
#222 = AXIS2_PLACEMENT_3D ( 'NONE', #255, #140, #305 ) ;
#223 = ORIENTED_EDGE ( 'NONE', *, *, #224, .F. ) ;
#224 = EDGE_CURVE ( 'NONE', #60, #137, #302, .T. ) ;
#225 = ORIENTED_EDGE ( 'NONE', *, *, #79, .F. ) ;
#226 = APPLICATION_PROTOCOL_DEFINITION ( 'international standard', 'config_control_design', 1994, #275 ) ;
#227 = LINE ( 'NONE', #21, #234 ) ;
#228 = CC_DESIGN_SECURITY_CLASSIFICATION ( #31, ( #295 ) ) ;
#229 = DIRECTION ( 'NONE',  ( 1.000000000000000000, 0.000000000000000000, 0.000000000000000000 ) ) ;
#230 = ORIENTED_EDGE ( 'NONE', *, *, #152, .F. ) ;
#231 =( NAMED_UNIT ( * ) SI_UNIT ( $, .STERADIAN. ) SOLID_ANGLE_UNIT ( ) );
#232 = MECHANICAL_CONTEXT ( 'NONE', #242, 'mechanical' ) ;
#233 = CARTESIAN_POINT ( 'NONE',  ( 0.000000000000000000, 0.000000000000000000, 805.0000000000000000 ) ) ;
#234 = VECTOR ( 'NONE', #164, 1000.000000000000000 ) ;
#235 = CARTESIAN_POINT ( 'NONE',  ( 0.000000000000000000, 0.000000000000000000, 805.0000000000000000 ) ) ;
#236 = ORIENTED_EDGE ( 'NONE', *, *, #143, .F. ) ;
#237 = PERSON_AND_ORGANIZATION ( #174, #99 ) ;
#238 = CIRCLE ( 'NONE', #106, 8.000000000000000000 ) ;
#239 = CARTESIAN_POINT ( 'NONE',  ( 0.000000000000000000, 0.000000000000000000, 5.000000000000000000 ) ) ;
#240 = AXIS2_PLACEMENT_3D ( 'NONE', #64, #39, #229 ) ;
#241 = CC_DESIGN_PERSON_AND_ORGANIZATION_ASSIGNMENT ( #133, #24, ( #28 ) ) ;
#242 = APPLICATION_CONTEXT ( 'configuration controlled 3d designs of mechanical parts and assemblies' ) ;
#243 = AXIS2_PLACEMENT_3D ( 'NONE', #178, #104, #103 ) ;
#244 = CARTESIAN_POINT ( 'NONE',  ( 8.000000000000000000, 9.797174393178825657E-16, 5.000000000000000000 ) ) ;
#245 = AXIS2_PLACEMENT_3D ( 'NONE', #277, #84, #210 ) ;
#246 = EDGE_CURVE ( 'NONE', #88, #248, #227, .T. ) ;
#247 = EDGE_LOOP ( 'NONE', ( #40, #13, #160, #184 ) ) ;
#248 = VERTEX_POINT ( 'NONE', #17 ) ;
#249 = EDGE_CURVE ( 'NONE', #88, #286, #119, .T. ) ;
#250 = DIRECTION ( 'NONE',  ( 1.000000000000000000, 0.000000000000000000, -0.000000000000000000 ) ) ;
#251 = TOROIDAL_SURFACE ( 'NONE', #245, 5.699999999999999289, 0.2000000000000000111 ) ;
#252 = FACE_OUTER_BOUND ( 'NONE', #85, .T. ) ;
#253 = DIRECTION ( 'NONE',  ( 0.000000000000000000, 0.000000000000000000, -1.000000000000000000 ) ) ;
#254 = ORIENTED_EDGE ( 'NONE', *, *, #155, .T. ) ;
#255 = CARTESIAN_POINT ( 'NONE',  ( 0.000000000000000000, 0.000000000000000000, 5.000000000000000000 ) ) ;
#256 = CC_DESIGN_PERSON_AND_ORGANIZATION_ASSIGNMENT ( #124, #289, ( #31 ) ) ;
#257 = DIRECTION ( 'NONE',  ( 1.000000000000000000, 0.000000000000000000, 0.000000000000000000 ) ) ;
#258 = ORIENTED_EDGE ( 'NONE', *, *, #16, .F. ) ;
#259 = CYLINDRICAL_SURFACE ( 'NONE', #127, 5.500000000000000000 ) ;
#260 = CYLINDRICAL_SURFACE ( 'NONE', #183, 5.500000000000000000 ) ;
#261 = FACE_OUTER_BOUND ( 'NONE', #303, .T. ) ;
#262 = DATE_AND_TIME ( #172, #70 ) ;
#263 = EDGE_LOOP ( 'NONE', ( #211, #230, #158, #223 ) ) ;
#264 = DATE_TIME_ROLE ( 'classification_date' ) ;
#265 = ADVANCED_FACE ( 'NONE', ( #15 ), #14, .F. ) ;
#266 = CALENDAR_DATE ( 2022, 20, 6 ) ;
#267 = CARTESIAN_POINT ( 'NONE',  ( -5.699999999999999289, 6.980486755139912122E-16, 4.999999999999991118 ) ) ;
#268 = COORDINATED_UNIVERSAL_TIME_OFFSET ( 1, 0, .AHEAD. ) ;
#269 = DIRECTION ( 'NONE',  ( 1.224646799147353207E-16, 1.000000000000000000, -0.000000000000000000 ) ) ;
#270 = CIRCLE ( 'NONE', #201, 5.500000000000000000 ) ;
#271 = ADVANCED_FACE ( 'NONE', ( #209, #252 ), #111, .T. ) ;
#272 = CIRCLE ( 'NONE', #285, 5.500000000000000000 ) ;
#273 = CARTESIAN_POINT ( 'NONE',  ( 5.699999999999999289, 0.000000000000000000, 5.199999999999982414 ) ) ;
#274 = ADVANCED_FACE ( 'NONE', ( #37 ), #259, .T. ) ;
#275 = APPLICATION_CONTEXT ( 'configuration controlled 3d designs of mechanical parts and assemblies' ) ;
#276 = EDGE_LOOP ( 'NONE', ( #110, #254, #117, #258 ) ) ;
#277 = CARTESIAN_POINT ( 'NONE',  ( 0.000000000000000000, 0.000000000000000000, 5.199999999999982414 ) ) ;
#278 = ORIENTED_EDGE ( 'NONE', *, *, #102, .T. ) ;
#279 = DIRECTION ( 'NONE',  ( 1.000000000000000000, 0.000000000000000000, 0.000000000000000000 ) ) ;
#280 = APPROVAL_ROLE ( '' ) ;
#281 = CARTESIAN_POINT ( 'NONE',  ( 5.500000000000000000, 6.735557395310442023E-16, 5.199999999999982414 ) ) ;
#282 =( NAMED_UNIT ( * ) PLANE_ANGLE_UNIT ( ) SI_UNIT ( $, .RADIAN. ) );
#283 = DIRECTION ( 'NONE',  ( 1.000000000000000000, 0.000000000000000000, 0.000000000000000000 ) ) ;
#284 = CARTESIAN_POINT ( 'NONE',  ( 0.000000000000000000, 0.000000000000000000, 805.0000000000000000 ) ) ;
#285 = AXIS2_PLACEMENT_3D ( 'NONE', #116, #94, #213 ) ;
#286 = VERTEX_POINT ( 'NONE', #93 ) ;
#287 = PERSON_AND_ORGANIZATION_ROLE ( 'design_supplier' ) ;
#288 = APPROVAL ( #72, 'NEURÈENÝ' ) ;
#289 = PERSON_AND_ORGANIZATION_ROLE ( 'classification_officer' ) ;
#290 = APPROVAL_PERSON_ORGANIZATION ( #4, #192, #150 ) ;
#291 = CARTESIAN_POINT ( 'NONE',  ( -5.500000000000000000, 0.000000000000000000, 805.0000000000000000 ) ) ;
#292 = PERSON_AND_ORGANIZATION ( #174, #99 ) ;
#293 = APPROVAL_PERSON_ORGANIZATION ( #1, #288, #195 ) ;
#294 = CARTESIAN_POINT ( 'NONE',  ( -8.000000000000000000, 0.000000000000000000, 5.000000000000000000 ) ) ;
#295 = PRODUCT_DEFINITION_FORMATION_WITH_SPECIFIED_SOURCE ( 'LIBOVOLNÝ', '', #300, .NOT_KNOWN. ) ;
#296 = CC_DESIGN_DATE_AND_TIME_ASSIGNMENT ( #262, #264, ( #31 ) ) ;
#297 = APPROVAL_STATUS ( 'not_yet_approved' ) ;
#298 = MANIFOLD_SOLID_BREP ( 'Zaoblit1', #157 ) ;
#299 = EDGE_LOOP ( 'NONE', ( #187, #57, #173, #125 ) ) ;
#300 = PRODUCT ( 'b352', 'b352', '', ( #232 ) ) ;
#301 =( LENGTH_UNIT ( ) NAMED_UNIT ( * ) SI_UNIT ( .MILLI., .METRE. ) );
#302 = CIRCLE ( 'NONE', #193, 5.699999999999999289 ) ;
#303 = EDGE_LOOP ( 'NONE', ( #198, #130 ) ) ;
#304 = ADVANCED_FACE ( 'NONE', ( #167 ), #112, .T. ) ;
#305 = DIRECTION ( 'NONE',  ( 1.000000000000000000, 0.000000000000000000, 0.000000000000000000 ) ) ;
#306 = CARTESIAN_POINT ( 'NONE',  ( 0.000000000000000000, 0.000000000000000000, 5.000000000000000000 ) ) ;
#307 = VECTOR ( 'NONE', #217, 1000.000000000000000 ) ;
ENDSEC;
END-ISO-10303-21;
