ISO-10303-21;
HEADER;
FILE_DESCRIPTION (( 'STEP AP203' ),
    '1' );
FILE_NAME ('6527.STEP',
    '2022-06-20T09:24:45',
    ( '' ),
    ( '' ),
    'SwSTEP 2.0',
    'SolidWorks 2019',
    '' );
FILE_SCHEMA (( 'CONFIG_CONTROL_DESIGN' ));
ENDSEC;

DATA;
#1 = PERSON_AND_ORGANIZATION ( #175, #98 ) ;
#2 = ORIENTED_EDGE ( 'NONE', *, *, #97, .F. ) ;
#3 = AXIS2_PLACEMENT_3D ( 'NONE', #166, #266, #286 ) ;
#4 = DATE_AND_TIME ( #218, #169 ) ;
#5 = APPROVAL ( #50, 'NEURÈENÝ' ) ;
#6 = PRODUCT_DEFINITION_SHAPE ( 'NONE', 'NONE',  #181 ) ;
#7 = LINE ( 'NONE', #77, #296 ) ;
#8 = FACE_OUTER_BOUND ( 'NONE', #152, .T. ) ;
#9 = ORIENTED_EDGE ( 'NONE', *, *, #239, .T. ) ;
#10 = VERTEX_POINT ( 'NONE', #13 ) ;
#11 = ADVANCED_FACE ( 'NONE', ( #8 ), #248, .T. ) ;
#12 = CIRCLE ( 'NONE', #202, 8.200000000000001066 ) ;
#13 = CARTESIAN_POINT ( 'NONE',  ( -11.00000000000000000, 0.000000000000000000, 0.000000000000000000 ) ) ;
#14 = DIRECTION ( 'NONE',  ( 1.000000000000000000, 0.000000000000000000, 0.000000000000000000 ) ) ;
#15 = CARTESIAN_POINT ( 'NONE',  ( -11.00000000000000000, 0.000000000000000000, 7.000000000000000000 ) ) ;
#16 = CALENDAR_DATE ( 2022, 20, 6 ) ;
#17 = CARTESIAN_POINT ( 'NONE',  ( 0.000000000000000000, 0.000000000000000000, 7.000000000000000000 ) ) ;
#18 = DIRECTION ( 'NONE',  ( 0.000000000000000000, 0.000000000000000000, 1.000000000000000000 ) ) ;
#19 = CIRCLE ( 'NONE', #194, 0.1999999999999996503 ) ;
#20 = ADVANCED_BREP_SHAPE_REPRESENTATION ( '6527', ( #28, #3 ), #47 ) ;
#21 = PERSON_AND_ORGANIZATION_ROLE ( 'design_supplier' ) ;
#22 = EDGE_LOOP ( 'NONE', ( #104, #224 ) ) ;
#23 = VECTOR ( 'NONE', #105, 1000.000000000000000 ) ;
#24 = DIRECTION ( 'NONE',  ( -0.000000000000000000, -0.000000000000000000, -1.000000000000000000 ) ) ;
#25 = VERTEX_POINT ( 'NONE', #201 ) ;
#26 = EDGE_CURVE ( 'NONE', #101, #59, #297, .T. ) ;
#27 = AXIS2_PLACEMENT_3D ( 'NONE', #127, #100, #14 ) ;
#28 = MANIFOLD_SOLID_BREP ( 'Zaoblit1', #176 ) ;
#29 = CARTESIAN_POINT ( 'NONE',  ( 11.00000000000000000, 1.347111479062088405E-15, 7.000000000000000000 ) ) ;
#30 = DESIGN_CONTEXT ( 'detailed design', #220, 'design' ) ;
#31 = EDGE_LOOP ( 'NONE', ( #147, #222, #71, #128 ) ) ;
#32 = EDGE_LOOP ( 'NONE', ( #272, #197 ) ) ;
#33 = CIRCLE ( 'NONE', #210, 8.200000000000001066 ) ;
#34 = CARTESIAN_POINT ( 'NONE',  ( 0.000000000000000000, 0.000000000000000000, 132.0000000000000000 ) ) ;
#35 = SECURITY_CLASSIFICATION ( '', '', #40 ) ;
#36 = CC_DESIGN_PERSON_AND_ORGANIZATION_ASSIGNMENT ( #108, #21, ( #172 ) ) ;
#37 = CARTESIAN_POINT ( 'NONE',  ( 0.000000000000000000, 0.000000000000000000, 132.0000000000000000 ) ) ;
#38 = DIRECTION ( 'NONE',  ( 1.000000000000000000, 0.000000000000000000, 0.000000000000000000 ) ) ;
#39 = DIRECTION ( 'NONE',  ( -0.000000000000000000, -0.000000000000000000, -1.000000000000000000 ) ) ;
#40 = SECURITY_CLASSIFICATION_LEVEL ( 'unclassified' ) ;
#41 = DIRECTION ( 'NONE',  ( 0.000000000000000000, 0.000000000000000000, 1.000000000000000000 ) ) ;
#42 = DATE_AND_TIME ( #301, #270 ) ;
#43 = CARTESIAN_POINT ( 'NONE',  ( 8.000000000000000000, 9.797174393178825657E-16, 7.199999999999998401 ) ) ;
#44 = ADVANCED_FACE ( 'NONE', ( #57 ), #273, .T. ) ;
#45 = COORDINATED_UNIVERSAL_TIME_OFFSET ( 1, 0, .AHEAD. ) ;
#46 = DIRECTION ( 'NONE',  ( -0.000000000000000000, -0.000000000000000000, -1.000000000000000000 ) ) ;
#47 =( GEOMETRIC_REPRESENTATION_CONTEXT ( 3 ) GLOBAL_UNCERTAINTY_ASSIGNED_CONTEXT ( ( #203 ) ) GLOBAL_UNIT_ASSIGNED_CONTEXT ( ( #145, #165, #191 ) ) REPRESENTATION_CONTEXT ( 'NONE', 'WORKASPACE' ) );
#48 = DIRECTION ( 'NONE',  ( -1.000000000000000000, 1.224646799147353207E-16, 0.000000000000000000 ) ) ;
#49 = PERSON_AND_ORGANIZATION ( #175, #98 ) ;
#50 = APPROVAL_STATUS ( 'not_yet_approved' ) ;
#51 = ADVANCED_FACE ( 'NONE', ( #79 ), #250, .T. ) ;
#52 = ORIENTED_EDGE ( 'NONE', *, *, #251, .F. ) ;
#53 = LOCAL_TIME ( 11, 24, 45.00000000000000000, #188 ) ;
#54 = CARTESIAN_POINT ( 'NONE',  ( 0.000000000000000000, 0.000000000000000000, 132.0000000000000000 ) ) ;
#55 = EDGE_LOOP ( 'NONE', ( #132, #93 ) ) ;
#56 = DIRECTION ( 'NONE',  ( 0.000000000000000000, 0.000000000000000000, 1.000000000000000000 ) ) ;
#57 = FACE_OUTER_BOUND ( 'NONE', #130, .T. ) ;
#58 = ORIENTED_EDGE ( 'NONE', *, *, #232, .F. ) ;
#59 = VERTEX_POINT ( 'NONE', #290 ) ;
#60 = EDGE_CURVE ( 'NONE', #119, #226, #7, .T. ) ;
#61 = CARTESIAN_POINT ( 'NONE',  ( 0.000000000000000000, 0.000000000000000000, 7.000000000000000000 ) ) ;
#62 = FACE_OUTER_BOUND ( 'NONE', #82, .T. ) ;
#63 = DIRECTION ( 'NONE',  ( 0.000000000000000000, 0.000000000000000000, 1.000000000000000000 ) ) ;
#64 = PERSON_AND_ORGANIZATION_ROLE ( 'classification_officer' ) ;
#65 = CARTESIAN_POINT ( 'NONE',  ( 0.000000000000000000, 0.000000000000000000, 7.000000000000000000 ) ) ;
#66 = PERSON_AND_ORGANIZATION ( #175, #98 ) ;
#67 = DIRECTION ( 'NONE',  ( 0.000000000000000000, 0.000000000000000000, 1.000000000000000000 ) ) ;
#68 = CIRCLE ( 'NONE', #243, 8.000000000000000000 ) ;
#69 = DIRECTION ( 'NONE',  ( 0.000000000000000000, 0.000000000000000000, 1.000000000000000000 ) ) ;
#70 = APPROVAL_DATE_TIME ( #4, #5 ) ;
#71 = ORIENTED_EDGE ( 'NONE', *, *, #168, .T. ) ;
#72 = VECTOR ( 'NONE', #186, 1000.000000000000000 ) ;
#73 = PERSON_AND_ORGANIZATION ( #175, #98 ) ;
#74 = AXIS2_PLACEMENT_3D ( 'NONE', #261, #136, #184 ) ;
#75 = AXIS2_PLACEMENT_3D ( 'NONE', #90, #298, #282 ) ;
#76 = APPROVAL ( #277, 'NEURÈENÝ' ) ;
#77 = CARTESIAN_POINT ( 'NONE',  ( 8.000000000000000000, 9.797174393178825657E-16, 132.0000000000000000 ) ) ;
#78 = VERTEX_POINT ( 'NONE', #29 ) ;
#79 = FACE_OUTER_BOUND ( 'NONE', #55, .T. ) ;
#80 = ORIENTED_EDGE ( 'NONE', *, *, #187, .T. ) ;
#81 = VECTOR ( 'NONE', #269, 1000.000000000000000 ) ;
#82 = EDGE_LOOP ( 'NONE', ( #271, #164, #171, #103 ) ) ;
#83 = CARTESIAN_POINT ( 'NONE',  ( 0.000000000000000000, 0.000000000000000000, 0.000000000000000000 ) ) ;
#84 = CC_DESIGN_APPROVAL ( #5, ( #181 ) ) ;
#85 = APPROVAL_STATUS ( 'not_yet_approved' ) ;
#86 = CARTESIAN_POINT ( 'NONE',  ( -8.000000000000000000, 0.000000000000000000, 132.0000000000000000 ) ) ;
#87 = CARTESIAN_POINT ( 'NONE',  ( 0.000000000000000000, 0.000000000000000000, 7.199999999999998401 ) ) ;
#88 = DIRECTION ( 'NONE',  ( 1.000000000000000000, 0.000000000000000000, 0.000000000000000000 ) ) ;
#89 = APPROVAL ( #85, 'NEURÈENÝ' ) ;
#90 = CARTESIAN_POINT ( 'NONE',  ( 0.000000000000000000, 0.000000000000000000, 7.199999999999998401 ) ) ;
#91 = PERSON_AND_ORGANIZATION ( #175, #98 ) ;
#92 = DIRECTION ( 'NONE',  ( -1.000000000000000000, 0.000000000000000000, 0.000000000000000000 ) ) ;
#93 = ORIENTED_EDGE ( 'NONE', *, *, #138, .T. ) ;
#94 = APPROVAL_PERSON_ORGANIZATION ( #1, #89, #207 ) ;
#95 = APPLICATION_PROTOCOL_DEFINITION ( 'international standard', 'config_control_design', 1994, #215 ) ;
#96 = MECHANICAL_CONTEXT ( 'NONE', #215, 'mechanical' ) ;
#97 = EDGE_CURVE ( 'NONE', #25, #78, #110, .T. ) ;
#98 = ORGANIZATION ( 'NEURÈENÝ', 'NEURÈENÝ', '' ) ;
#99 = ORIENTED_EDGE ( 'NONE', *, *, #232, .T. ) ;
#100 = DIRECTION ( 'NONE',  ( 0.000000000000000000, 0.000000000000000000, 1.000000000000000000 ) ) ;
#101 = VERTEX_POINT ( 'NONE', #86 ) ;
#102 = AXIS2_PLACEMENT_3D ( 'NONE', #304, #258, #276 ) ;
#103 = ORIENTED_EDGE ( 'NONE', *, *, #281, .F. ) ;
#104 = ORIENTED_EDGE ( 'NONE', *, *, #146, .F. ) ;
#105 = DIRECTION ( 'NONE',  ( -0.000000000000000000, -0.000000000000000000, -1.000000000000000000 ) ) ;
#106 = AXIS2_PLACEMENT_3D ( 'NONE', #54, #237, #92 ) ;
#107 = CARTESIAN_POINT ( 'NONE',  ( 8.200000000000001066, 0.000000000000000000, 7.199999999999998401 ) ) ;
#108 = PERSON_AND_ORGANIZATION ( #175, #98 ) ;
#109 = CARTESIAN_POINT ( 'NONE',  ( 0.000000000000000000, 0.000000000000000000, 7.000000000000000000 ) ) ;
#110 = CIRCLE ( 'NONE', #27, 11.00000000000000000 ) ;
#111 = CARTESIAN_POINT ( 'NONE',  ( -8.200000000000001066, 1.004210375300829674E-15, 6.999999999999999112 ) ) ;
#112 = ADVANCED_FACE ( 'NONE', ( #253, #137 ), #252, .T. ) ;
#113 = CARTESIAN_POINT ( 'NONE',  ( 0.000000000000000000, 0.000000000000000000, 132.0000000000000000 ) ) ;
#114 = AXIS2_PLACEMENT_3D ( 'NONE', #83, #18, #38 ) ;
#115 = PERSON_AND_ORGANIZATION ( #175, #98 ) ;
#116 = DATE_TIME_ROLE ( 'classification_date' ) ;
#117 = DATE_AND_TIME ( #163, #125 ) ;
#118 = CC_DESIGN_PERSON_AND_ORGANIZATION_ASSIGNMENT ( #49, #287, ( #193 ) ) ;
#119 = VERTEX_POINT ( 'NONE', #158 ) ;
#120 = CYLINDRICAL_SURFACE ( 'NONE', #106, 8.000000000000000000 ) ;
#121 = AXIS2_PLACEMENT_3D ( 'NONE', #289, #241, #48 ) ;
#122 = LOCAL_TIME ( 11, 24, 45.00000000000000000, #45 ) ;
#123 = COORDINATED_UNIVERSAL_TIME_OFFSET ( 1, 0, .AHEAD. ) ;
#124 = AXIS2_PLACEMENT_3D ( 'NONE', #37, #56, #134 ) ;
#125 = LOCAL_TIME ( 11, 24, 45.00000000000000000, #283 ) ;
#126 = CC_DESIGN_SECURITY_CLASSIFICATION ( #35, ( #172 ) ) ;
#127 = CARTESIAN_POINT ( 'NONE',  ( 0.000000000000000000, 0.000000000000000000, 7.000000000000000000 ) ) ;
#128 = ORIENTED_EDGE ( 'NONE', *, *, #26, .F. ) ;
#129 = CC_DESIGN_PERSON_AND_ORGANIZATION_ASSIGNMENT ( #257, #64, ( #35 ) ) ;
#130 = EDGE_LOOP ( 'NONE', ( #173, #2, #99, #246 ) ) ;
#131 = APPROVAL_PERSON_ORGANIZATION ( #91, #76, #139 ) ;
#132 = ORIENTED_EDGE ( 'NONE', *, *, #251, .T. ) ;
#133 = EDGE_CURVE ( 'NONE', #174, #151, #12, .T. ) ;
#134 = DIRECTION ( 'NONE',  ( 1.000000000000000000, 0.000000000000000000, -0.000000000000000000 ) ) ;
#135 = DIRECTION ( 'NONE',  ( 1.000000000000000000, 0.000000000000000000, 0.000000000000000000 ) ) ;
#136 = DIRECTION ( 'NONE',  ( 0.000000000000000000, 0.000000000000000000, 1.000000000000000000 ) ) ;
#137 = FACE_OUTER_BOUND ( 'NONE', #32, .T. ) ;
#138 = EDGE_CURVE ( 'NONE', #119, #101, #68, .T. ) ;
#139 = APPROVAL_ROLE ( '' ) ;
#140 = PLANE ( 'NONE',  #249 ) ;
#141 = DIRECTION ( 'NONE',  ( 1.000000000000000000, 0.000000000000000000, 0.000000000000000000 ) ) ;
#142 = PERSON_AND_ORGANIZATION_ROLE ( 'creator' ) ;
#143 = CARTESIAN_POINT ( 'NONE',  ( 0.000000000000000000, 0.000000000000000000, 7.000000000000000000 ) ) ;
#144 = ORIENTED_EDGE ( 'NONE', *, *, #168, .F. ) ;
#145 =( LENGTH_UNIT ( ) NAMED_UNIT ( * ) SI_UNIT ( .MILLI., .METRE. ) );
#146 = EDGE_CURVE ( 'NONE', #10, #267, #190, .T. ) ;
#147 = ORIENTED_EDGE ( 'NONE', *, *, #138, .F. ) ;
#148 = AXIS2_PLACEMENT_3D ( 'NONE', #302, #178, #135 ) ;
#149 = CC_DESIGN_DATE_AND_TIME_ASSIGNMENT ( #42, #116, ( #35 ) ) ;
#150 = ORIENTED_EDGE ( 'NONE', *, *, #292, .F. ) ;
#151 = VERTEX_POINT ( 'NONE', #230 ) ;
#152 = EDGE_LOOP ( 'NONE', ( #198, #52, #214, #9 ) ) ;
#153 = AXIS2_PLACEMENT_3D ( 'NONE', #65, #155, #180 ) ;
#154 = DIRECTION ( 'NONE',  ( -1.000000000000000000, 0.000000000000000000, 0.000000000000000000 ) ) ;
#155 = DIRECTION ( 'NONE',  ( 0.000000000000000000, 0.000000000000000000, 1.000000000000000000 ) ) ;
#156 = DIRECTION ( 'NONE',  ( 1.000000000000000000, 0.000000000000000000, -0.000000000000000000 ) ) ;
#157 = CIRCLE ( 'NONE', #216, 8.000000000000000000 ) ;
#158 = CARTESIAN_POINT ( 'NONE',  ( 8.000000000000000000, 9.797174393178825657E-16, 132.0000000000000000 ) ) ;
#159 = APPROVAL_DATE_TIME ( #233, #89 ) ;
#160 = CARTESIAN_POINT ( 'NONE',  ( 11.00000000000000000, 1.347111479062088405E-15, 7.000000000000000000 ) ) ;
#161 = DIRECTION ( 'NONE',  ( 1.000000000000000000, 0.000000000000000000, -0.000000000000000000 ) ) ;
#162 = ADVANCED_FACE ( 'NONE', ( #211 ), #262, .F. ) ;
#163 = CALENDAR_DATE ( 2022, 20, 6 ) ;
#164 = ORIENTED_EDGE ( 'NONE', *, *, #292, .T. ) ;
#165 =( NAMED_UNIT ( * ) PLANE_ANGLE_UNIT ( ) SI_UNIT ( $, .RADIAN. ) );
#166 = CARTESIAN_POINT ( 'NONE',  ( 0.000000000000000000, 0.000000000000000000, 0.000000000000000000 ) ) ;
#167 = PERSON_AND_ORGANIZATION_ROLE ( 'creator' ) ;
#168 = EDGE_CURVE ( 'NONE', #226, #59, #157, .T. ) ;
#169 = LOCAL_TIME ( 11, 24, 45.00000000000000000, #123 ) ;
#170 = DIRECTION ( 'NONE',  ( -0.000000000000000000, -0.000000000000000000, -1.000000000000000000 ) ) ;
#171 = ORIENTED_EDGE ( 'NONE', *, *, #187, .F. ) ;
#172 = PRODUCT_DEFINITION_FORMATION_WITH_SPECIFIED_SOURCE ( 'LIBOVOLNÝ', '', #193, .NOT_KNOWN. ) ;
#173 = ORIENTED_EDGE ( 'NONE', *, *, #200, .F. ) ;
#174 = VERTEX_POINT ( 'NONE', #111 ) ;
#175 = PERSON ( 'NEURÈENÝ', 'NEURÈENÝ', 'NEURÈENÝ', ('NEURÈENÝ'), ('NEURÈENÝ'), ('NEURÈENÝ') ) ;
#176 = CLOSED_SHELL ( 'NONE', ( #217, #303, #307, #44, #112, #242, #11, #51, #162 ) ) ;
#177 = ORIENTED_EDGE ( 'NONE', *, *, #281, .T. ) ;
#178 = DIRECTION ( 'NONE',  ( 0.000000000000000000, 0.000000000000000000, 1.000000000000000000 ) ) ;
#179 = CALENDAR_DATE ( 2022, 20, 6 ) ;
#180 = DIRECTION ( 'NONE',  ( 1.000000000000000000, 0.000000000000000000, 0.000000000000000000 ) ) ;
#181 = PRODUCT_DEFINITION ( 'NEZNÁMÝ', '', #172, #30 ) ;
#182 = LINE ( 'NONE', #160, #23 ) ;
#183 = APPROVAL_PERSON_ORGANIZATION ( #115, #5, #240 ) ;
#184 = DIRECTION ( 'NONE',  ( 1.000000000000000000, 0.000000000000000000, 0.000000000000000000 ) ) ;
#185 = SHAPE_DEFINITION_REPRESENTATION ( #6, #20 ) ;
#186 = DIRECTION ( 'NONE',  ( -0.000000000000000000, -0.000000000000000000, -1.000000000000000000 ) ) ;
#187 = EDGE_CURVE ( 'NONE', #151, #174, #33, .T. ) ;
#188 = COORDINATED_UNIVERSAL_TIME_OFFSET ( 1, 0, .AHEAD. ) ;
#189 = DIRECTION ( 'NONE',  ( -1.000000000000000000, 0.000000000000000000, 0.000000000000000000 ) ) ;
#190 = CIRCLE ( 'NONE', #74, 11.00000000000000000 ) ;
#191 =( NAMED_UNIT ( * ) SI_UNIT ( $, .STERADIAN. ) SOLID_ANGLE_UNIT ( ) );
#192 = FACE_OUTER_BOUND ( 'NONE', #238, .T. ) ;
#193 = PRODUCT ( '6527', '6527', '', ( #96 ) ) ;
#194 = AXIS2_PLACEMENT_3D ( 'NONE', #107, #206, #300 ) ;
#195 = DIRECTION ( 'NONE',  ( -0.000000000000000000, -0.000000000000000000, -1.000000000000000000 ) ) ;
#196 = CC_DESIGN_PERSON_AND_ORGANIZATION_ASSIGNMENT ( #66, #142, ( #172 ) ) ;
#197 = ORIENTED_EDGE ( 'NONE', *, *, #265, .T. ) ;
#198 = ORIENTED_EDGE ( 'NONE', *, *, #60, .F. ) ;
#199 = ORIENTED_EDGE ( 'NONE', *, *, #200, .T. ) ;
#200 = EDGE_CURVE ( 'NONE', #78, #267, #182, .T. ) ;
#201 = CARTESIAN_POINT ( 'NONE',  ( -11.00000000000000000, 0.000000000000000000, 7.000000000000000000 ) ) ;
#202 = AXIS2_PLACEMENT_3D ( 'NONE', #17, #39, #275 ) ;
#203 = UNCERTAINTY_MEASURE_WITH_UNIT (LENGTH_MEASURE( 1.000000000000000082E-05 ), #145, 'distance_accuracy_value', 'NONE');
#204 = DIRECTION ( 'NONE',  ( 1.000000000000000000, 0.000000000000000000, 0.000000000000000000 ) ) ;
#205 = AXIS2_PLACEMENT_3D ( 'NONE', #87, #67, #204 ) ;
#206 = DIRECTION ( 'NONE',  ( 0.000000000000000000, -1.000000000000000000, 0.000000000000000000 ) ) ;
#207 = APPROVAL_ROLE ( '' ) ;
#208 = FACE_OUTER_BOUND ( 'NONE', #22, .T. ) ;
#209 = CARTESIAN_POINT ( 'NONE',  ( 0.000000000000000000, 0.000000000000000000, 7.000000000000000000 ) ) ;
#210 = AXIS2_PLACEMENT_3D ( 'NONE', #209, #46, #256 ) ;
#211 = FACE_OUTER_BOUND ( 'NONE', #295, .T. ) ;
#212 = FACE_OUTER_BOUND ( 'NONE', #31, .T. ) ;
#213 = DATE_TIME_ROLE ( 'creation_date' ) ;
#214 = ORIENTED_EDGE ( 'NONE', *, *, #26, .T. ) ;
#215 = APPLICATION_CONTEXT ( 'configuration controlled 3d designs of mechanical parts and assemblies' ) ;
#216 = AXIS2_PLACEMENT_3D ( 'NONE', #229, #235, #141 ) ;
#217 = ADVANCED_FACE ( 'NONE', ( #62 ), #234, .F. ) ;
#218 = CALENDAR_DATE ( 2022, 20, 6 ) ;
#219 = AXIS2_PLACEMENT_3D ( 'NONE', #34, #195, #225 ) ;
#220 = APPLICATION_CONTEXT ( 'configuration controlled 3d designs of mechanical parts and assemblies' ) ;
#221 = CIRCLE ( 'NONE', #148, 8.000000000000000000 ) ;
#222 = ORIENTED_EDGE ( 'NONE', *, *, #60, .T. ) ;
#223 = ORIENTED_EDGE ( 'NONE', *, *, #133, .T. ) ;
#224 = ORIENTED_EDGE ( 'NONE', *, *, #247, .F. ) ;
#225 = DIRECTION ( 'NONE',  ( -1.000000000000000000, 0.000000000000000000, 0.000000000000000000 ) ) ;
#226 = VERTEX_POINT ( 'NONE', #43 ) ;
#227 = PRODUCT_RELATED_PRODUCT_CATEGORY ( 'detail', '', ( #193 ) ) ;
#228 = CARTESIAN_POINT ( 'NONE',  ( 11.00000000000000000, 1.347111479062088405E-15, 0.000000000000000000 ) ) ;
#229 = CARTESIAN_POINT ( 'NONE',  ( 0.000000000000000000, 0.000000000000000000, 7.199999999999998401 ) ) ;
#230 = CARTESIAN_POINT ( 'NONE',  ( 8.200000000000001066, 0.000000000000000000, 6.999999999999999112 ) ) ;
#231 = CARTESIAN_POINT ( 'NONE',  ( 0.000000000000000000, 0.000000000000000000, 0.000000000000000000 ) ) ;
#232 = EDGE_CURVE ( 'NONE', #25, #10, #278, .T. ) ;
#233 = DATE_AND_TIME ( #16, #122 ) ;
#234 = TOROIDAL_SURFACE ( 'NONE', #102, 8.200000000000001066, 0.2000000000000000111 ) ;
#235 = DIRECTION ( 'NONE',  ( 0.000000000000000000, 0.000000000000000000, 1.000000000000000000 ) ) ;
#236 = COORDINATED_UNIVERSAL_TIME_OFFSET ( 1, 0, .AHEAD. ) ;
#237 = DIRECTION ( 'NONE',  ( -0.000000000000000000, -0.000000000000000000, -1.000000000000000000 ) ) ;
#238 = EDGE_LOOP ( 'NONE', ( #245, #199, #284, #58 ) ) ;
#239 = EDGE_CURVE ( 'NONE', #59, #226, #279, .T. ) ;
#240 = APPROVAL_ROLE ( '' ) ;
#241 = DIRECTION ( 'NONE',  ( 1.224646799147353207E-16, 1.000000000000000000, -0.000000000000000000 ) ) ;
#242 = ADVANCED_FACE ( 'NONE', ( #208 ), #140, .F. ) ;
#243 = AXIS2_PLACEMENT_3D ( 'NONE', #113, #41, #88 ) ;
#244 = ORIENTED_EDGE ( 'NONE', *, *, #133, .F. ) ;
#245 = ORIENTED_EDGE ( 'NONE', *, *, #265, .F. ) ;
#246 = ORIENTED_EDGE ( 'NONE', *, *, #146, .T. ) ;
#247 = EDGE_CURVE ( 'NONE', #267, #10, #299, .T. ) ;
#248 = CYLINDRICAL_SURFACE ( 'NONE', #219, 8.000000000000000000 ) ;
#249 = AXIS2_PLACEMENT_3D ( 'NONE', #231, #69, #161 ) ;
#250 = PLANE ( 'NONE',  #124 ) ;
#251 = EDGE_CURVE ( 'NONE', #101, #119, #221, .T. ) ;
#252 = PLANE ( 'NONE',  #288 ) ;
#253 = FACE_BOUND ( 'NONE', #291, .T. ) ;
#254 = CIRCLE ( 'NONE', #153, 11.00000000000000000 ) ;
#255 = AXIS2_PLACEMENT_3D ( 'NONE', #143, #24, #189 ) ;
#256 = DIRECTION ( 'NONE',  ( 1.000000000000000000, 0.000000000000000000, 0.000000000000000000 ) ) ;
#257 = PERSON_AND_ORGANIZATION ( #175, #98 ) ;
#258 = DIRECTION ( 'NONE',  ( 0.000000000000000000, 0.000000000000000000, 1.000000000000000000 ) ) ;
#259 = CC_DESIGN_DATE_AND_TIME_ASSIGNMENT ( #117, #213, ( #181 ) ) ;
#260 = AXIS2_PLACEMENT_3D ( 'NONE', #61, #170, #154 ) ;
#261 = CARTESIAN_POINT ( 'NONE',  ( 0.000000000000000000, 0.000000000000000000, 0.000000000000000000 ) ) ;
#262 = TOROIDAL_SURFACE ( 'NONE', #205, 8.200000000000001066, 0.2000000000000000111 ) ;
#263 = CC_DESIGN_APPROVAL ( #76, ( #35 ) ) ;
#264 = APPLICATION_PROTOCOL_DEFINITION ( 'international standard', 'config_control_design', 1994, #220 ) ;
#265 = EDGE_CURVE ( 'NONE', #78, #25, #254, .T. ) ;
#266 = DIRECTION ( 'NONE',  ( 0.000000000000000000, 0.000000000000000000, 1.000000000000000000 ) ) ;
#267 = VERTEX_POINT ( 'NONE', #228 ) ;
#268 = DIRECTION ( 'NONE',  ( -0.000000000000000000, -0.000000000000000000, -1.000000000000000000 ) ) ;
#269 = DIRECTION ( 'NONE',  ( -0.000000000000000000, -0.000000000000000000, -1.000000000000000000 ) ) ;
#270 = LOCAL_TIME ( 11, 24, 45.00000000000000000, #236 ) ;
#271 = ORIENTED_EDGE ( 'NONE', *, *, #239, .F. ) ;
#272 = ORIENTED_EDGE ( 'NONE', *, *, #97, .T. ) ;
#273 = CYLINDRICAL_SURFACE ( 'NONE', #260, 11.00000000000000000 ) ;
#274 = CIRCLE ( 'NONE', #121, 0.2000000000000005107 ) ;
#275 = DIRECTION ( 'NONE',  ( 1.000000000000000000, 0.000000000000000000, 0.000000000000000000 ) ) ;
#276 = DIRECTION ( 'NONE',  ( 1.000000000000000000, 0.000000000000000000, 0.000000000000000000 ) ) ;
#277 = APPROVAL_STATUS ( 'not_yet_approved' ) ;
#278 = LINE ( 'NONE', #15, #72 ) ;
#279 = CIRCLE ( 'NONE', #75, 8.000000000000000000 ) ;
#280 = DATE_AND_TIME ( #179, #53 ) ;
#281 = EDGE_CURVE ( 'NONE', #226, #151, #19, .T. ) ;
#282 = DIRECTION ( 'NONE',  ( 1.000000000000000000, 0.000000000000000000, 0.000000000000000000 ) ) ;
#283 = COORDINATED_UNIVERSAL_TIME_OFFSET ( 1, 0, .AHEAD. ) ;
#284 = ORIENTED_EDGE ( 'NONE', *, *, #247, .T. ) ;
#285 = CC_DESIGN_PERSON_AND_ORGANIZATION_ASSIGNMENT ( #73, #167, ( #181 ) ) ;
#286 = DIRECTION ( 'NONE',  ( 1.000000000000000000, 0.000000000000000000, 0.000000000000000000 ) ) ;
#287 = PERSON_AND_ORGANIZATION_ROLE ( 'design_owner' ) ;
#288 = AXIS2_PLACEMENT_3D ( 'NONE', #109, #63, #156 ) ;
#289 = CARTESIAN_POINT ( 'NONE',  ( -8.200000000000001066, 1.004210375300829674E-15, 7.199999999999998401 ) ) ;
#290 = CARTESIAN_POINT ( 'NONE',  ( -8.000000000000000000, 0.000000000000000000, 7.199999999999998401 ) ) ;
#291 = EDGE_LOOP ( 'NONE', ( #80, #223 ) ) ;
#292 = EDGE_CURVE ( 'NONE', #59, #174, #274, .T. ) ;
#293 = CARTESIAN_POINT ( 'NONE',  ( -8.000000000000000000, 0.000000000000000000, 132.0000000000000000 ) ) ;
#294 = CC_DESIGN_APPROVAL ( #89, ( #172 ) ) ;
#295 = EDGE_LOOP ( 'NONE', ( #150, #144, #177, #244 ) ) ;
#296 = VECTOR ( 'NONE', #268, 1000.000000000000000 ) ;
#297 = LINE ( 'NONE', #293, #81 ) ;
#298 = DIRECTION ( 'NONE',  ( 0.000000000000000000, 0.000000000000000000, 1.000000000000000000 ) ) ;
#299 = CIRCLE ( 'NONE', #114, 11.00000000000000000 ) ;
#300 = DIRECTION ( 'NONE',  ( 0.000000000000000000, 0.000000000000000000, -1.000000000000000000 ) ) ;
#301 = CALENDAR_DATE ( 2022, 20, 6 ) ;
#302 = CARTESIAN_POINT ( 'NONE',  ( 0.000000000000000000, 0.000000000000000000, 132.0000000000000000 ) ) ;
#303 = ADVANCED_FACE ( 'NONE', ( #212 ), #120, .T. ) ;
#304 = CARTESIAN_POINT ( 'NONE',  ( 0.000000000000000000, 0.000000000000000000, 7.199999999999998401 ) ) ;
#305 = APPROVAL_DATE_TIME ( #280, #76 ) ;
#306 = CYLINDRICAL_SURFACE ( 'NONE', #255, 11.00000000000000000 ) ;
#307 = ADVANCED_FACE ( 'NONE', ( #192 ), #306, .T. ) ;
ENDSEC;
END-ISO-10303-21;
