ISO-10303-21;
HEADER;
FILE_DESCRIPTION (( 'STEP AP203' ),
    '1' );
FILE_NAME ('3250.STEP',
    '2022-06-20T10:15:16',
    ( '' ),
    ( '' ),
    'SwSTEP 2.0',
    'SolidWorks 2019',
    '' );
FILE_SCHEMA (( 'CONFIG_CONTROL_DESIGN' ));
ENDSEC;

DATA;
#1 = CC_DESIGN_APPROVAL ( #278, ( #50 ) ) ;
#2 = EDGE_CURVE ( 'NONE', #280, #138, #297, .T. ) ;
#3 = VERTEX_POINT ( 'NONE', #123 ) ;
#4 = CARTESIAN_POINT ( 'NONE',  ( 0.000000000000000000, 0.000000000000000000, 3.000000000000000000 ) ) ;
#5 = DIRECTION ( 'NONE',  ( 0.000000000000000000, 0.000000000000000000, 1.000000000000000000 ) ) ;
#6 = DIRECTION ( 'NONE',  ( 1.000000000000000000, 0.000000000000000000, 0.000000000000000000 ) ) ;
#7 = AXIS2_PLACEMENT_3D ( 'NONE', #237, #5, #25 ) ;
#8 = CARTESIAN_POINT ( 'NONE',  ( -1.500000000000000222, 0.000000000000000000, 253.0000000000000000 ) ) ;
#9 = CARTESIAN_POINT ( 'NONE',  ( 3.000000000000000444, 3.673940397442060361E-16, 3.000000000000000000 ) ) ;
#10 = CIRCLE ( 'NONE', #161, 1.500000000000000222 ) ;
#11 = DIRECTION ( 'NONE',  ( 0.000000000000000000, 0.000000000000000000, 1.000000000000000000 ) ) ;
#12 = PLANE ( 'NONE',  #98 ) ;
#13 = APPROVAL_PERSON_ORGANIZATION ( #139, #278, #93 ) ;
#14 = CARTESIAN_POINT ( 'NONE',  ( 0.000000000000000000, 0.000000000000000000, 253.0000000000000000 ) ) ;
#15 = PERSON_AND_ORGANIZATION ( #73, #147 ) ;
#16 = EDGE_CURVE ( 'NONE', #122, #118, #257, .T. ) ;
#17 = ORIENTED_EDGE ( 'NONE', *, *, #255, .T. ) ;
#18 = CALENDAR_DATE ( 2022, 20, 6 ) ;
#19 = SECURITY_CLASSIFICATION ( '', '', #67 ) ;
#20 = CC_DESIGN_APPROVAL ( #115, ( #19 ) ) ;
#21 = ORIENTED_EDGE ( 'NONE', *, *, #31, .T. ) ;
#22 = DIRECTION ( 'NONE',  ( 1.000000000000000000, 0.000000000000000000, 0.000000000000000000 ) ) ;
#23 = ORIENTED_EDGE ( 'NONE', *, *, #129, .F. ) ;
#24 = DIRECTION ( 'NONE',  ( 1.000000000000000000, 0.000000000000000000, 0.000000000000000000 ) ) ;
#25 = DIRECTION ( 'NONE',  ( 1.000000000000000000, 0.000000000000000000, 0.000000000000000000 ) ) ;
#26 = EDGE_CURVE ( 'NONE', #118, #122, #224, .T. ) ;
#27 = DIRECTION ( 'NONE',  ( -0.000000000000000000, -0.000000000000000000, -1.000000000000000000 ) ) ;
#28 = DIRECTION ( 'NONE',  ( 0.000000000000000000, 0.000000000000000000, 1.000000000000000000 ) ) ;
#29 = CIRCLE ( 'NONE', #64, 1.500000000000000222 ) ;
#30 = DIRECTION ( 'NONE',  ( -0.000000000000000000, -0.000000000000000000, -1.000000000000000000 ) ) ;
#31 = EDGE_CURVE ( 'NONE', #258, #256, #214, .T. ) ;
#32 = AXIS2_PLACEMENT_3D ( 'NONE', #47, #209, #22 ) ;
#33 = DIRECTION ( 'NONE',  ( 1.000000000000000000, 0.000000000000000000, -0.000000000000000000 ) ) ;
#34 = EDGE_CURVE ( 'NONE', #183, #3, #250, .T. ) ;
#35 = DIRECTION ( 'NONE',  ( 0.000000000000000000, 0.000000000000000000, 1.000000000000000000 ) ) ;
#36 =( LENGTH_UNIT ( ) NAMED_UNIT ( * ) SI_UNIT ( .MILLI., .METRE. ) );
#37 = LOCAL_TIME ( 12, 15, 16.00000000000000000, #184 ) ;
#38 = APPROVAL_ROLE ( '' ) ;
#39 = PERSON_AND_ORGANIZATION ( #73, #147 ) ;
#40 = EDGE_LOOP ( 'NONE', ( #231, #281, #163, #233 ) ) ;
#41 = APPROVAL_DATE_TIME ( #279, #115 ) ;
#42 = PRODUCT_DEFINITION_SHAPE ( 'NONE', 'NONE',  #50 ) ;
#43 = AXIS2_PLACEMENT_3D ( 'NONE', #216, #124, #55 ) ;
#44 = PERSON_AND_ORGANIZATION ( #73, #147 ) ;
#45 = ORIENTED_EDGE ( 'NONE', *, *, #81, .T. ) ;
#46 = EDGE_CURVE ( 'NONE', #258, #189, #72, .T. ) ;
#47 = CARTESIAN_POINT ( 'NONE',  ( 0.000000000000000000, 0.000000000000000000, 0.000000000000000000 ) ) ;
#48 = EDGE_LOOP ( 'NONE', ( #65, #212, #17, #252 ) ) ;
#49 = CYLINDRICAL_SURFACE ( 'NONE', #51, 3.000000000000000444 ) ;
#50 = PRODUCT_DEFINITION ( 'NEZNÁMÝ', '', #102, #273 ) ;
#51 = AXIS2_PLACEMENT_3D ( 'NONE', #4, #27, #125 ) ;
#52 = DIRECTION ( 'NONE',  ( 1.000000000000000000, 0.000000000000000000, -0.000000000000000000 ) ) ;
#53 = CARTESIAN_POINT ( 'NONE',  ( -3.000000000000000444, 0.000000000000000000, 0.000000000000000000 ) ) ;
#54 = CARTESIAN_POINT ( 'NONE',  ( 0.000000000000000000, 0.000000000000000000, 253.0000000000000000 ) ) ;
#55 = DIRECTION ( 'NONE',  ( 1.000000000000000000, 0.000000000000000000, 0.000000000000000000 ) ) ;
#56 = CIRCLE ( 'NONE', #78, 0.2000000000000000944 ) ;
#57 = CC_DESIGN_PERSON_AND_ORGANIZATION_ASSIGNMENT ( #232, #88, ( #102 ) ) ;
#58 = DIRECTION ( 'NONE',  ( -1.000000000000000000, 0.000000000000000000, 0.000000000000000000 ) ) ;
#59 = AXIS2_PLACEMENT_3D ( 'NONE', #173, #61, #151 ) ;
#60 = FACE_OUTER_BOUND ( 'NONE', #70, .T. ) ;
#61 = DIRECTION ( 'NONE',  ( 0.000000000000000000, 0.000000000000000000, 1.000000000000000000 ) ) ;
#62 = PERSON_AND_ORGANIZATION ( #73, #147 ) ;
#63 = ORIENTED_EDGE ( 'NONE', *, *, #2, .T. ) ;
#64 = AXIS2_PLACEMENT_3D ( 'NONE', #289, #75, #170 ) ;
#65 = ORIENTED_EDGE ( 'NONE', *, *, #150, .F. ) ;
#66 = ORIENTED_EDGE ( 'NONE', *, *, #141, .T. ) ;
#67 = SECURITY_CLASSIFICATION_LEVEL ( 'unclassified' ) ;
#68 = ORIENTED_EDGE ( 'NONE', *, *, #81, .F. ) ;
#69 = VECTOR ( 'NONE', #294, 1000.000000000000000 ) ;
#70 = EDGE_LOOP ( 'NONE', ( #241, #185 ) ) ;
#71 = CARTESIAN_POINT ( 'NONE',  ( -3.000000000000000444, 0.000000000000000000, 3.000000000000000000 ) ) ;
#72 = LINE ( 'NONE', #8, #218 ) ;
#73 = PERSON ( 'NEURÈENÝ', 'NEURÈENÝ', 'NEURÈENÝ', ('NEURÈENÝ'), ('NEURÈENÝ'), ('NEURÈENÝ') ) ;
#74 = FACE_OUTER_BOUND ( 'NONE', #48, .T. ) ;
#75 = DIRECTION ( 'NONE',  ( 0.000000000000000000, 0.000000000000000000, 1.000000000000000000 ) ) ;
#76 = DIRECTION ( 'NONE',  ( -0.000000000000000000, -0.000000000000000000, -1.000000000000000000 ) ) ;
#77 = CARTESIAN_POINT ( 'NONE',  ( -3.000000000000000444, 0.000000000000000000, 3.000000000000000000 ) ) ;
#78 = AXIS2_PLACEMENT_3D ( 'NONE', #128, #287, #104 ) ;
#79 = APPROVAL_PERSON_ORGANIZATION ( #39, #115, #277 ) ;
#80 = FACE_OUTER_BOUND ( 'NONE', #307, .T. ) ;
#81 = EDGE_CURVE ( 'NONE', #160, #3, #271, .T. ) ;
#82 = CARTESIAN_POINT ( 'NONE',  ( 1.500000000000000222, 1.836970198721030181E-16, 253.0000000000000000 ) ) ;
#83 = CARTESIAN_POINT ( 'NONE',  ( 0.000000000000000000, 0.000000000000000000, 253.0000000000000000 ) ) ;
#84 = LOCAL_TIME ( 12, 15, 16.00000000000000000, #186 ) ;
#85 = LINE ( 'NONE', #77, #229 ) ;
#86 = CALENDAR_DATE ( 2022, 20, 6 ) ;
#87 = EDGE_CURVE ( 'NONE', #189, #160, #56, .T. ) ;
#88 = PERSON_AND_ORGANIZATION_ROLE ( 'design_supplier' ) ;
#89 = ORIENTED_EDGE ( 'NONE', *, *, #301, .T. ) ;
#90 = APPROVAL_DATE_TIME ( #156, #278 ) ;
#91 = ORIENTED_EDGE ( 'NONE', *, *, #34, .T. ) ;
#92 = ADVANCED_FACE ( 'NONE', ( #235 ), #172, .F. ) ;
#93 = APPROVAL_ROLE ( '' ) ;
#94 = PRODUCT ( '3250', '3250', '', ( #275 ) ) ;
#95 = ORIENTED_EDGE ( 'NONE', *, *, #230, .F. ) ;
#96 = CALENDAR_DATE ( 2022, 20, 6 ) ;
#97 = EDGE_LOOP ( 'NONE', ( #66, #45 ) ) ;
#98 = AXIS2_PLACEMENT_3D ( 'NONE', #152, #11, #295 ) ;
#99 = ORIENTED_EDGE ( 'NONE', *, *, #34, .F. ) ;
#100 = LINE ( 'NONE', #9, #293 ) ;
#101 = EDGE_LOOP ( 'NONE', ( #158, #210, #63, #213 ) ) ;
#102 = PRODUCT_DEFINITION_FORMATION_WITH_SPECIFIED_SOURCE ( 'LIBOVOLNÝ', '', #94, .NOT_KNOWN. ) ;
#103 = PLANE ( 'NONE',  #190 ) ;
#104 = DIRECTION ( 'NONE',  ( -1.000000000000000000, 1.224646799147353207E-16, 0.000000000000000000 ) ) ;
#105 = APPLICATION_CONTEXT ( 'configuration controlled 3d designs of mechanical parts and assemblies' ) ;
#106 = DIRECTION ( 'NONE',  ( 0.000000000000000000, -1.000000000000000000, 0.000000000000000000 ) ) ;
#107 = FACE_OUTER_BOUND ( 'NONE', #40, .T. ) ;
#108 = CLOSED_SHELL ( 'NONE', ( #288, #200, #145, #112, #298, #234, #181, #168, #92 ) ) ;
#109 = DIRECTION ( 'NONE',  ( 1.000000000000000000, 0.000000000000000000, 0.000000000000000000 ) ) ;
#110 = DIRECTION ( 'NONE',  ( -1.000000000000000000, 0.000000000000000000, 0.000000000000000000 ) ) ;
#111 = CIRCLE ( 'NONE', #266, 1.500000000000000222 ) ;
#112 = ADVANCED_FACE ( 'NONE', ( #74 ), #221, .T. ) ;
#113 = DATE_TIME_ROLE ( 'classification_date' ) ;
#114 = APPROVAL_STATUS ( 'not_yet_approved' ) ;
#115 = APPROVAL ( #206, 'NEURÈENÝ' ) ;
#116 = AXIS2_PLACEMENT_3D ( 'NONE', #244, #291, #109 ) ;
#117 = PERSON_AND_ORGANIZATION_ROLE ( 'creator' ) ;
#118 = VERTEX_POINT ( 'NONE', #71 ) ;
#119 = PERSON_AND_ORGANIZATION_ROLE ( 'design_owner' ) ;
#120 = EDGE_LOOP ( 'NONE', ( #191, #23, #91, #68 ) ) ;
#121 = APPLICATION_CONTEXT ( 'configuration controlled 3d designs of mechanical parts and assemblies' ) ;
#122 = VERTEX_POINT ( 'NONE', #263 ) ;
#123 = CARTESIAN_POINT ( 'NONE',  ( 1.700000000000000400, 0.000000000000000000, 3.000000000000004441 ) ) ;
#124 = DIRECTION ( 'NONE',  ( 0.000000000000000000, 0.000000000000000000, 1.000000000000000000 ) ) ;
#125 = DIRECTION ( 'NONE',  ( -1.000000000000000000, 0.000000000000000000, 0.000000000000000000 ) ) ;
#126 = AXIS2_PLACEMENT_3D ( 'NONE', #285, #28, #6 ) ;
#127 = DIRECTION ( 'NONE',  ( -0.000000000000000000, -0.000000000000000000, -1.000000000000000000 ) ) ;
#128 = CARTESIAN_POINT ( 'NONE',  ( -1.700000000000000400, 2.081899558550500773E-16, 3.200000000000008171 ) ) ;
#129 = EDGE_CURVE ( 'NONE', #183, #189, #10, .T. ) ;
#130 = APPLICATION_PROTOCOL_DEFINITION ( 'international standard', 'config_control_design', 1994, #105 ) ;
#131 =( NAMED_UNIT ( * ) PLANE_ANGLE_UNIT ( ) SI_UNIT ( $, .RADIAN. ) );
#132 = CARTESIAN_POINT ( 'NONE',  ( 0.000000000000000000, 0.000000000000000000, 253.0000000000000000 ) ) ;
#133 = LOCAL_TIME ( 12, 15, 16.00000000000000000, #134 ) ;
#134 = COORDINATED_UNIVERSAL_TIME_OFFSET ( 1, 0, .AHEAD. ) ;
#135 = EDGE_LOOP ( 'NONE', ( #253, #303, #305, #99 ) ) ;
#136 = ORIENTED_EDGE ( 'NONE', *, *, #46, .T. ) ;
#137 = CIRCLE ( 'NONE', #276, 1.700000000000000400 ) ;
#138 = VERTEX_POINT ( 'NONE', #53 ) ;
#139 = PERSON_AND_ORGANIZATION ( #73, #147 ) ;
#140 = ORIENTED_EDGE ( 'NONE', *, *, #31, .F. ) ;
#141 = EDGE_CURVE ( 'NONE', #3, #160, #137, .T. ) ;
#142 = CARTESIAN_POINT ( 'NONE',  ( 0.000000000000000000, 0.000000000000000000, 253.0000000000000000 ) ) ;
#143 = AXIS2_PLACEMENT_3D ( 'NONE', #165, #106, #193 ) ;
#144 = DIRECTION ( 'NONE',  ( 1.000000000000000000, 0.000000000000000000, 0.000000000000000000 ) ) ;
#145 = ADVANCED_FACE ( 'NONE', ( #238 ), #49, .T. ) ;
#146 = DIRECTION ( 'NONE',  ( 0.000000000000000000, 0.000000000000000000, 1.000000000000000000 ) ) ;
#147 = ORGANIZATION ( 'NEURÈENÝ', 'NEURÈENÝ', '' ) ;
#148 = AXIS2_PLACEMENT_3D ( 'NONE', #290, #76, #171 ) ;
#149 = CARTESIAN_POINT ( 'NONE',  ( 0.000000000000000000, 0.000000000000000000, 3.000000000000000000 ) ) ;
#150 = EDGE_CURVE ( 'NONE', #122, #280, #100, .T. ) ;
#151 = DIRECTION ( 'NONE',  ( 1.000000000000000000, 0.000000000000000000, 0.000000000000000000 ) ) ;
#152 = CARTESIAN_POINT ( 'NONE',  ( 0.000000000000000000, 0.000000000000000000, 0.000000000000000000 ) ) ;
#153 = DIRECTION ( 'NONE',  ( -0.000000000000000000, -0.000000000000000000, -1.000000000000000000 ) ) ;
#154 = CC_DESIGN_PERSON_AND_ORGANIZATION_ASSIGNMENT ( #15, #117, ( #50 ) ) ;
#155 = DIRECTION ( 'NONE',  ( 1.000000000000000000, 0.000000000000000000, 0.000000000000000000 ) ) ;
#156 = DATE_AND_TIME ( #96, #133 ) ;
#157 = APPROVAL_PERSON_ORGANIZATION ( #251, #292, #38 ) ;
#158 = ORIENTED_EDGE ( 'NONE', *, *, #16, .F. ) ;
#159 = EDGE_LOOP ( 'NONE', ( #21, #89 ) ) ;
#160 = VERTEX_POINT ( 'NONE', #265 ) ;
#161 = AXIS2_PLACEMENT_3D ( 'NONE', #169, #192, #24 ) ;
#162 = CALENDAR_DATE ( 2022, 20, 6 ) ;
#163 = ORIENTED_EDGE ( 'NONE', *, *, #129, .T. ) ;
#164 = CC_DESIGN_DATE_AND_TIME_ASSIGNMENT ( #304, #227, ( #50 ) ) ;
#165 = CARTESIAN_POINT ( 'NONE',  ( 1.700000000000000400, 0.000000000000000000, 3.200000000000008171 ) ) ;
#166 = DIRECTION ( 'NONE',  ( 1.000000000000000000, 0.000000000000000000, 0.000000000000000000 ) ) ;
#167 = AXIS2_PLACEMENT_3D ( 'NONE', #132, #296, #110 ) ;
#168 = ADVANCED_FACE ( 'NONE', ( #262 ), #103, .T. ) ;
#169 = CARTESIAN_POINT ( 'NONE',  ( 0.000000000000000000, 0.000000000000000000, 3.200000000000008171 ) ) ;
#170 = DIRECTION ( 'NONE',  ( 1.000000000000000000, 0.000000000000000000, 0.000000000000000000 ) ) ;
#171 = DIRECTION ( 'NONE',  ( -1.000000000000000000, 0.000000000000000000, 0.000000000000000000 ) ) ;
#172 = TOROIDAL_SURFACE ( 'NONE', #126, 1.700000000000000400, 0.2000000000000000111 ) ;
#173 = CARTESIAN_POINT ( 'NONE',  ( 0.000000000000000000, 0.000000000000000000, 3.200000000000008171 ) ) ;
#174 = EDGE_CURVE ( 'NONE', #189, #183, #29, .T. ) ;
#175 = CYLINDRICAL_SURFACE ( 'NONE', #167, 1.500000000000000222 ) ;
#176 = CARTESIAN_POINT ( 'NONE',  ( 3.000000000000000444, 3.673940397442060361E-16, 0.000000000000000000 ) ) ;
#177 = PRODUCT_RELATED_PRODUCT_CATEGORY ( 'detail', '', ( #94 ) ) ;
#178 = CYLINDRICAL_SURFACE ( 'NONE', #202, 1.500000000000000222 ) ;
#179 = AXIS2_PLACEMENT_3D ( 'NONE', #247, #35, #33 ) ;
#180 = DATE_AND_TIME ( #86, #84 ) ;
#181 = ADVANCED_FACE ( 'NONE', ( #264 ), #178, .T. ) ;
#182 = PERSON_AND_ORGANIZATION_ROLE ( 'classification_officer' ) ;
#183 = VERTEX_POINT ( 'NONE', #272 ) ;
#184 = COORDINATED_UNIVERSAL_TIME_OFFSET ( 1, 0, .AHEAD. ) ;
#185 = ORIENTED_EDGE ( 'NONE', *, *, #2, .F. ) ;
#186 = COORDINATED_UNIVERSAL_TIME_OFFSET ( 1, 0, .AHEAD. ) ;
#187 = EDGE_LOOP ( 'NONE', ( #95, #140, #136, #260 ) ) ;
#188 = CALENDAR_DATE ( 2022, 20, 6 ) ;
#189 = VERTEX_POINT ( 'NONE', #268 ) ;
#190 = AXIS2_PLACEMENT_3D ( 'NONE', #54, #195, #52 ) ;
#191 = ORIENTED_EDGE ( 'NONE', *, *, #87, .F. ) ;
#192 = DIRECTION ( 'NONE',  ( 0.000000000000000000, 0.000000000000000000, 1.000000000000000000 ) ) ;
#193 = DIRECTION ( 'NONE',  ( 0.000000000000000000, 0.000000000000000000, -1.000000000000000000 ) ) ;
#194 = AXIS2_PLACEMENT_3D ( 'NONE', #196, #30, #166 ) ;
#195 = DIRECTION ( 'NONE',  ( 0.000000000000000000, 0.000000000000000000, 1.000000000000000000 ) ) ;
#196 = CARTESIAN_POINT ( 'NONE',  ( 0.000000000000000000, 0.000000000000000000, 3.000000000000000000 ) ) ;
#197 = CARTESIAN_POINT ( 'NONE',  ( 1.500000000000000222, 1.836970198721030181E-16, 253.0000000000000000 ) ) ;
#198 = TOROIDAL_SURFACE ( 'NONE', #59, 1.700000000000000400, 0.2000000000000000111 ) ;
#199 = DIRECTION ( 'NONE',  ( 0.000000000000000000, 0.000000000000000000, 1.000000000000000000 ) ) ;
#200 = ADVANCED_FACE ( 'NONE', ( #107 ), #175, .T. ) ;
#201 = CARTESIAN_POINT ( 'NONE',  ( -1.500000000000000222, 0.000000000000000000, 253.0000000000000000 ) ) ;
#202 = AXIS2_PLACEMENT_3D ( 'NONE', #14, #299, #58 ) ;
#203 = SHAPE_DEFINITION_REPRESENTATION ( #42, #269 ) ;
#204 = PERSON_AND_ORGANIZATION ( #73, #147 ) ;
#205 = ORIENTED_EDGE ( 'NONE', *, *, #16, .T. ) ;
#206 = APPROVAL_STATUS ( 'not_yet_approved' ) ;
#207 = AXIS2_PLACEMENT_3D ( 'NONE', #142, #146, #286 ) ;
#208 = CC_DESIGN_SECURITY_CLASSIFICATION ( #19, ( #102 ) ) ;
#209 = DIRECTION ( 'NONE',  ( 0.000000000000000000, 0.000000000000000000, 1.000000000000000000 ) ) ;
#210 = ORIENTED_EDGE ( 'NONE', *, *, #150, .T. ) ;
#211 = MANIFOLD_SOLID_BREP ( 'Zaoblit1', #108 ) ;
#212 = ORIENTED_EDGE ( 'NONE', *, *, #26, .F. ) ;
#213 = ORIENTED_EDGE ( 'NONE', *, *, #255, .F. ) ;
#214 = CIRCLE ( 'NONE', #207, 1.500000000000000222 ) ;
#215 = CARTESIAN_POINT ( 'NONE',  ( 0.000000000000000000, 0.000000000000000000, 3.000000000000000000 ) ) ;
#216 = CARTESIAN_POINT ( 'NONE',  ( 0.000000000000000000, 0.000000000000000000, 0.000000000000000000 ) ) ;
#217 = DIRECTION ( 'NONE',  ( -0.000000000000000000, -0.000000000000000000, -1.000000000000000000 ) ) ;
#218 = VECTOR ( 'NONE', #261, 1000.000000000000000 ) ;
#219 = DIRECTION ( 'NONE',  ( 1.000000000000000000, 0.000000000000000000, 0.000000000000000000 ) ) ;
#220 = CC_DESIGN_PERSON_AND_ORGANIZATION_ASSIGNMENT ( #44, #182, ( #19 ) ) ;
#221 = CYLINDRICAL_SURFACE ( 'NONE', #148, 3.000000000000000444 ) ;
#222 =( NAMED_UNIT ( * ) SI_UNIT ( $, .STERADIAN. ) SOLID_ANGLE_UNIT ( ) );
#223 = CC_DESIGN_PERSON_AND_ORGANIZATION_ASSIGNMENT ( #204, #259, ( #102 ) ) ;
#224 = CIRCLE ( 'NONE', #7, 3.000000000000000444 ) ;
#225 = LINE ( 'NONE', #197, #69 ) ;
#226 = COORDINATED_UNIVERSAL_TIME_OFFSET ( 1, 0, .AHEAD. ) ;
#227 = DATE_TIME_ROLE ( 'creation_date' ) ;
#228 = ORIENTED_EDGE ( 'NONE', *, *, #26, .T. ) ;
#229 = VECTOR ( 'NONE', #153, 1000.000000000000000 ) ;
#230 = EDGE_CURVE ( 'NONE', #256, #183, #225, .T. ) ;
#231 = ORIENTED_EDGE ( 'NONE', *, *, #301, .F. ) ;
#232 = PERSON_AND_ORGANIZATION ( #73, #147 ) ;
#233 = ORIENTED_EDGE ( 'NONE', *, *, #46, .F. ) ;
#234 = ADVANCED_FACE ( 'NONE', ( #60 ), #12, .F. ) ;
#235 = FACE_OUTER_BOUND ( 'NONE', #120, .T. ) ;
#236 = LOCAL_TIME ( 12, 15, 16.00000000000000000, #226 ) ;
#237 = CARTESIAN_POINT ( 'NONE',  ( 0.000000000000000000, 0.000000000000000000, 3.000000000000000000 ) ) ;
#238 = FACE_OUTER_BOUND ( 'NONE', #101, .T. ) ;
#239 = DIRECTION ( 'NONE',  ( 0.000000000000000000, 0.000000000000000000, 1.000000000000000000 ) ) ;
#240 = CIRCLE ( 'NONE', #116, 3.000000000000000444 ) ;
#241 = ORIENTED_EDGE ( 'NONE', *, *, #243, .F. ) ;
#242 = FACE_BOUND ( 'NONE', #97, .T. ) ;
#243 = EDGE_CURVE ( 'NONE', #138, #280, #240, .T. ) ;
#244 = CARTESIAN_POINT ( 'NONE',  ( 0.000000000000000000, 0.000000000000000000, 0.000000000000000000 ) ) ;
#245 = CC_DESIGN_APPROVAL ( #292, ( #102 ) ) ;
#246 = UNCERTAINTY_MEASURE_WITH_UNIT (LENGTH_MEASURE( 1.000000000000000082E-05 ), #36, 'distance_accuracy_value', 'NONE');
#247 = CARTESIAN_POINT ( 'NONE',  ( 0.000000000000000000, 0.000000000000000000, 3.000000000000000000 ) ) ;
#248 = FACE_OUTER_BOUND ( 'NONE', #135, .T. ) ;
#249 = CC_DESIGN_DATE_AND_TIME_ASSIGNMENT ( #180, #113, ( #19 ) ) ;
#250 = CIRCLE ( 'NONE', #143, 0.2000000000000000944 ) ;
#251 = PERSON_AND_ORGANIZATION ( #73, #147 ) ;
#252 = ORIENTED_EDGE ( 'NONE', *, *, #243, .T. ) ;
#253 = ORIENTED_EDGE ( 'NONE', *, *, #174, .F. ) ;
#254 = APPROVAL_STATUS ( 'not_yet_approved' ) ;
#255 = EDGE_CURVE ( 'NONE', #118, #138, #85, .T. ) ;
#256 = VERTEX_POINT ( 'NONE', #82 ) ;
#257 = CIRCLE ( 'NONE', #283, 3.000000000000000444 ) ;
#258 = VERTEX_POINT ( 'NONE', #201 ) ;
#259 = PERSON_AND_ORGANIZATION_ROLE ( 'creator' ) ;
#260 = ORIENTED_EDGE ( 'NONE', *, *, #174, .T. ) ;
#261 = DIRECTION ( 'NONE',  ( -0.000000000000000000, -0.000000000000000000, -1.000000000000000000 ) ) ;
#262 = FACE_OUTER_BOUND ( 'NONE', #159, .T. ) ;
#263 = CARTESIAN_POINT ( 'NONE',  ( 3.000000000000000444, 3.673940397442060361E-16, 3.000000000000000000 ) ) ;
#264 = FACE_OUTER_BOUND ( 'NONE', #187, .T. ) ;
#265 = CARTESIAN_POINT ( 'NONE',  ( -1.700000000000000400, 2.081899558550500773E-16, 3.000000000000004441 ) ) ;
#266 = AXIS2_PLACEMENT_3D ( 'NONE', #83, #199, #155 ) ;
#267 = LOCAL_TIME ( 12, 15, 16.00000000000000000, #302 ) ;
#268 = CARTESIAN_POINT ( 'NONE',  ( -1.500000000000000222, 0.000000000000000000, 3.200000000000008171 ) ) ;
#269 = ADVANCED_BREP_SHAPE_REPRESENTATION ( '3250', ( #211, #32 ), #284 ) ;
#270 = PLANE ( 'NONE',  #179 ) ;
#271 = CIRCLE ( 'NONE', #194, 1.700000000000000400 ) ;
#272 = CARTESIAN_POINT ( 'NONE',  ( 1.500000000000000222, 1.836970198721030181E-16, 3.200000000000008171 ) ) ;
#273 = DESIGN_CONTEXT ( 'detailed design', #121, 'design' ) ;
#274 = CC_DESIGN_PERSON_AND_ORGANIZATION_ASSIGNMENT ( #62, #119, ( #94 ) ) ;
#275 = MECHANICAL_CONTEXT ( 'NONE', #105, 'mechanical' ) ;
#276 = AXIS2_PLACEMENT_3D ( 'NONE', #215, #127, #144 ) ;
#277 = APPROVAL_ROLE ( '' ) ;
#278 = APPROVAL ( #254, 'NEURÈENÝ' ) ;
#279 = DATE_AND_TIME ( #18, #267 ) ;
#280 = VERTEX_POINT ( 'NONE', #176 ) ;
#281 = ORIENTED_EDGE ( 'NONE', *, *, #230, .T. ) ;
#282 = APPROVAL_DATE_TIME ( #300, #292 ) ;
#283 = AXIS2_PLACEMENT_3D ( 'NONE', #149, #239, #219 ) ;
#284 =( GEOMETRIC_REPRESENTATION_CONTEXT ( 3 ) GLOBAL_UNCERTAINTY_ASSIGNED_CONTEXT ( ( #246 ) ) GLOBAL_UNIT_ASSIGNED_CONTEXT ( ( #36, #131, #222 ) ) REPRESENTATION_CONTEXT ( 'NONE', 'WORKASPACE' ) );
#285 = CARTESIAN_POINT ( 'NONE',  ( 0.000000000000000000, 0.000000000000000000, 3.200000000000008171 ) ) ;
#286 = DIRECTION ( 'NONE',  ( 1.000000000000000000, 0.000000000000000000, 0.000000000000000000 ) ) ;
#287 = DIRECTION ( 'NONE',  ( 1.224646799147353207E-16, 1.000000000000000000, -0.000000000000000000 ) ) ;
#288 = ADVANCED_FACE ( 'NONE', ( #248 ), #198, .F. ) ;
#289 = CARTESIAN_POINT ( 'NONE',  ( 0.000000000000000000, 0.000000000000000000, 3.200000000000008171 ) ) ;
#290 = CARTESIAN_POINT ( 'NONE',  ( 0.000000000000000000, 0.000000000000000000, 3.000000000000000000 ) ) ;
#291 = DIRECTION ( 'NONE',  ( 0.000000000000000000, 0.000000000000000000, 1.000000000000000000 ) ) ;
#292 = APPROVAL ( #114, 'NEURÈENÝ' ) ;
#293 = VECTOR ( 'NONE', #217, 1000.000000000000000 ) ;
#294 = DIRECTION ( 'NONE',  ( -0.000000000000000000, -0.000000000000000000, -1.000000000000000000 ) ) ;
#295 = DIRECTION ( 'NONE',  ( 1.000000000000000000, 0.000000000000000000, -0.000000000000000000 ) ) ;
#296 = DIRECTION ( 'NONE',  ( -0.000000000000000000, -0.000000000000000000, -1.000000000000000000 ) ) ;
#297 = CIRCLE ( 'NONE', #43, 3.000000000000000444 ) ;
#298 = ADVANCED_FACE ( 'NONE', ( #242, #80 ), #270, .T. ) ;
#299 = DIRECTION ( 'NONE',  ( -0.000000000000000000, -0.000000000000000000, -1.000000000000000000 ) ) ;
#300 = DATE_AND_TIME ( #188, #236 ) ;
#301 = EDGE_CURVE ( 'NONE', #256, #258, #111, .T. ) ;
#302 = COORDINATED_UNIVERSAL_TIME_OFFSET ( 1, 0, .AHEAD. ) ;
#303 = ORIENTED_EDGE ( 'NONE', *, *, #87, .T. ) ;
#304 = DATE_AND_TIME ( #162, #37 ) ;
#305 = ORIENTED_EDGE ( 'NONE', *, *, #141, .F. ) ;
#306 = APPLICATION_PROTOCOL_DEFINITION ( 'international standard', 'config_control_design', 1994, #121 ) ;
#307 = EDGE_LOOP ( 'NONE', ( #228, #205 ) ) ;
ENDSEC;
END-ISO-10303-21;
