ISO-10303-21;
HEADER;
FILE_DESCRIPTION (( 'STEP AP203' ),
    '1' );
FILE_NAME ('27f3.STEP',
    '2022-06-20T10:08:33',
    ( '' ),
    ( '' ),
    'SwSTEP 2.0',
    'SolidWorks 2019',
    '' );
FILE_SCHEMA (( 'CONFIG_CONTROL_DESIGN' ));
ENDSEC;

DATA;
#1 = CARTESIAN_POINT ( 'NONE',  ( 0.000000000000000000, 0.000000000000000000, 103.0000000000000142 ) ) ;
#2 = CARTESIAN_POINT ( 'NONE',  ( -2.100000000000000089, 0.000000000000000000, 3.199999999999994404 ) ) ;
#3 = DIRECTION ( 'NONE',  ( -1.000000000000000000, 1.224646799147353207E-16, 0.000000000000000000 ) ) ;
#4 = FACE_OUTER_BOUND ( 'NONE', #273, .T. ) ;
#5 = EDGE_CURVE ( 'NONE', #298, #48, #77, .T. ) ;
#6 = PLANE ( 'NONE',  #34 ) ;
#7 = EDGE_CURVE ( 'NONE', #88, #208, #87, .T. ) ;
#8 = DIRECTION ( 'NONE',  ( 1.000000000000000000, 0.000000000000000000, 0.000000000000000000 ) ) ;
#9 = TOROIDAL_SURFACE ( 'NONE', #196, 2.300000000000000266, 0.2000000000000000111 ) ;
#10 = ORIENTED_EDGE ( 'NONE', *, *, #55, .T. ) ;
#11 = CC_DESIGN_DATE_AND_TIME_ASSIGNMENT ( #83, #165, ( #162 ) ) ;
#12 = MECHANICAL_CONTEXT ( 'NONE', #42, 'mechanical' ) ;
#13 = ORIENTED_EDGE ( 'NONE', *, *, #171, .T. ) ;
#14 = CALENDAR_DATE ( 2022, 20, 6 ) ;
#15 = ORIENTED_EDGE ( 'NONE', *, *, #141, .T. ) ;
#16 = AXIS2_PLACEMENT_3D ( 'NONE', #130, #263, #158 ) ;
#17 = AXIS2_PLACEMENT_3D ( 'NONE', #35, #246, #182 ) ;
#18 = CC_DESIGN_SECURITY_CLASSIFICATION ( #162, ( #40 ) ) ;
#19 = APPROVAL_DATE_TIME ( #115, #177 ) ;
#20 = CARTESIAN_POINT ( 'NONE',  ( -4.000000000000000000, 0.000000000000000000, 3.000000000000000000 ) ) ;
#21 = CC_DESIGN_PERSON_AND_ORGANIZATION_ASSIGNMENT ( #185, #229, ( #110 ) ) ;
#22 = ORIENTED_EDGE ( 'NONE', *, *, #65, .T. ) ;
#23 = AXIS2_PLACEMENT_3D ( 'NONE', #258, #46, #72 ) ;
#24 = DIRECTION ( 'NONE',  ( 0.000000000000000000, 0.000000000000000000, 1.000000000000000000 ) ) ;
#25 = DIRECTION ( 'NONE',  ( -0.000000000000000000, -0.000000000000000000, -1.000000000000000000 ) ) ;
#26 = VERTEX_POINT ( 'NONE', #20 ) ;
#27 = CIRCLE ( 'NONE', #17, 4.000000000000000000 ) ;
#28 = CARTESIAN_POINT ( 'NONE',  ( 2.100000000000000089, 2.571758278209441957E-16, 103.0000000000000142 ) ) ;
#29 = EDGE_CURVE ( 'NONE', #233, #231, #183, .T. ) ;
#30 = APPROVAL_ROLE ( '' ) ;
#31 = CARTESIAN_POINT ( 'NONE',  ( -2.100000000000000089, 0.000000000000000000, 103.0000000000000142 ) ) ;
#32 = DIRECTION ( 'NONE',  ( -0.000000000000000000, -0.000000000000000000, -1.000000000000000000 ) ) ;
#33 = ADVANCED_FACE ( 'NONE', ( #95 ), #122, .T. ) ;
#34 = AXIS2_PLACEMENT_3D ( 'NONE', #289, #199, #249 ) ;
#35 = CARTESIAN_POINT ( 'NONE',  ( 0.000000000000000000, 0.000000000000000000, 3.000000000000000000 ) ) ;
#36 =( GEOMETRIC_REPRESENTATION_CONTEXT ( 3 ) GLOBAL_UNCERTAINTY_ASSIGNED_CONTEXT ( ( #152 ) ) GLOBAL_UNIT_ASSIGNED_CONTEXT ( ( #190, #272, #294 ) ) REPRESENTATION_CONTEXT ( 'NONE', 'WORKASPACE' ) );
#37 = CARTESIAN_POINT ( 'NONE',  ( 0.000000000000000000, 0.000000000000000000, 103.0000000000000142 ) ) ;
#38 = PERSON_AND_ORGANIZATION ( #197, #284 ) ;
#39 = CLOSED_SHELL ( 'NONE', ( #179, #33, #205, #89, #209, #47, #113, #124, #187 ) ) ;
#40 = PRODUCT_DEFINITION_FORMATION_WITH_SPECIFIED_SOURCE ( 'LIBOVOLNÝ', '', #125, .NOT_KNOWN. ) ;
#41 = DIRECTION ( 'NONE',  ( 1.000000000000000000, 0.000000000000000000, 0.000000000000000000 ) ) ;
#42 = APPLICATION_CONTEXT ( 'configuration controlled 3d designs of mechanical parts and assemblies' ) ;
#43 = APPROVAL_ROLE ( '' ) ;
#44 = APPROVAL_ROLE ( '' ) ;
#45 = APPROVAL_PERSON_ORGANIZATION ( #59, #177, #43 ) ;
#46 = DIRECTION ( 'NONE',  ( 0.000000000000000000, 0.000000000000000000, 1.000000000000000000 ) ) ;
#47 = ADVANCED_FACE ( 'NONE', ( #238 ), #99, .F. ) ;
#48 = VERTEX_POINT ( 'NONE', #151 ) ;
#49 = EDGE_CURVE ( 'NONE', #208, #88, #142, .T. ) ;
#50 = EDGE_LOOP ( 'NONE', ( #92, #62, #15, #13 ) ) ;
#51 = DIRECTION ( 'NONE',  ( 1.000000000000000000, 0.000000000000000000, 0.000000000000000000 ) ) ;
#52 = DIRECTION ( 'NONE',  ( 1.000000000000000000, 0.000000000000000000, 0.000000000000000000 ) ) ;
#53 = CARTESIAN_POINT ( 'NONE',  ( 4.000000000000000000, 4.898587196589412829E-16, 3.000000000000000000 ) ) ;
#54 = CC_DESIGN_PERSON_AND_ORGANIZATION_ASSIGNMENT ( #184, #270, ( #40 ) ) ;
#55 = EDGE_CURVE ( 'NONE', #231, #208, #161, .T. ) ;
#56 = CARTESIAN_POINT ( 'NONE',  ( 4.000000000000000000, 4.898587196589412829E-16, 3.000000000000000000 ) ) ;
#57 = CARTESIAN_POINT ( 'NONE',  ( 4.000000000000000000, 4.898587196589412829E-16, 0.000000000000000000 ) ) ;
#58 = DIRECTION ( 'NONE',  ( 1.000000000000000000, 0.000000000000000000, 0.000000000000000000 ) ) ;
#59 = PERSON_AND_ORGANIZATION ( #197, #284 ) ;
#60 = SECURITY_CLASSIFICATION_LEVEL ( 'unclassified' ) ;
#61 = AXIS2_PLACEMENT_3D ( 'NONE', #222, #266, #265 ) ;
#62 = ORIENTED_EDGE ( 'NONE', *, *, #75, .F. ) ;
#63 = PERSON_AND_ORGANIZATION ( #197, #284 ) ;
#64 = ORIENTED_EDGE ( 'NONE', *, *, #49, .F. ) ;
#65 = EDGE_CURVE ( 'NONE', #147, #211, #69, .T. ) ;
#66 = COORDINATED_UNIVERSAL_TIME_OFFSET ( 1, 0, .AHEAD. ) ;
#67 = CC_DESIGN_DATE_AND_TIME_ASSIGNMENT ( #212, #297, ( #110 ) ) ;
#68 = DIRECTION ( 'NONE',  ( 0.000000000000000000, 0.000000000000000000, -1.000000000000000000 ) ) ;
#69 = CIRCLE ( 'NONE', #307, 2.100000000000000089 ) ;
#70 = ORIENTED_EDGE ( 'NONE', *, *, #29, .T. ) ;
#71 = DIRECTION ( 'NONE',  ( -0.000000000000000000, -0.000000000000000000, -1.000000000000000000 ) ) ;
#72 = DIRECTION ( 'NONE',  ( 1.000000000000000000, 0.000000000000000000, 0.000000000000000000 ) ) ;
#73 = ORIENTED_EDGE ( 'NONE', *, *, #144, .T. ) ;
#74 = DIRECTION ( 'NONE',  ( 0.000000000000000000, 0.000000000000000000, 1.000000000000000000 ) ) ;
#75 = EDGE_CURVE ( 'NONE', #26, #293, #121, .T. ) ;
#76 = DIRECTION ( 'NONE',  ( 0.000000000000000000, 0.000000000000000000, 1.000000000000000000 ) ) ;
#77 = CIRCLE ( 'NONE', #215, 4.000000000000000000 ) ;
#78 = CYLINDRICAL_SURFACE ( 'NONE', #116, 2.100000000000000089 ) ;
#79 = FACE_OUTER_BOUND ( 'NONE', #306, .T. ) ;
#80 = DIRECTION ( 'NONE',  ( 0.000000000000000000, 0.000000000000000000, 1.000000000000000000 ) ) ;
#81 = AXIS2_PLACEMENT_3D ( 'NONE', #281, #24, #304 ) ;
#82 = PRODUCT_RELATED_PRODUCT_CATEGORY ( 'detail', '', ( #125 ) ) ;
#83 = DATE_AND_TIME ( #108, #221 ) ;
#84 = EDGE_LOOP ( 'NONE', ( #175, #237 ) ) ;
#85 = APPLICATION_PROTOCOL_DEFINITION ( 'international standard', 'config_control_design', 1994, #261 ) ;
#86 = EDGE_LOOP ( 'NONE', ( #97, #295 ) ) ;
#87 = CIRCLE ( 'NONE', #264, 2.300000000000000266 ) ;
#88 = VERTEX_POINT ( 'NONE', #174 ) ;
#89 = ADVANCED_FACE ( 'NONE', ( #260 ), #242, .T. ) ;
#90 = PERSON_AND_ORGANIZATION ( #197, #284 ) ;
#91 = ORIENTED_EDGE ( 'NONE', *, *, #252, .T. ) ;
#92 = ORIENTED_EDGE ( 'NONE', *, *, #144, .F. ) ;
#93 = CALENDAR_DATE ( 2022, 20, 6 ) ;
#94 = LINE ( 'NONE', #291, #288 ) ;
#95 = FACE_OUTER_BOUND ( 'NONE', #193, .T. ) ;
#96 = DIRECTION ( 'NONE',  ( 0.000000000000000000, -1.000000000000000000, 0.000000000000000000 ) ) ;
#97 = ORIENTED_EDGE ( 'NONE', *, *, #49, .T. ) ;
#98 = AXIS2_PLACEMENT_3D ( 'NONE', #163, #76, #8 ) ;
#99 = PLANE ( 'NONE',  #207 ) ;
#100 = CARTESIAN_POINT ( 'NONE',  ( 2.100000000000000089, 2.571758278209441957E-16, 3.199999999999994404 ) ) ;
#101 = DIRECTION ( 'NONE',  ( 1.000000000000000000, 0.000000000000000000, 0.000000000000000000 ) ) ;
#102 = CIRCLE ( 'NONE', #269, 0.2000000000000000944 ) ;
#103 = DIRECTION ( 'NONE',  ( -0.000000000000000000, -0.000000000000000000, -1.000000000000000000 ) ) ;
#104 = FACE_OUTER_BOUND ( 'NONE', #262, .T. ) ;
#105 = DIRECTION ( 'NONE',  ( 1.000000000000000000, 0.000000000000000000, 0.000000000000000000 ) ) ;
#106 = EDGE_CURVE ( 'NONE', #147, #233, #94, .T. ) ;
#107 = VECTOR ( 'NONE', #247, 1000.000000000000000 ) ;
#108 = CALENDAR_DATE ( 2022, 20, 6 ) ;
#109 = EDGE_LOOP ( 'NONE', ( #188, #305, #192, #70 ) ) ;
#110 = PRODUCT_DEFINITION ( 'NEZNÁMÝ', '', #40, #119 ) ;
#111 = PERSON_AND_ORGANIZATION_ROLE ( 'classification_officer' ) ;
#112 = EDGE_LOOP ( 'NONE', ( #220, #214 ) ) ;
#113 = ADVANCED_FACE ( 'NONE', ( #138 ), #78, .T. ) ;
#114 = ORIENTED_EDGE ( 'NONE', *, *, #55, .F. ) ;
#115 = DATE_AND_TIME ( #14, #279 ) ;
#116 = AXIS2_PLACEMENT_3D ( 'NONE', #37, #135, #224 ) ;
#117 = ORIENTED_EDGE ( 'NONE', *, *, #106, .F. ) ;
#118 = DIRECTION ( 'NONE',  ( -0.000000000000000000, -0.000000000000000000, -1.000000000000000000 ) ) ;
#119 = DESIGN_CONTEXT ( 'detailed design', #261, 'design' ) ;
#120 = ORIENTED_EDGE ( 'NONE', *, *, #7, .F. ) ;
#121 = CIRCLE ( 'NONE', #23, 4.000000000000000000 ) ;
#122 = CYLINDRICAL_SURFACE ( 'NONE', #128, 2.100000000000000089 ) ;
#123 = DIRECTION ( 'NONE',  ( -1.000000000000000000, 0.000000000000000000, 0.000000000000000000 ) ) ;
#124 = ADVANCED_FACE ( 'NONE', ( #4 ), #6, .T. ) ;
#125 = PRODUCT ( '27f3', '27f3', '', ( #12 ) ) ;
#126 = DIRECTION ( 'NONE',  ( 1.000000000000000000, 0.000000000000000000, 0.000000000000000000 ) ) ;
#127 = APPROVAL ( #143, 'NEURÈENÝ' ) ;
#128 = AXIS2_PLACEMENT_3D ( 'NONE', #1, #71, #123 ) ;
#129 = APPROVAL_PERSON_ORGANIZATION ( #230, #133, #30 ) ;
#130 = CARTESIAN_POINT ( 'NONE',  ( 0.000000000000000000, 0.000000000000000000, 3.000000000000000000 ) ) ;
#131 = MANIFOLD_SOLID_BREP ( 'Zaoblit1', #39 ) ;
#132 = CARTESIAN_POINT ( 'NONE',  ( 0.000000000000000000, 0.000000000000000000, 103.0000000000000142 ) ) ;
#133 = APPROVAL ( #154, 'NEURÈENÝ' ) ;
#134 = EDGE_CURVE ( 'NONE', #293, #26, #27, .T. ) ;
#135 = DIRECTION ( 'NONE',  ( -0.000000000000000000, -0.000000000000000000, -1.000000000000000000 ) ) ;
#136 = CC_DESIGN_APPROVAL ( #177, ( #110 ) ) ;
#137 = CARTESIAN_POINT ( 'NONE',  ( 2.100000000000000089, 2.571758278209441957E-16, 103.0000000000000142 ) ) ;
#138 = FACE_OUTER_BOUND ( 'NONE', #109, .T. ) ;
#139 = COORDINATED_UNIVERSAL_TIME_OFFSET ( 1, 0, .AHEAD. ) ;
#140 = ORIENTED_EDGE ( 'NONE', *, *, #141, .F. ) ;
#141 = EDGE_CURVE ( 'NONE', #26, #48, #286, .T. ) ;
#142 = CIRCLE ( 'NONE', #259, 2.300000000000000266 ) ;
#143 = APPROVAL_STATUS ( 'not_yet_approved' ) ;
#144 = EDGE_CURVE ( 'NONE', #293, #298, #268, .T. ) ;
#145 = APPLICATION_PROTOCOL_DEFINITION ( 'international standard', 'config_control_design', 1994, #42 ) ;
#146 = DATE_AND_TIME ( #250, #157 ) ;
#147 = VERTEX_POINT ( 'NONE', #31 ) ;
#148 = DIRECTION ( 'NONE',  ( -0.000000000000000000, -0.000000000000000000, -1.000000000000000000 ) ) ;
#149 = EDGE_CURVE ( 'NONE', #231, #233, #277, .T. ) ;
#150 = CARTESIAN_POINT ( 'NONE',  ( 0.000000000000000000, 0.000000000000000000, 3.000000000000000000 ) ) ;
#151 = CARTESIAN_POINT ( 'NONE',  ( -4.000000000000000000, 0.000000000000000000, 0.000000000000000000 ) ) ;
#152 = UNCERTAINTY_MEASURE_WITH_UNIT (LENGTH_MEASURE( 1.000000000000000082E-05 ), #190, 'distance_accuracy_value', 'NONE');
#153 = CARTESIAN_POINT ( 'NONE',  ( 0.000000000000000000, 0.000000000000000000, 3.000000000000000000 ) ) ;
#154 = APPROVAL_STATUS ( 'not_yet_approved' ) ;
#155 = CARTESIAN_POINT ( 'NONE',  ( 2.300000000000000266, 0.000000000000000000, 2.999999999999997335 ) ) ;
#156 = TOROIDAL_SURFACE ( 'NONE', #240, 2.300000000000000266, 0.2000000000000000111 ) ;
#157 = LOCAL_TIME ( 12, 8, 33.00000000000000000, #66 ) ;
#158 = DIRECTION ( 'NONE',  ( -1.000000000000000000, 0.000000000000000000, 0.000000000000000000 ) ) ;
#159 = CARTESIAN_POINT ( 'NONE',  ( 0.000000000000000000, 0.000000000000000000, 3.199999999999994404 ) ) ;
#160 = PLANE ( 'NONE',  #61 ) ;
#161 = CIRCLE ( 'NONE', #189, 0.2000000000000000944 ) ;
#162 = SECURITY_CLASSIFICATION ( '', '', #60 ) ;
#163 = CARTESIAN_POINT ( 'NONE',  ( 0.000000000000000000, 0.000000000000000000, 3.199999999999994404 ) ) ;
#164 = DIRECTION ( 'NONE',  ( 0.000000000000000000, 0.000000000000000000, 1.000000000000000000 ) ) ;
#165 = DATE_TIME_ROLE ( 'classification_date' ) ;
#166 = COORDINATED_UNIVERSAL_TIME_OFFSET ( 1, 0, .AHEAD. ) ;
#167 = PERSON_AND_ORGANIZATION_ROLE ( 'design_owner' ) ;
#168 = DIRECTION ( 'NONE',  ( 1.000000000000000000, 0.000000000000000000, 0.000000000000000000 ) ) ;
#169 = APPROVAL_DATE_TIME ( #278, #133 ) ;
#170 = ADVANCED_BREP_SHAPE_REPRESENTATION ( '27f3', ( #131, #235 ), #36 ) ;
#171 = EDGE_CURVE ( 'NONE', #48, #298, #283, .T. ) ;
#172 = ORIENTED_EDGE ( 'NONE', *, *, #149, .T. ) ;
#173 = CARTESIAN_POINT ( 'NONE',  ( 0.000000000000000000, 0.000000000000000000, 0.000000000000000000 ) ) ;
#174 = CARTESIAN_POINT ( 'NONE',  ( -2.300000000000000266, 2.816687638038912549E-16, 2.999999999999997335 ) ) ;
#175 = ORIENTED_EDGE ( 'NONE', *, *, #75, .T. ) ;
#176 = CYLINDRICAL_SURFACE ( 'NONE', #16, 4.000000000000000000 ) ;
#177 = APPROVAL ( #254, 'NEURÈENÝ' ) ;
#178 = DIRECTION ( 'NONE',  ( 1.000000000000000000, 0.000000000000000000, 0.000000000000000000 ) ) ;
#179 = ADVANCED_FACE ( 'NONE', ( #104 ), #156, .F. ) ;
#180 = FACE_OUTER_BOUND ( 'NONE', #84, .T. ) ;
#181 = DIRECTION ( 'NONE',  ( 0.000000000000000000, 0.000000000000000000, 1.000000000000000000 ) ) ;
#182 = DIRECTION ( 'NONE',  ( 1.000000000000000000, 0.000000000000000000, 0.000000000000000000 ) ) ;
#183 = CIRCLE ( 'NONE', #81, 2.100000000000000089 ) ;
#184 = PERSON_AND_ORGANIZATION ( #197, #284 ) ;
#185 = PERSON_AND_ORGANIZATION ( #197, #284 ) ;
#186 = COORDINATED_UNIVERSAL_TIME_OFFSET ( 1, 0, .AHEAD. ) ;
#187 = ADVANCED_FACE ( 'NONE', ( #200 ), #9, .F. ) ;
#188 = ORIENTED_EDGE ( 'NONE', *, *, #303, .F. ) ;
#189 = AXIS2_PLACEMENT_3D ( 'NONE', #198, #96, #68 ) ;
#190 =( LENGTH_UNIT ( ) NAMED_UNIT ( * ) SI_UNIT ( .MILLI., .METRE. ) );
#191 = AXIS2_PLACEMENT_3D ( 'NONE', #299, #25, #218 ) ;
#192 = ORIENTED_EDGE ( 'NONE', *, *, #106, .T. ) ;
#193 = EDGE_LOOP ( 'NONE', ( #280, #195, #172, #117 ) ) ;
#194 = CARTESIAN_POINT ( 'NONE',  ( 0.000000000000000000, 0.000000000000000000, 103.0000000000000142 ) ) ;
#195 = ORIENTED_EDGE ( 'NONE', *, *, #303, .T. ) ;
#196 = AXIS2_PLACEMENT_3D ( 'NONE', #290, #80, #105 ) ;
#197 = PERSON ( 'NEURÈENÝ', 'NEURÈENÝ', 'NEURÈENÝ', ('NEURÈENÝ'), ('NEURÈENÝ'), ('NEURÈENÝ') ) ;
#198 = CARTESIAN_POINT ( 'NONE',  ( 2.300000000000000266, 0.000000000000000000, 3.199999999999994404 ) ) ;
#199 = DIRECTION ( 'NONE',  ( 0.000000000000000000, 0.000000000000000000, 1.000000000000000000 ) ) ;
#200 = FACE_OUTER_BOUND ( 'NONE', #276, .T. ) ;
#201 = AXIS2_PLACEMENT_3D ( 'NONE', #132, #181, #178 ) ;
#202 = CC_DESIGN_APPROVAL ( #127, ( #40 ) ) ;
#203 = CARTESIAN_POINT ( 'NONE',  ( 0.000000000000000000, 0.000000000000000000, 0.000000000000000000 ) ) ;
#204 = DIRECTION ( 'NONE',  ( 0.000000000000000000, 0.000000000000000000, 1.000000000000000000 ) ) ;
#205 = ADVANCED_FACE ( 'NONE', ( #79 ), #176, .T. ) ;
#206 = PERSON_AND_ORGANIZATION ( #197, #284 ) ;
#207 = AXIS2_PLACEMENT_3D ( 'NONE', #173, #217, #256 ) ;
#208 = VERTEX_POINT ( 'NONE', #155 ) ;
#209 = ADVANCED_FACE ( 'NONE', ( #245, #180 ), #160, .T. ) ;
#210 = ORIENTED_EDGE ( 'NONE', *, *, #29, .F. ) ;
#211 = VERTEX_POINT ( 'NONE', #28 ) ;
#212 = DATE_AND_TIME ( #251, #253 ) ;
#213 = ORIENTED_EDGE ( 'NONE', *, *, #134, .F. ) ;
#214 = ORIENTED_EDGE ( 'NONE', *, *, #5, .F. ) ;
#215 = AXIS2_PLACEMENT_3D ( 'NONE', #216, #241, #52 ) ;
#216 = CARTESIAN_POINT ( 'NONE',  ( 0.000000000000000000, 0.000000000000000000, 0.000000000000000000 ) ) ;
#217 = DIRECTION ( 'NONE',  ( 0.000000000000000000, 0.000000000000000000, 1.000000000000000000 ) ) ;
#218 = DIRECTION ( 'NONE',  ( -1.000000000000000000, 0.000000000000000000, 0.000000000000000000 ) ) ;
#219 = VECTOR ( 'NONE', #226, 1000.000000000000000 ) ;
#220 = ORIENTED_EDGE ( 'NONE', *, *, #171, .F. ) ;
#221 = LOCAL_TIME ( 12, 8, 33.00000000000000000, #139 ) ;
#222 = CARTESIAN_POINT ( 'NONE',  ( 0.000000000000000000, 0.000000000000000000, 3.000000000000000000 ) ) ;
#223 = DIRECTION ( 'NONE',  ( 1.224646799147353207E-16, 1.000000000000000000, -0.000000000000000000 ) ) ;
#224 = DIRECTION ( 'NONE',  ( -1.000000000000000000, 0.000000000000000000, 0.000000000000000000 ) ) ;
#225 = CC_DESIGN_APPROVAL ( #133, ( #162 ) ) ;
#226 = DIRECTION ( 'NONE',  ( -0.000000000000000000, -0.000000000000000000, -1.000000000000000000 ) ) ;
#227 = PRODUCT_DEFINITION_SHAPE ( 'NONE', 'NONE',  #110 ) ;
#228 = CARTESIAN_POINT ( 'NONE',  ( -4.000000000000000000, 0.000000000000000000, 3.000000000000000000 ) ) ;
#229 = PERSON_AND_ORGANIZATION_ROLE ( 'creator' ) ;
#230 = PERSON_AND_ORGANIZATION ( #197, #284 ) ;
#231 = VERTEX_POINT ( 'NONE', #100 ) ;
#232 = COORDINATED_UNIVERSAL_TIME_OFFSET ( 1, 0, .AHEAD. ) ;
#233 = VERTEX_POINT ( 'NONE', #2 ) ;
#234 = CIRCLE ( 'NONE', #201, 2.100000000000000089 ) ;
#235 = AXIS2_PLACEMENT_3D ( 'NONE', #275, #164, #41 ) ;
#236 = APPROVAL_DATE_TIME ( #146, #127 ) ;
#237 = ORIENTED_EDGE ( 'NONE', *, *, #134, .T. ) ;
#238 = FACE_OUTER_BOUND ( 'NONE', #112, .T. ) ;
#239 = ORIENTED_EDGE ( 'NONE', *, *, #149, .F. ) ;
#240 = AXIS2_PLACEMENT_3D ( 'NONE', #159, #204, #58 ) ;
#241 = DIRECTION ( 'NONE',  ( 0.000000000000000000, 0.000000000000000000, 1.000000000000000000 ) ) ;
#242 = CYLINDRICAL_SURFACE ( 'NONE', #191, 4.000000000000000000 ) ;
#243 = ORIENTED_EDGE ( 'NONE', *, *, #274, .T. ) ;
#244 = VECTOR ( 'NONE', #103, 1000.000000000000000 ) ;
#245 = FACE_BOUND ( 'NONE', #86, .T. ) ;
#246 = DIRECTION ( 'NONE',  ( 0.000000000000000000, 0.000000000000000000, 1.000000000000000000 ) ) ;
#247 = DIRECTION ( 'NONE',  ( -0.000000000000000000, -0.000000000000000000, -1.000000000000000000 ) ) ;
#248 = LINE ( 'NONE', #137, #219 ) ;
#249 = DIRECTION ( 'NONE',  ( 1.000000000000000000, 0.000000000000000000, -0.000000000000000000 ) ) ;
#250 = CALENDAR_DATE ( 2022, 20, 6 ) ;
#251 = CALENDAR_DATE ( 2022, 20, 6 ) ;
#252 = EDGE_CURVE ( 'NONE', #211, #147, #234, .T. ) ;
#253 = LOCAL_TIME ( 12, 8, 33.00000000000000000, #186 ) ;
#254 = APPROVAL_STATUS ( 'not_yet_approved' ) ;
#255 = APPROVAL_PERSON_ORGANIZATION ( #90, #127, #44 ) ;
#256 = DIRECTION ( 'NONE',  ( 1.000000000000000000, 0.000000000000000000, -0.000000000000000000 ) ) ;
#257 = DIRECTION ( 'NONE',  ( 0.000000000000000000, 0.000000000000000000, 1.000000000000000000 ) ) ;
#258 = CARTESIAN_POINT ( 'NONE',  ( 0.000000000000000000, 0.000000000000000000, 3.000000000000000000 ) ) ;
#259 = AXIS2_PLACEMENT_3D ( 'NONE', #150, #118, #51 ) ;
#260 = FACE_OUTER_BOUND ( 'NONE', #50, .T. ) ;
#261 = APPLICATION_CONTEXT ( 'configuration controlled 3d designs of mechanical parts and assemblies' ) ;
#262 = EDGE_LOOP ( 'NONE', ( #210, #243, #64, #114 ) ) ;
#263 = DIRECTION ( 'NONE',  ( -0.000000000000000000, -0.000000000000000000, -1.000000000000000000 ) ) ;
#264 = AXIS2_PLACEMENT_3D ( 'NONE', #153, #148, #126 ) ;
#265 = DIRECTION ( 'NONE',  ( 1.000000000000000000, 0.000000000000000000, -0.000000000000000000 ) ) ;
#266 = DIRECTION ( 'NONE',  ( 0.000000000000000000, 0.000000000000000000, 1.000000000000000000 ) ) ;
#267 = CARTESIAN_POINT ( 'NONE',  ( -2.300000000000000266, 2.816687638038912549E-16, 3.199999999999994404 ) ) ;
#268 = LINE ( 'NONE', #53, #107 ) ;
#269 = AXIS2_PLACEMENT_3D ( 'NONE', #267, #223, #3 ) ;
#270 = PERSON_AND_ORGANIZATION_ROLE ( 'design_supplier' ) ;
#271 = CC_DESIGN_PERSON_AND_ORGANIZATION_ASSIGNMENT ( #206, #292, ( #40 ) ) ;
#272 =( NAMED_UNIT ( * ) PLANE_ANGLE_UNIT ( ) SI_UNIT ( $, .RADIAN. ) );
#273 = EDGE_LOOP ( 'NONE', ( #22, #91 ) ) ;
#274 = EDGE_CURVE ( 'NONE', #233, #88, #102, .T. ) ;
#275 = CARTESIAN_POINT ( 'NONE',  ( 0.000000000000000000, 0.000000000000000000, 0.000000000000000000 ) ) ;
#276 = EDGE_LOOP ( 'NONE', ( #285, #239, #10, #120 ) ) ;
#277 = CIRCLE ( 'NONE', #98, 2.100000000000000089 ) ;
#278 = DATE_AND_TIME ( #93, #302 ) ;
#279 = LOCAL_TIME ( 12, 8, 33.00000000000000000, #232 ) ;
#280 = ORIENTED_EDGE ( 'NONE', *, *, #252, .F. ) ;
#281 = CARTESIAN_POINT ( 'NONE',  ( 0.000000000000000000, 0.000000000000000000, 3.199999999999994404 ) ) ;
#282 = ORIENTED_EDGE ( 'NONE', *, *, #5, .T. ) ;
#283 = CIRCLE ( 'NONE', #296, 4.000000000000000000 ) ;
#284 = ORGANIZATION ( 'NEURÈENÝ', 'NEURÈENÝ', '' ) ;
#285 = ORIENTED_EDGE ( 'NONE', *, *, #274, .F. ) ;
#286 = LINE ( 'NONE', #228, #244 ) ;
#287 = CC_DESIGN_PERSON_AND_ORGANIZATION_ASSIGNMENT ( #63, #167, ( #125 ) ) ;
#288 = VECTOR ( 'NONE', #32, 1000.000000000000000 ) ;
#289 = CARTESIAN_POINT ( 'NONE',  ( 0.000000000000000000, 0.000000000000000000, 103.0000000000000142 ) ) ;
#290 = CARTESIAN_POINT ( 'NONE',  ( 0.000000000000000000, 0.000000000000000000, 3.199999999999994404 ) ) ;
#291 = CARTESIAN_POINT ( 'NONE',  ( -2.100000000000000089, 0.000000000000000000, 103.0000000000000142 ) ) ;
#292 = PERSON_AND_ORGANIZATION_ROLE ( 'creator' ) ;
#293 = VERTEX_POINT ( 'NONE', #56 ) ;
#294 =( NAMED_UNIT ( * ) SI_UNIT ( $, .STERADIAN. ) SOLID_ANGLE_UNIT ( ) );
#295 = ORIENTED_EDGE ( 'NONE', *, *, #7, .T. ) ;
#296 = AXIS2_PLACEMENT_3D ( 'NONE', #203, #74, #101 ) ;
#297 = DATE_TIME_ROLE ( 'creation_date' ) ;
#298 = VERTEX_POINT ( 'NONE', #57 ) ;
#299 = CARTESIAN_POINT ( 'NONE',  ( 0.000000000000000000, 0.000000000000000000, 3.000000000000000000 ) ) ;
#300 = SHAPE_DEFINITION_REPRESENTATION ( #227, #170 ) ;
#301 = CC_DESIGN_PERSON_AND_ORGANIZATION_ASSIGNMENT ( #38, #111, ( #162 ) ) ;
#302 = LOCAL_TIME ( 12, 8, 33.00000000000000000, #166 ) ;
#303 = EDGE_CURVE ( 'NONE', #211, #231, #248, .T. ) ;
#304 = DIRECTION ( 'NONE',  ( 1.000000000000000000, 0.000000000000000000, 0.000000000000000000 ) ) ;
#305 = ORIENTED_EDGE ( 'NONE', *, *, #65, .F. ) ;
#306 = EDGE_LOOP ( 'NONE', ( #213, #73, #282, #140 ) ) ;
#307 = AXIS2_PLACEMENT_3D ( 'NONE', #194, #257, #168 ) ;
ENDSEC;
END-ISO-10303-21;
