ISO-10303-21;
HEADER;
FILE_DESCRIPTION (( 'STEP AP203' ),
    '1' );
FILE_NAME ('849a.STEP',
    '2022-06-20T09:43:31',
    ( '' ),
    ( '' ),
    'SwSTEP 2.0',
    'SolidWorks 2019',
    '' );
FILE_SCHEMA (( 'CONFIG_CONTROL_DESIGN' ));
ENDSEC;

DATA;
#1 = LINE ( 'NONE', #286, #238 ) ;
#2 = ADVANCED_FACE ( 'NONE', ( #303 ), #81, .F. ) ;
#3 = DIRECTION ( 'NONE',  ( 1.000000000000000000, 0.000000000000000000, 0.000000000000000000 ) ) ;
#4 = EDGE_LOOP ( 'NONE', ( #222, #91 ) ) ;
#5 = DIRECTION ( 'NONE',  ( 0.000000000000000000, -1.000000000000000000, 0.000000000000000000 ) ) ;
#6 = CIRCLE ( 'NONE', #119, 4.500000000000000888 ) ;
#7 = EDGE_CURVE ( 'NONE', #170, #59, #279, .T. ) ;
#8 = MANIFOLD_SOLID_BREP ( 'Zaoblit1', #211 ) ;
#9 = LOCAL_TIME ( 11, 43, 31.00000000000000000, #67 ) ;
#10 = PLANE ( 'NONE',  #53 ) ;
#11 = ORIENTED_EDGE ( 'NONE', *, *, #106, .F. ) ;
#12 = AXIS2_PLACEMENT_3D ( 'NONE', #24, #189, #234 ) ;
#13 = EDGE_CURVE ( 'NONE', #245, #130, #31, .T. ) ;
#14 = VECTOR ( 'NONE', #28, 1000.000000000000000 ) ;
#15 = DIRECTION ( 'NONE',  ( -1.000000000000000000, 0.000000000000000000, 0.000000000000000000 ) ) ;
#16 = ORIENTED_EDGE ( 'NONE', *, *, #13, .T. ) ;
#17 = FACE_OUTER_BOUND ( 'NONE', #4, .T. ) ;
#18 = ORIENTED_EDGE ( 'NONE', *, *, #266, .T. ) ;
#19 = DIRECTION ( 'NONE',  ( 0.000000000000000000, 0.000000000000000000, 1.000000000000000000 ) ) ;
#20 = SECURITY_CLASSIFICATION ( '', '', #182 ) ;
#21 = CC_DESIGN_PERSON_AND_ORGANIZATION_ASSIGNMENT ( #27, #285, ( #94 ) ) ;
#22 = APPROVAL_DATE_TIME ( #117, #60 ) ;
#23 = CARTESIAN_POINT ( 'NONE',  ( 0.000000000000000000, 0.000000000000000000, 0.000000000000000000 ) ) ;
#24 = CARTESIAN_POINT ( 'NONE',  ( 0.000000000000000000, 0.000000000000000000, 205.0000000000000284 ) ) ;
#25 = EDGE_CURVE ( 'NONE', #298, #190, #58, .T. ) ;
#26 = CYLINDRICAL_SURFACE ( 'NONE', #165, 4.500000000000000888 ) ;
#27 = PERSON_AND_ORGANIZATION ( #141, #113 ) ;
#28 = DIRECTION ( 'NONE',  ( -0.000000000000000000, -0.000000000000000000, -1.000000000000000000 ) ) ;
#29 = CARTESIAN_POINT ( 'NONE',  ( 7.000000000000000000, 8.572527594031473190E-16, 0.000000000000000000 ) ) ;
#30 = CARTESIAN_POINT ( 'NONE',  ( 0.000000000000000000, 0.000000000000000000, 5.200000000000009948 ) ) ;
#31 = CIRCLE ( 'NONE', #195, 7.000000000000000000 ) ;
#32 = EDGE_CURVE ( 'NONE', #251, #62, #105, .T. ) ;
#33 = DIRECTION ( 'NONE',  ( -0.000000000000000000, -0.000000000000000000, -1.000000000000000000 ) ) ;
#34 = CARTESIAN_POINT ( 'NONE',  ( 0.000000000000000000, 0.000000000000000000, 5.000000000000000000 ) ) ;
#35 = ORIENTED_EDGE ( 'NONE', *, *, #274, .T. ) ;
#36 = EDGE_CURVE ( 'NONE', #298, #245, #1, .T. ) ;
#37 = DIRECTION ( 'NONE',  ( -0.000000000000000000, -0.000000000000000000, -1.000000000000000000 ) ) ;
#38 = EDGE_LOOP ( 'NONE', ( #271, #228, #108, #128 ) ) ;
#39 = DIRECTION ( 'NONE',  ( 0.000000000000000000, 0.000000000000000000, 1.000000000000000000 ) ) ;
#40 = EDGE_LOOP ( 'NONE', ( #144, #43, #294, #175 ) ) ;
#41 = AXIS2_PLACEMENT_3D ( 'NONE', #30, #214, #116 ) ;
#42 = CARTESIAN_POINT ( 'NONE',  ( 0.000000000000000000, 0.000000000000000000, 5.200000000000009948 ) ) ;
#43 = ORIENTED_EDGE ( 'NONE', *, *, #32, .T. ) ;
#44 = DATE_AND_TIME ( #301, #85 ) ;
#45 = DIRECTION ( 'NONE',  ( 1.000000000000000000, 0.000000000000000000, -0.000000000000000000 ) ) ;
#46 = DATE_AND_TIME ( #68, #9 ) ;
#47 = CC_DESIGN_PERSON_AND_ORGANIZATION_ASSIGNMENT ( #253, #114, ( #255 ) ) ;
#48 = DIRECTION ( 'NONE',  ( 1.000000000000000000, 0.000000000000000000, 0.000000000000000000 ) ) ;
#49 = CARTESIAN_POINT ( 'NONE',  ( 0.000000000000000000, 0.000000000000000000, 0.000000000000000000 ) ) ;
#50 = DIRECTION ( 'NONE',  ( 0.000000000000000000, 0.000000000000000000, 1.000000000000000000 ) ) ;
#51 = FACE_OUTER_BOUND ( 'NONE', #89, .T. ) ;
#52 = CIRCLE ( 'NONE', #183, 7.000000000000000000 ) ;
#53 = AXIS2_PLACEMENT_3D ( 'NONE', #125, #275, #63 ) ;
#54 = CARTESIAN_POINT ( 'NONE',  ( 7.000000000000000000, 8.572527594031473190E-16, 5.000000000000000000 ) ) ;
#55 = CC_DESIGN_PERSON_AND_ORGANIZATION_ASSIGNMENT ( #177, #137, ( #163 ) ) ;
#56 = ORIENTED_EDGE ( 'NONE', *, *, #229, .F. ) ;
#57 = APPROVAL_PERSON_ORGANIZATION ( #208, #219, #100 ) ;
#58 = CIRCLE ( 'NONE', #131, 7.000000000000000000 ) ;
#59 = VERTEX_POINT ( 'NONE', #237 ) ;
#60 = APPROVAL ( #299, 'NEURÈENÝ' ) ;
#61 = FACE_OUTER_BOUND ( 'NONE', #276, .T. ) ;
#62 = VERTEX_POINT ( 'NONE', #256 ) ;
#63 = DIRECTION ( 'NONE',  ( 1.000000000000000000, 0.000000000000000000, -0.000000000000000000 ) ) ;
#64 = ORIENTED_EDGE ( 'NONE', *, *, #266, .F. ) ;
#65 = VECTOR ( 'NONE', #37, 1000.000000000000000 ) ;
#66 = DIRECTION ( 'NONE',  ( 1.000000000000000000, 0.000000000000000000, 0.000000000000000000 ) ) ;
#67 = COORDINATED_UNIVERSAL_TIME_OFFSET ( 1, 0, .AHEAD. ) ;
#68 = CALENDAR_DATE ( 2022, 20, 6 ) ;
#69 = ORIENTED_EDGE ( 'NONE', *, *, #80, .T. ) ;
#70 = ADVANCED_BREP_SHAPE_REPRESENTATION ( '849a', ( #8, #215 ), #203 ) ;
#71 = AXIS2_PLACEMENT_3D ( 'NONE', #217, #132, #164 ) ;
#72 = CALENDAR_DATE ( 2022, 20, 6 ) ;
#73 = ORIENTED_EDGE ( 'NONE', *, *, #111, .F. ) ;
#74 = PERSON_AND_ORGANIZATION ( #141, #113 ) ;
#75 = CARTESIAN_POINT ( 'NONE',  ( 0.000000000000000000, 0.000000000000000000, 205.0000000000000284 ) ) ;
#76 = CARTESIAN_POINT ( 'NONE',  ( 0.000000000000000000, 0.000000000000000000, 0.000000000000000000 ) ) ;
#77 = ADVANCED_FACE ( 'NONE', ( #284 ), #26, .T. ) ;
#78 = CARTESIAN_POINT ( 'NONE',  ( -4.500000000000000888, 0.000000000000000000, 5.200000000000009948 ) ) ;
#79 = CARTESIAN_POINT ( 'NONE',  ( 0.000000000000000000, 0.000000000000000000, 5.200000000000009948 ) ) ;
#80 = EDGE_CURVE ( 'NONE', #248, #59, #283, .T. ) ;
#81 = TOROIDAL_SURFACE ( 'NONE', #252, 4.700000000000000178, 0.2000000000000000111 ) ;
#82 = AXIS2_PLACEMENT_3D ( 'NONE', #127, #39, #150 ) ;
#83 =( NAMED_UNIT ( * ) SI_UNIT ( $, .STERADIAN. ) SOLID_ANGLE_UNIT ( ) );
#84 = ORIENTED_EDGE ( 'NONE', *, *, #218, .T. ) ;
#85 = LOCAL_TIME ( 11, 43, 31.00000000000000000, #280 ) ;
#86 = CC_DESIGN_APPROVAL ( #95, ( #163 ) ) ;
#87 = LINE ( 'NONE', #54, #65 ) ;
#88 = EDGE_LOOP ( 'NONE', ( #166, #69, #149, #73 ) ) ;
#89 = EDGE_LOOP ( 'NONE', ( #200, #11 ) ) ;
#90 = PERSON_AND_ORGANIZATION ( #141, #113 ) ;
#91 = ORIENTED_EDGE ( 'NONE', *, *, #167, .T. ) ;
#92 = APPLICATION_CONTEXT ( 'configuration controlled 3d designs of mechanical parts and assemblies' ) ;
#93 = DATE_AND_TIME ( #72, #145 ) ;
#94 = PRODUCT ( '849a', '849a', '', ( #297 ) ) ;
#95 = APPROVAL ( #153, 'NEURÈENÝ' ) ;
#96 = PERSON_AND_ORGANIZATION ( #141, #113 ) ;
#97 = AXIS2_PLACEMENT_3D ( 'NONE', #49, #50, #45 ) ;
#98 = CARTESIAN_POINT ( 'NONE',  ( 0.000000000000000000, 0.000000000000000000, 0.000000000000000000 ) ) ;
#99 = CIRCLE ( 'NONE', #181, 7.000000000000000000 ) ;
#100 = APPROVAL_ROLE ( '' ) ;
#101 = ORIENTED_EDGE ( 'NONE', *, *, #167, .F. ) ;
#102 = CARTESIAN_POINT ( 'NONE',  ( -4.700000000000000178, 5.755839955992559655E-16, 5.200000000000009948 ) ) ;
#103 = DIRECTION ( 'NONE',  ( 1.000000000000000000, 0.000000000000000000, 0.000000000000000000 ) ) ;
#104 = AXIS2_PLACEMENT_3D ( 'NONE', #102, #139, #264 ) ;
#105 = LINE ( 'NONE', #233, #14 ) ;
#106 = EDGE_CURVE ( 'NONE', #130, #245, #99, .T. ) ;
#107 = DIRECTION ( 'NONE',  ( -0.000000000000000000, -0.000000000000000000, -1.000000000000000000 ) ) ;
#108 = ORIENTED_EDGE ( 'NONE', *, *, #243, .T. ) ;
#109 = DIRECTION ( 'NONE',  ( 1.000000000000000000, 0.000000000000000000, 0.000000000000000000 ) ) ;
#110 = ORIENTED_EDGE ( 'NONE', *, *, #80, .F. ) ;
#111 = EDGE_CURVE ( 'NONE', #62, #170, #142, .T. ) ;
#112 = ORIENTED_EDGE ( 'NONE', *, *, #36, .F. ) ;
#113 = ORGANIZATION ( 'NEURÈENÝ', 'NEURÈENÝ', '' ) ;
#114 = PERSON_AND_ORGANIZATION_ROLE ( 'creator' ) ;
#115 = CC_DESIGN_DATE_AND_TIME_ASSIGNMENT ( #44, #230, ( #163 ) ) ;
#116 = DIRECTION ( 'NONE',  ( 1.000000000000000000, 0.000000000000000000, 0.000000000000000000 ) ) ;
#117 = DATE_AND_TIME ( #257, #305 ) ;
#118 = DIRECTION ( 'NONE',  ( 0.000000000000000000, 0.000000000000000000, 1.000000000000000000 ) ) ;
#119 = AXIS2_PLACEMENT_3D ( 'NONE', #169, #270, #241 ) ;
#120 = DIRECTION ( 'NONE',  ( 1.000000000000000000, 0.000000000000000000, 0.000000000000000000 ) ) ;
#121 = PLANE ( 'NONE',  #12 ) ;
#122 = CIRCLE ( 'NONE', #223, 4.700000000000000178 ) ;
#123 = ORIENTED_EDGE ( 'NONE', *, *, #111, .T. ) ;
#124 = DIRECTION ( 'NONE',  ( 0.000000000000000000, 0.000000000000000000, 1.000000000000000000 ) ) ;
#125 = CARTESIAN_POINT ( 'NONE',  ( 0.000000000000000000, 0.000000000000000000, 5.000000000000000000 ) ) ;
#126 = ADVANCED_FACE ( 'NONE', ( #51 ), #209, .F. ) ;
#127 = CARTESIAN_POINT ( 'NONE',  ( 0.000000000000000000, 0.000000000000000000, 205.0000000000000284 ) ) ;
#128 = ORIENTED_EDGE ( 'NONE', *, *, #205, .T. ) ;
#129 = LINE ( 'NONE', #194, #220 ) ;
#130 = VERTEX_POINT ( 'NONE', #29 ) ;
#131 = AXIS2_PLACEMENT_3D ( 'NONE', #184, #136, #259 ) ;
#132 = DIRECTION ( 'NONE',  ( -0.000000000000000000, -0.000000000000000000, -1.000000000000000000 ) ) ;
#133 = EDGE_LOOP ( 'NONE', ( #110, #212, #123, #56 ) ) ;
#134 = ADVANCED_FACE ( 'NONE', ( #135 ), #121, .T. ) ;
#135 = FACE_OUTER_BOUND ( 'NONE', #173, .T. ) ;
#136 = DIRECTION ( 'NONE',  ( 0.000000000000000000, 0.000000000000000000, 1.000000000000000000 ) ) ;
#137 = PERSON_AND_ORGANIZATION_ROLE ( 'creator' ) ;
#138 = CARTESIAN_POINT ( 'NONE',  ( 4.700000000000000178, 0.000000000000000000, 5.000000000000005329 ) ) ;
#139 = DIRECTION ( 'NONE',  ( 1.224646799147353207E-16, 1.000000000000000000, -0.000000000000000000 ) ) ;
#140 = CARTESIAN_POINT ( 'NONE',  ( 0.000000000000000000, 0.000000000000000000, 5.000000000000000000 ) ) ;
#141 = PERSON ( 'NEURÈENÝ', 'NEURÈENÝ', 'NEURÈENÝ', ('NEURÈENÝ'), ('NEURÈENÝ'), ('NEURÈENÝ') ) ;
#142 = CIRCLE ( 'NONE', #269, 0.1999999999999996503 ) ;
#143 = DIRECTION ( 'NONE',  ( -1.000000000000000000, 0.000000000000000000, 0.000000000000000000 ) ) ;
#144 = ORIENTED_EDGE ( 'NONE', *, *, #274, .F. ) ;
#145 = LOCAL_TIME ( 11, 43, 31.00000000000000000, #204 ) ;
#146 = APPLICATION_PROTOCOL_DEFINITION ( 'international standard', 'config_control_design', 1994, #193 ) ;
#147 = EDGE_LOOP ( 'NONE', ( #197, #226 ) ) ;
#148 = CYLINDRICAL_SURFACE ( 'NONE', #216, 7.000000000000000000 ) ;
#149 = ORIENTED_EDGE ( 'NONE', *, *, #7, .F. ) ;
#150 = DIRECTION ( 'NONE',  ( 1.000000000000000000, 0.000000000000000000, 0.000000000000000000 ) ) ;
#151 = ORIENTED_EDGE ( 'NONE', *, *, #36, .T. ) ;
#152 = APPROVAL_DATE_TIME ( #93, #95 ) ;
#153 = APPROVAL_STATUS ( 'not_yet_approved' ) ;
#154 = APPLICATION_PROTOCOL_DEFINITION ( 'international standard', 'config_control_design', 1994, #92 ) ;
#155 = CC_DESIGN_APPROVAL ( #219, ( #20 ) ) ;
#156 = DIRECTION ( 'NONE',  ( -0.000000000000000000, -0.000000000000000000, -1.000000000000000000 ) ) ;
#157 = COORDINATED_UNIVERSAL_TIME_OFFSET ( 1, 0, .AHEAD. ) ;
#158 = DIRECTION ( 'NONE',  ( 0.000000000000000000, 0.000000000000000000, -1.000000000000000000 ) ) ;
#159 = CALENDAR_DATE ( 2022, 20, 6 ) ;
#160 = DIRECTION ( 'NONE',  ( 0.000000000000000000, 0.000000000000000000, 1.000000000000000000 ) ) ;
#161 = DIRECTION ( 'NONE',  ( -0.000000000000000000, -0.000000000000000000, -1.000000000000000000 ) ) ;
#162 = CARTESIAN_POINT ( 'NONE',  ( 7.000000000000000000, 8.572527594031473190E-16, 5.000000000000000000 ) ) ;
#163 = PRODUCT_DEFINITION ( 'NEZNÁMÝ', '', #255, #263 ) ;
#164 = DIRECTION ( 'NONE',  ( -1.000000000000000000, 0.000000000000000000, 0.000000000000000000 ) ) ;
#165 = AXIS2_PLACEMENT_3D ( 'NONE', #75, #161, #188 ) ;
#166 = ORIENTED_EDGE ( 'NONE', *, *, #205, .F. ) ;
#167 = EDGE_CURVE ( 'NONE', #190, #298, #52, .T. ) ;
#168 = UNCERTAINTY_MEASURE_WITH_UNIT (LENGTH_MEASURE( 1.000000000000000082E-05 ), #227, 'distance_accuracy_value', 'NONE');
#169 = CARTESIAN_POINT ( 'NONE',  ( 0.000000000000000000, 0.000000000000000000, 205.0000000000000284 ) ) ;
#170 = VERTEX_POINT ( 'NONE', #138 ) ;
#171 = PRODUCT_RELATED_PRODUCT_CATEGORY ( 'detail', '', ( #94 ) ) ;
#172 = DIRECTION ( 'NONE',  ( 1.000000000000000000, 0.000000000000000000, 0.000000000000000000 ) ) ;
#173 = EDGE_LOOP ( 'NONE', ( #84, #35 ) ) ;
#174 = APPROVAL_ROLE ( '' ) ;
#175 = ORIENTED_EDGE ( 'NONE', *, *, #243, .F. ) ;
#176 = PRODUCT_DEFINITION_SHAPE ( 'NONE', 'NONE',  #163 ) ;
#177 = PERSON_AND_ORGANIZATION ( #141, #113 ) ;
#178 = ADVANCED_FACE ( 'NONE', ( #210 ), #307, .F. ) ;
#179 = APPROVAL_PERSON_ORGANIZATION ( #300, #60, #174 ) ;
#180 = APPROVAL_ROLE ( '' ) ;
#181 = AXIS2_PLACEMENT_3D ( 'NONE', #76, #118, #103 ) ;
#182 = SECURITY_CLASSIFICATION_LEVEL ( 'unclassified' ) ;
#183 = AXIS2_PLACEMENT_3D ( 'NONE', #232, #288, #120 ) ;
#184 = CARTESIAN_POINT ( 'NONE',  ( 0.000000000000000000, 0.000000000000000000, 5.000000000000000000 ) ) ;
#185 = COORDINATED_UNIVERSAL_TIME_OFFSET ( 1, 0, .AHEAD. ) ;
#186 = AXIS2_PLACEMENT_3D ( 'NONE', #140, #206, #287 ) ;
#187 = DIRECTION ( 'NONE',  ( 0.000000000000000000, 0.000000000000000000, 1.000000000000000000 ) ) ;
#188 = DIRECTION ( 'NONE',  ( -1.000000000000000000, 0.000000000000000000, 0.000000000000000000 ) ) ;
#189 = DIRECTION ( 'NONE',  ( 0.000000000000000000, 0.000000000000000000, 1.000000000000000000 ) ) ;
#190 = VERTEX_POINT ( 'NONE', #162 ) ;
#191 = CARTESIAN_POINT ( 'NONE',  ( 4.500000000000000888, 5.510910596163089556E-16, 205.0000000000000284 ) ) ;
#192 = CC_DESIGN_PERSON_AND_ORGANIZATION_ASSIGNMENT ( #74, #282, ( #20 ) ) ;
#193 = APPLICATION_CONTEXT ( 'configuration controlled 3d designs of mechanical parts and assemblies' ) ;
#194 = CARTESIAN_POINT ( 'NONE',  ( -4.500000000000000888, 0.000000000000000000, 205.0000000000000284 ) ) ;
#195 = AXIS2_PLACEMENT_3D ( 'NONE', #98, #160, #48 ) ;
#196 = CYLINDRICAL_SURFACE ( 'NONE', #71, 7.000000000000000000 ) ;
#197 = ORIENTED_EDGE ( 'NONE', *, *, #7, .T. ) ;
#198 = CARTESIAN_POINT ( 'NONE',  ( -4.500000000000000888, 0.000000000000000000, 205.0000000000000284 ) ) ;
#199 = EDGE_LOOP ( 'NONE', ( #64, #242, #151, #16 ) ) ;
#200 = ORIENTED_EDGE ( 'NONE', *, *, #13, .F. ) ;
#201 = ADVANCED_FACE ( 'NONE', ( #221, #17 ), #10, .T. ) ;
#202 = DATE_AND_TIME ( #159, #277 ) ;
#203 =( GEOMETRIC_REPRESENTATION_CONTEXT ( 3 ) GLOBAL_UNCERTAINTY_ASSIGNED_CONTEXT ( ( #168 ) ) GLOBAL_UNIT_ASSIGNED_CONTEXT ( ( #227, #240, #83 ) ) REPRESENTATION_CONTEXT ( 'NONE', 'WORKASPACE' ) );
#204 = COORDINATED_UNIVERSAL_TIME_OFFSET ( 1, 0, .AHEAD. ) ;
#205 = EDGE_CURVE ( 'NONE', #248, #62, #207, .T. ) ;
#206 = DIRECTION ( 'NONE',  ( -0.000000000000000000, -0.000000000000000000, -1.000000000000000000 ) ) ;
#207 = CIRCLE ( 'NONE', #224, 4.500000000000000888 ) ;
#208 = PERSON_AND_ORGANIZATION ( #141, #113 ) ;
#209 = PLANE ( 'NONE',  #97 ) ;
#210 = FACE_OUTER_BOUND ( 'NONE', #88, .T. ) ;
#211 = CLOSED_SHELL ( 'NONE', ( #178, #261, #236, #293, #201, #126, #77, #134, #2 ) ) ;
#212 = ORIENTED_EDGE ( 'NONE', *, *, #231, .F. ) ;
#213 = CIRCLE ( 'NONE', #82, 4.500000000000000888 ) ;
#214 = DIRECTION ( 'NONE',  ( 0.000000000000000000, 0.000000000000000000, 1.000000000000000000 ) ) ;
#215 = AXIS2_PLACEMENT_3D ( 'NONE', #23, #19, #66 ) ;
#216 = AXIS2_PLACEMENT_3D ( 'NONE', #34, #33, #143 ) ;
#217 = CARTESIAN_POINT ( 'NONE',  ( 0.000000000000000000, 0.000000000000000000, 5.000000000000000000 ) ) ;
#218 = EDGE_CURVE ( 'NONE', #296, #251, #213, .T. ) ;
#219 = APPROVAL ( #306, 'NEURÈENÝ' ) ;
#220 = VECTOR ( 'NONE', #265, 1000.000000000000000 ) ;
#221 = FACE_BOUND ( 'NONE', #147, .T. ) ;
#222 = ORIENTED_EDGE ( 'NONE', *, *, #25, .T. ) ;
#223 = AXIS2_PLACEMENT_3D ( 'NONE', #244, #107, #109 ) ;
#224 = AXIS2_PLACEMENT_3D ( 'NONE', #42, #124, #292 ) ;
#225 = CYLINDRICAL_SURFACE ( 'NONE', #250, 4.500000000000000888 ) ;
#226 = ORIENTED_EDGE ( 'NONE', *, *, #229, .T. ) ;
#227 =( LENGTH_UNIT ( ) NAMED_UNIT ( * ) SI_UNIT ( .MILLI., .METRE. ) );
#228 = ORIENTED_EDGE ( 'NONE', *, *, #218, .F. ) ;
#229 = EDGE_CURVE ( 'NONE', #59, #170, #122, .T. ) ;
#230 = DATE_TIME_ROLE ( 'creation_date' ) ;
#231 = EDGE_CURVE ( 'NONE', #62, #248, #267, .T. ) ;
#232 = CARTESIAN_POINT ( 'NONE',  ( 0.000000000000000000, 0.000000000000000000, 5.000000000000000000 ) ) ;
#233 = CARTESIAN_POINT ( 'NONE',  ( 4.500000000000000888, 5.510910596163089556E-16, 205.0000000000000284 ) ) ;
#234 = DIRECTION ( 'NONE',  ( 1.000000000000000000, 0.000000000000000000, -0.000000000000000000 ) ) ;
#235 = CARTESIAN_POINT ( 'NONE',  ( 0.000000000000000000, 0.000000000000000000, 5.200000000000009948 ) ) ;
#236 = ADVANCED_FACE ( 'NONE', ( #61 ), #196, .T. ) ;
#237 = CARTESIAN_POINT ( 'NONE',  ( -4.700000000000000178, 5.755839955992559655E-16, 5.000000000000005329 ) ) ;
#238 = VECTOR ( 'NONE', #156, 1000.000000000000000 ) ;
#239 = CC_DESIGN_APPROVAL ( #60, ( #255 ) ) ;
#240 =( NAMED_UNIT ( * ) PLANE_ANGLE_UNIT ( ) SI_UNIT ( $, .RADIAN. ) );
#241 = DIRECTION ( 'NONE',  ( 1.000000000000000000, 0.000000000000000000, 0.000000000000000000 ) ) ;
#242 = ORIENTED_EDGE ( 'NONE', *, *, #25, .F. ) ;
#243 = EDGE_CURVE ( 'NONE', #296, #248, #129, .T. ) ;
#244 = CARTESIAN_POINT ( 'NONE',  ( 0.000000000000000000, 0.000000000000000000, 5.000000000000000000 ) ) ;
#245 = VERTEX_POINT ( 'NONE', #249 ) ;
#246 = CC_DESIGN_DATE_AND_TIME_ASSIGNMENT ( #46, #254, ( #20 ) ) ;
#247 = CARTESIAN_POINT ( 'NONE',  ( 0.000000000000000000, 0.000000000000000000, 205.0000000000000284 ) ) ;
#248 = VERTEX_POINT ( 'NONE', #78 ) ;
#249 = CARTESIAN_POINT ( 'NONE',  ( -7.000000000000000000, 0.000000000000000000, 0.000000000000000000 ) ) ;
#250 = AXIS2_PLACEMENT_3D ( 'NONE', #247, #290, #15 ) ;
#251 = VERTEX_POINT ( 'NONE', #191 ) ;
#252 = AXIS2_PLACEMENT_3D ( 'NONE', #235, #187, #3 ) ;
#253 = PERSON_AND_ORGANIZATION ( #141, #113 ) ;
#254 = DATE_TIME_ROLE ( 'classification_date' ) ;
#255 = PRODUCT_DEFINITION_FORMATION_WITH_SPECIFIED_SOURCE ( 'LIBOVOLNÝ', '', #94, .NOT_KNOWN. ) ;
#256 = CARTESIAN_POINT ( 'NONE',  ( 4.500000000000000888, 5.510910596163089556E-16, 5.200000000000009948 ) ) ;
#257 = CALENDAR_DATE ( 2022, 20, 6 ) ;
#258 = APPROVAL_DATE_TIME ( #202, #219 ) ;
#259 = DIRECTION ( 'NONE',  ( 1.000000000000000000, 0.000000000000000000, 0.000000000000000000 ) ) ;
#260 = CC_DESIGN_SECURITY_CLASSIFICATION ( #20, ( #255 ) ) ;
#261 = ADVANCED_FACE ( 'NONE', ( #268 ), #225, .T. ) ;
#262 = CARTESIAN_POINT ( 'NONE',  ( 4.700000000000000178, 0.000000000000000000, 5.200000000000009948 ) ) ;
#263 = DESIGN_CONTEXT ( 'detailed design', #92, 'design' ) ;
#264 = DIRECTION ( 'NONE',  ( -1.000000000000000000, 1.224646799147353454E-16, 0.000000000000000000 ) ) ;
#265 = DIRECTION ( 'NONE',  ( -0.000000000000000000, -0.000000000000000000, -1.000000000000000000 ) ) ;
#266 = EDGE_CURVE ( 'NONE', #190, #130, #87, .T. ) ;
#267 = CIRCLE ( 'NONE', #304, 4.500000000000000888 ) ;
#268 = FACE_OUTER_BOUND ( 'NONE', #40, .T. ) ;
#269 = AXIS2_PLACEMENT_3D ( 'NONE', #262, #5, #158 ) ;
#270 = DIRECTION ( 'NONE',  ( 0.000000000000000000, 0.000000000000000000, 1.000000000000000000 ) ) ;
#271 = ORIENTED_EDGE ( 'NONE', *, *, #32, .F. ) ;
#272 = FACE_OUTER_BOUND ( 'NONE', #199, .T. ) ;
#273 = ORIENTED_EDGE ( 'NONE', *, *, #106, .T. ) ;
#274 = EDGE_CURVE ( 'NONE', #251, #296, #6, .T. ) ;
#275 = DIRECTION ( 'NONE',  ( 0.000000000000000000, 0.000000000000000000, 1.000000000000000000 ) ) ;
#276 = EDGE_LOOP ( 'NONE', ( #101, #18, #273, #112 ) ) ;
#277 = LOCAL_TIME ( 11, 43, 31.00000000000000000, #185 ) ;
#278 = SHAPE_DEFINITION_REPRESENTATION ( #176, #70 ) ;
#279 = CIRCLE ( 'NONE', #186, 4.700000000000000178 ) ;
#280 = COORDINATED_UNIVERSAL_TIME_OFFSET ( 1, 0, .AHEAD. ) ;
#281 = PERSON_AND_ORGANIZATION_ROLE ( 'design_supplier' ) ;
#282 = PERSON_AND_ORGANIZATION_ROLE ( 'classification_officer' ) ;
#283 = CIRCLE ( 'NONE', #104, 0.1999999999999996503 ) ;
#284 = FACE_OUTER_BOUND ( 'NONE', #38, .T. ) ;
#285 = PERSON_AND_ORGANIZATION_ROLE ( 'design_owner' ) ;
#286 = CARTESIAN_POINT ( 'NONE',  ( -7.000000000000000000, 0.000000000000000000, 5.000000000000000000 ) ) ;
#287 = DIRECTION ( 'NONE',  ( 1.000000000000000000, 0.000000000000000000, 0.000000000000000000 ) ) ;
#288 = DIRECTION ( 'NONE',  ( 0.000000000000000000, 0.000000000000000000, 1.000000000000000000 ) ) ;
#289 = APPROVAL_PERSON_ORGANIZATION ( #90, #95, #180 ) ;
#290 = DIRECTION ( 'NONE',  ( -0.000000000000000000, -0.000000000000000000, -1.000000000000000000 ) ) ;
#291 = DIRECTION ( 'NONE',  ( 0.000000000000000000, 0.000000000000000000, 1.000000000000000000 ) ) ;
#292 = DIRECTION ( 'NONE',  ( 1.000000000000000000, 0.000000000000000000, 0.000000000000000000 ) ) ;
#293 = ADVANCED_FACE ( 'NONE', ( #272 ), #148, .T. ) ;
#294 = ORIENTED_EDGE ( 'NONE', *, *, #231, .T. ) ;
#295 = CARTESIAN_POINT ( 'NONE',  ( -7.000000000000000000, 0.000000000000000000, 5.000000000000000000 ) ) ;
#296 = VERTEX_POINT ( 'NONE', #198 ) ;
#297 = MECHANICAL_CONTEXT ( 'NONE', #193, 'mechanical' ) ;
#298 = VERTEX_POINT ( 'NONE', #295 ) ;
#299 = APPROVAL_STATUS ( 'not_yet_approved' ) ;
#300 = PERSON_AND_ORGANIZATION ( #141, #113 ) ;
#301 = CALENDAR_DATE ( 2022, 20, 6 ) ;
#302 = CC_DESIGN_PERSON_AND_ORGANIZATION_ASSIGNMENT ( #96, #281, ( #255 ) ) ;
#303 = FACE_OUTER_BOUND ( 'NONE', #133, .T. ) ;
#304 = AXIS2_PLACEMENT_3D ( 'NONE', #79, #291, #172 ) ;
#305 = LOCAL_TIME ( 11, 43, 31.00000000000000000, #157 ) ;
#306 = APPROVAL_STATUS ( 'not_yet_approved' ) ;
#307 = TOROIDAL_SURFACE ( 'NONE', #41, 4.700000000000000178, 0.2000000000000000111 ) ;
ENDSEC;
END-ISO-10303-21;
