ISO-10303-21;
HEADER;
FILE_DESCRIPTION (( 'STEP AP203' ),
    '1' );
FILE_NAME ('6df3.STEP',
    '2022-06-20T09:51:49',
    ( '' ),
    ( '' ),
    'SwSTEP 2.0',
    'SolidWorks 2019',
    '' );
FILE_SCHEMA (( 'CONFIG_CONTROL_DESIGN' ));
ENDSEC;

DATA;
#1 = DIRECTION ( 'NONE',  ( 0.000000000000000000, 0.000000000000000000, 1.000000000000000000 ) ) ;
#2 = FACE_OUTER_BOUND ( 'NONE', #44, .T. ) ;
#3 = DIRECTION ( 'NONE',  ( 1.000000000000000000, 0.000000000000000000, 0.000000000000000000 ) ) ;
#4 = LOCAL_TIME ( 11, 51, 49.00000000000000000, #153 ) ;
#5 = CARTESIAN_POINT ( 'NONE',  ( -3.700000000000000178, 4.531193156845206201E-16, 5.199999999999982414 ) ) ;
#6 = FACE_OUTER_BOUND ( 'NONE', #226, .T. ) ;
#7 = FACE_OUTER_BOUND ( 'NONE', #253, .T. ) ;
#8 = CARTESIAN_POINT ( 'NONE',  ( 0.000000000000000000, 0.000000000000000000, 5.000000000000000000 ) ) ;
#9 = DIRECTION ( 'NONE',  ( -0.000000000000000000, -0.000000000000000000, -1.000000000000000000 ) ) ;
#10 = DIRECTION ( 'NONE',  ( 0.000000000000000000, 0.000000000000000000, 1.000000000000000000 ) ) ;
#11 = AXIS2_PLACEMENT_3D ( 'NONE', #5, #280, #161 ) ;
#12 = CC_DESIGN_PERSON_AND_ORGANIZATION_ASSIGNMENT ( #14, #180, ( #82 ) ) ;
#13 = APPROVAL_ROLE ( '' ) ;
#14 = PERSON_AND_ORGANIZATION ( #104, #245 ) ;
#15 = ORIENTED_EDGE ( 'NONE', *, *, #285, .T. ) ;
#16 = ADVANCED_FACE ( 'NONE', ( #79 ), #77, .F. ) ;
#17 = DATE_AND_TIME ( #247, #151 ) ;
#18 = CIRCLE ( 'NONE', #11, 0.2000000000000000944 ) ;
#19 = VERTEX_POINT ( 'NONE', #136 ) ;
#20 = SHAPE_DEFINITION_REPRESENTATION ( #303, #38 ) ;
#21 = VERTEX_POINT ( 'NONE', #51 ) ;
#22 = EDGE_CURVE ( 'NONE', #198, #21, #307, .T. ) ;
#23 = ORIENTED_EDGE ( 'NONE', *, *, #231, .T. ) ;
#24 = AXIS2_PLACEMENT_3D ( 'NONE', #8, #218, #146 ) ;
#25 = CC_DESIGN_APPROVAL ( #221, ( #261 ) ) ;
#26 = DIRECTION ( 'NONE',  ( 1.000000000000000000, 0.000000000000000000, -0.000000000000000000 ) ) ;
#27 = VERTEX_POINT ( 'NONE', #238 ) ;
#28 = ADVANCED_FACE ( 'NONE', ( #281 ), #71, .F. ) ;
#29 = DIRECTION ( 'NONE',  ( 1.000000000000000000, 0.000000000000000000, 0.000000000000000000 ) ) ;
#30 = MANIFOLD_SOLID_BREP ( 'Zaoblit1', #241 ) ;
#31 = APPLICATION_CONTEXT ( 'configuration controlled 3d designs of mechanical parts and assemblies' ) ;
#32 = CARTESIAN_POINT ( 'NONE',  ( 0.000000000000000000, 0.000000000000000000, 5.199999999999982414 ) ) ;
#33 = DIRECTION ( 'NONE',  ( 0.000000000000000000, 0.000000000000000000, 1.000000000000000000 ) ) ;
#34 =( NAMED_UNIT ( * ) SI_UNIT ( $, .STERADIAN. ) SOLID_ANGLE_UNIT ( ) );
#35 = CIRCLE ( 'NONE', #48, 6.000000000000000888 ) ;
#36 = DIRECTION ( 'NONE',  ( -0.000000000000000000, -0.000000000000000000, -1.000000000000000000 ) ) ;
#37 = COORDINATED_UNIVERSAL_TIME_OFFSET ( 1, 0, .AHEAD. ) ;
#38 = ADVANCED_BREP_SHAPE_REPRESENTATION ( '6df3', ( #30, #191 ), #220 ) ;
#39 = CIRCLE ( 'NONE', #142, 0.1999999999999996503 ) ;
#40 = AXIS2_PLACEMENT_3D ( 'NONE', #106, #267, #269 ) ;
#41 = ORIENTED_EDGE ( 'NONE', *, *, #75, .F. ) ;
#42 = DATE_AND_TIME ( #66, #101 ) ;
#43 = EDGE_CURVE ( 'NONE', #222, #300, #18, .T. ) ;
#44 = EDGE_LOOP ( 'NONE', ( #67, #201 ) ) ;
#45 = DATE_AND_TIME ( #127, #207 ) ;
#46 = EDGE_LOOP ( 'NONE', ( #155, #184 ) ) ;
#47 = CALENDAR_DATE ( 2022, 20, 6 ) ;
#48 = AXIS2_PLACEMENT_3D ( 'NONE', #62, #33, #124 ) ;
#49 = ORIENTED_EDGE ( 'NONE', *, *, #169, .F. ) ;
#50 = ORIENTED_EDGE ( 'NONE', *, *, #43, .T. ) ;
#51 = CARTESIAN_POINT ( 'NONE',  ( -3.500000000000000000, 0.000000000000000000, 635.0000000000000000 ) ) ;
#52 = CARTESIAN_POINT ( 'NONE',  ( 6.000000000000000888, 7.347880794884120722E-16, 5.000000000000000000 ) ) ;
#53 = LOCAL_TIME ( 11, 51, 49.00000000000000000, #251 ) ;
#54 = FACE_OUTER_BOUND ( 'NONE', #248, .T. ) ;
#55 = EDGE_CURVE ( 'NONE', #203, #222, #123, .T. ) ;
#56 = DIRECTION ( 'NONE',  ( 0.000000000000000000, 0.000000000000000000, 1.000000000000000000 ) ) ;
#57 = CARTESIAN_POINT ( 'NONE',  ( 0.000000000000000000, 0.000000000000000000, 5.199999999999982414 ) ) ;
#58 = DIRECTION ( 'NONE',  ( 1.000000000000000000, 0.000000000000000000, 0.000000000000000000 ) ) ;
#59 = AXIS2_PLACEMENT_3D ( 'NONE', #32, #284, #73 ) ;
#60 = CC_DESIGN_APPROVAL ( #279, ( #296 ) ) ;
#61 =( NAMED_UNIT ( * ) PLANE_ANGLE_UNIT ( ) SI_UNIT ( $, .RADIAN. ) );
#62 = CARTESIAN_POINT ( 'NONE',  ( 0.000000000000000000, 0.000000000000000000, 5.000000000000000000 ) ) ;
#63 = ORIENTED_EDGE ( 'NONE', *, *, #175, .T. ) ;
#64 = CARTESIAN_POINT ( 'NONE',  ( 0.000000000000000000, 0.000000000000000000, 0.000000000000000000 ) ) ;
#65 = EDGE_LOOP ( 'NONE', ( #113, #305 ) ) ;
#66 = CALENDAR_DATE ( 2022, 20, 6 ) ;
#67 = ORIENTED_EDGE ( 'NONE', *, *, #285, .F. ) ;
#68 = PERSON_AND_ORGANIZATION ( #104, #245 ) ;
#69 = ORIENTED_EDGE ( 'NONE', *, *, #276, .T. ) ;
#70 = PERSON_AND_ORGANIZATION ( #104, #245 ) ;
#71 = TOROIDAL_SURFACE ( 'NONE', #91, 3.700000000000000178, 0.2000000000000000111 ) ;
#72 = APPROVAL ( #219, 'NEURÈENÝ' ) ;
#73 = DIRECTION ( 'NONE',  ( 1.000000000000000000, 0.000000000000000000, 0.000000000000000000 ) ) ;
#74 = LINE ( 'NONE', #78, #237 ) ;
#75 = EDGE_CURVE ( 'NONE', #128, #19, #260, .T. ) ;
#76 = DIRECTION ( 'NONE',  ( 1.000000000000000000, 0.000000000000000000, 0.000000000000000000 ) ) ;
#77 = TOROIDAL_SURFACE ( 'NONE', #86, 3.700000000000000178, 0.2000000000000000111 ) ;
#78 = CARTESIAN_POINT ( 'NONE',  ( -6.000000000000000888, 0.000000000000000000, 5.000000000000000000 ) ) ;
#79 = FACE_OUTER_BOUND ( 'NONE', #149, .T. ) ;
#80 = DIRECTION ( 'NONE',  ( 1.000000000000000000, 0.000000000000000000, 0.000000000000000000 ) ) ;
#81 = AXIS2_PLACEMENT_3D ( 'NONE', #172, #167, #121 ) ;
#82 = PRODUCT_DEFINITION_FORMATION_WITH_SPECIFIED_SOURCE ( 'LIBOVOLNÝ', '', #138, .NOT_KNOWN. ) ;
#83 = DIRECTION ( 'NONE',  ( -1.000000000000000000, 0.000000000000000000, 0.000000000000000000 ) ) ;
#84 = CC_DESIGN_PERSON_AND_ORGANIZATION_ASSIGNMENT ( #70, #302, ( #138 ) ) ;
#85 = DIRECTION ( 'NONE',  ( 0.000000000000000000, -1.000000000000000000, 0.000000000000000000 ) ) ;
#86 = AXIS2_PLACEMENT_3D ( 'NONE', #255, #188, #29 ) ;
#87 = CARTESIAN_POINT ( 'NONE',  ( 0.000000000000000000, 0.000000000000000000, 635.0000000000000000 ) ) ;
#88 = VERTEX_POINT ( 'NONE', #115 ) ;
#89 = CC_DESIGN_DATE_AND_TIME_ASSIGNMENT ( #129, #225, ( #261 ) ) ;
#90 = APPROVAL_DATE_TIME ( #45, #72 ) ;
#91 = AXIS2_PLACEMENT_3D ( 'NONE', #57, #1, #3 ) ;
#92 = DIRECTION ( 'NONE',  ( 1.000000000000000000, 0.000000000000000000, 0.000000000000000000 ) ) ;
#93 = ORIENTED_EDGE ( 'NONE', *, *, #131, .F. ) ;
#94 = APPROVAL_DATE_TIME ( #17, #279 ) ;
#95 = DIRECTION ( 'NONE',  ( 1.000000000000000000, 0.000000000000000000, -0.000000000000000000 ) ) ;
#96 = DIRECTION ( 'NONE',  ( 0.000000000000000000, 0.000000000000000000, 1.000000000000000000 ) ) ;
#97 = CC_DESIGN_PERSON_AND_ORGANIZATION_ASSIGNMENT ( #202, #200, ( #296 ) ) ;
#98 = CARTESIAN_POINT ( 'NONE',  ( -6.000000000000000888, 0.000000000000000000, 0.000000000000000000 ) ) ;
#99 = FACE_BOUND ( 'NONE', #274, .T. ) ;
#100 = CIRCLE ( 'NONE', #145, 3.700000000000000178 ) ;
#101 = LOCAL_TIME ( 11, 51, 49.00000000000000000, #37 ) ;
#102 = APPLICATION_CONTEXT ( 'configuration controlled 3d designs of mechanical parts and assemblies' ) ;
#103 = ORIENTED_EDGE ( 'NONE', *, *, #55, .T. ) ;
#104 = PERSON ( 'NEURÈENÝ', 'NEURÈENÝ', 'NEURÈENÝ', ('NEURÈENÝ'), ('NEURÈENÝ'), ('NEURÈENÝ') ) ;
#105 = CARTESIAN_POINT ( 'NONE',  ( 0.000000000000000000, 0.000000000000000000, 5.000000000000000000 ) ) ;
#106 = CARTESIAN_POINT ( 'NONE',  ( 0.000000000000000000, 0.000000000000000000, 5.000000000000000000 ) ) ;
#107 = APPROVAL_PERSON_ORGANIZATION ( #178, #279, #13 ) ;
#108 = CARTESIAN_POINT ( 'NONE',  ( 0.000000000000000000, 0.000000000000000000, 0.000000000000000000 ) ) ;
#109 = VECTOR ( 'NONE', #185, 1000.000000000000000 ) ;
#110 = APPLICATION_PROTOCOL_DEFINITION ( 'international standard', 'config_control_design', 1994, #102 ) ;
#111 = APPROVAL_ROLE ( '' ) ;
#112 = ORIENTED_EDGE ( 'NONE', *, *, #135, .T. ) ;
#113 = ORIENTED_EDGE ( 'NONE', *, *, #131, .T. ) ;
#114 = CC_DESIGN_APPROVAL ( #72, ( #82 ) ) ;
#115 = CARTESIAN_POINT ( 'NONE',  ( 3.700000000000000178, 0.000000000000000000, 4.999999999999991118 ) ) ;
#116 = CARTESIAN_POINT ( 'NONE',  ( 6.000000000000000888, 7.347880794884120722E-16, 5.000000000000000000 ) ) ;
#117 = DIRECTION ( 'NONE',  ( -0.000000000000000000, -0.000000000000000000, -1.000000000000000000 ) ) ;
#118 = CARTESIAN_POINT ( 'NONE',  ( 0.000000000000000000, 0.000000000000000000, 5.000000000000000000 ) ) ;
#119 = AXIS2_PLACEMENT_3D ( 'NONE', #87, #36, #83 ) ;
#120 = ADVANCED_FACE ( 'NONE', ( #54 ), #141, .T. ) ;
#121 = DIRECTION ( 'NONE',  ( -1.000000000000000000, 0.000000000000000000, 0.000000000000000000 ) ) ;
#122 = DIRECTION ( 'NONE',  ( 1.000000000000000000, 0.000000000000000000, 0.000000000000000000 ) ) ;
#123 = CIRCLE ( 'NONE', #59, 3.500000000000000000 ) ;
#124 = DIRECTION ( 'NONE',  ( 1.000000000000000000, 0.000000000000000000, 0.000000000000000000 ) ) ;
#125 = ADVANCED_FACE ( 'NONE', ( #99, #233 ), #140, .T. ) ;
#126 = PERSON_AND_ORGANIZATION_ROLE ( 'classification_officer' ) ;
#127 = CALENDAR_DATE ( 2022, 20, 6 ) ;
#128 = VERTEX_POINT ( 'NONE', #52 ) ;
#129 = DATE_AND_TIME ( #249, #4 ) ;
#130 = ORIENTED_EDGE ( 'NONE', *, *, #148, .F. ) ;
#131 = EDGE_CURVE ( 'NONE', #21, #198, #199, .T. ) ;
#132 = AXIS2_PLACEMENT_3D ( 'NONE', #192, #213, #147 ) ;
#133 = PERSON_AND_ORGANIZATION ( #104, #245 ) ;
#134 = VERTEX_POINT ( 'NONE', #98 ) ;
#135 = EDGE_CURVE ( 'NONE', #27, #134, #74, .T. ) ;
#136 = CARTESIAN_POINT ( 'NONE',  ( 6.000000000000000888, 7.347880794884120722E-16, 0.000000000000000000 ) ) ;
#137 = CARTESIAN_POINT ( 'NONE',  ( 0.000000000000000000, 0.000000000000000000, 635.0000000000000000 ) ) ;
#138 = PRODUCT ( '6df3', '6df3', '', ( #159 ) ) ;
#139 = DIRECTION ( 'NONE',  ( -1.000000000000000000, 0.000000000000000000, 0.000000000000000000 ) ) ;
#140 = PLANE ( 'NONE',  #163 ) ;
#141 = CYLINDRICAL_SURFACE ( 'NONE', #227, 6.000000000000000888 ) ;
#142 = AXIS2_PLACEMENT_3D ( 'NONE', #217, #85, #171 ) ;
#143 = DIRECTION ( 'NONE',  ( -0.000000000000000000, -0.000000000000000000, -1.000000000000000000 ) ) ;
#144 = ADVANCED_FACE ( 'NONE', ( #2 ), #162, .F. ) ;
#145 = AXIS2_PLACEMENT_3D ( 'NONE', #287, #143, #80 ) ;
#146 = DIRECTION ( 'NONE',  ( 1.000000000000000000, 0.000000000000000000, 0.000000000000000000 ) ) ;
#147 = DIRECTION ( 'NONE',  ( 1.000000000000000000, 0.000000000000000000, 0.000000000000000000 ) ) ;
#148 = EDGE_CURVE ( 'NONE', #21, #222, #209, .T. ) ;
#149 = EDGE_LOOP ( 'NONE', ( #270, #304, #152, #257 ) ) ;
#150 = CIRCLE ( 'NONE', #24, 3.700000000000000178 ) ;
#151 = LOCAL_TIME ( 11, 51, 49.00000000000000000, #181 ) ;
#152 = ORIENTED_EDGE ( 'NONE', *, *, #169, .T. ) ;
#153 = COORDINATED_UNIVERSAL_TIME_OFFSET ( 1, 0, .AHEAD. ) ;
#154 = ADVANCED_FACE ( 'NONE', ( #205 ), #236, .T. ) ;
#155 = ORIENTED_EDGE ( 'NONE', *, *, #187, .T. ) ;
#156 = APPROVAL_ROLE ( '' ) ;
#157 = ORIENTED_EDGE ( 'NONE', *, *, #204, .T. ) ;
#158 = CIRCLE ( 'NONE', #182, 6.000000000000000888 ) ;
#159 = MECHANICAL_CONTEXT ( 'NONE', #31, 'mechanical' ) ;
#160 = ORIENTED_EDGE ( 'NONE', *, *, #276, .F. ) ;
#161 = DIRECTION ( 'NONE',  ( -1.000000000000000000, 1.224646799147350742E-16, 0.000000000000000000 ) ) ;
#162 = PLANE ( 'NONE',  #168 ) ;
#163 = AXIS2_PLACEMENT_3D ( 'NONE', #235, #208, #283 ) ;
#164 = CARTESIAN_POINT ( 'NONE',  ( 0.000000000000000000, 0.000000000000000000, 635.0000000000000000 ) ) ;
#165 = CARTESIAN_POINT ( 'NONE',  ( 0.000000000000000000, 0.000000000000000000, 0.000000000000000000 ) ) ;
#166 = CC_DESIGN_DATE_AND_TIME_ASSIGNMENT ( #42, #223, ( #296 ) ) ;
#167 = DIRECTION ( 'NONE',  ( -0.000000000000000000, -0.000000000000000000, -1.000000000000000000 ) ) ;
#168 = AXIS2_PLACEMENT_3D ( 'NONE', #165, #234, #26 ) ;
#169 = EDGE_CURVE ( 'NONE', #203, #88, #39, .T. ) ;
#170 = DIRECTION ( 'NONE',  ( 0.000000000000000000, 0.000000000000000000, 1.000000000000000000 ) ) ;
#171 = DIRECTION ( 'NONE',  ( 0.000000000000000000, 0.000000000000000000, -1.000000000000000000 ) ) ;
#172 = CARTESIAN_POINT ( 'NONE',  ( 0.000000000000000000, 0.000000000000000000, 635.0000000000000000 ) ) ;
#173 = AXIS2_PLACEMENT_3D ( 'NONE', #137, #96, #76 ) ;
#174 = CYLINDRICAL_SURFACE ( 'NONE', #119, 3.500000000000000000 ) ;
#175 = EDGE_CURVE ( 'NONE', #19, #134, #186, .T. ) ;
#176 = EDGE_LOOP ( 'NONE', ( #224, #50, #295, #49 ) ) ;
#177 = PERSON_AND_ORGANIZATION ( #104, #245 ) ;
#178 = PERSON_AND_ORGANIZATION ( #104, #245 ) ;
#179 = ORIENTED_EDGE ( 'NONE', *, *, #22, .F. ) ;
#180 = PERSON_AND_ORGANIZATION_ROLE ( 'design_supplier' ) ;
#181 = COORDINATED_UNIVERSAL_TIME_OFFSET ( 1, 0, .AHEAD. ) ;
#182 = AXIS2_PLACEMENT_3D ( 'NONE', #289, #170, #122 ) ;
#183 = DIRECTION ( 'NONE',  ( -0.000000000000000000, -0.000000000000000000, -1.000000000000000000 ) ) ;
#184 = ORIENTED_EDGE ( 'NONE', *, *, #271, .T. ) ;
#185 = DIRECTION ( 'NONE',  ( -0.000000000000000000, -0.000000000000000000, -1.000000000000000000 ) ) ;
#186 = CIRCLE ( 'NONE', #282, 6.000000000000000888 ) ;
#187 = EDGE_CURVE ( 'NONE', #27, #128, #35, .T. ) ;
#188 = DIRECTION ( 'NONE',  ( 0.000000000000000000, 0.000000000000000000, 1.000000000000000000 ) ) ;
#189 = CARTESIAN_POINT ( 'NONE',  ( 3.500000000000000000, 4.286263797015736595E-16, 5.199999999999982414 ) ) ;
#190 = EDGE_CURVE ( 'NONE', #88, #300, #100, .T. ) ;
#191 = AXIS2_PLACEMENT_3D ( 'NONE', #64, #197, #92 ) ;
#192 = CARTESIAN_POINT ( 'NONE',  ( 0.000000000000000000, 0.000000000000000000, 5.199999999999982414 ) ) ;
#193 = CARTESIAN_POINT ( 'NONE',  ( 3.500000000000000000, 4.286263797015736595E-16, 635.0000000000000000 ) ) ;
#194 = PERSON_AND_ORGANIZATION_ROLE ( 'creator' ) ;
#195 = SECURITY_CLASSIFICATION_LEVEL ( 'unclassified' ) ;
#196 = ORIENTED_EDGE ( 'NONE', *, *, #135, .F. ) ;
#197 = DIRECTION ( 'NONE',  ( 0.000000000000000000, 0.000000000000000000, 1.000000000000000000 ) ) ;
#198 = VERTEX_POINT ( 'NONE', #193 ) ;
#199 = CIRCLE ( 'NONE', #173, 3.500000000000000000 ) ;
#200 = PERSON_AND_ORGANIZATION_ROLE ( 'creator' ) ;
#201 = ORIENTED_EDGE ( 'NONE', *, *, #175, .F. ) ;
#202 = PERSON_AND_ORGANIZATION ( #104, #245 ) ;
#203 = VERTEX_POINT ( 'NONE', #189 ) ;
#204 = EDGE_CURVE ( 'NONE', #300, #88, #150, .T. ) ;
#205 = FACE_OUTER_BOUND ( 'NONE', #65, .T. ) ;
#206 = VECTOR ( 'NONE', #9, 1000.000000000000000 ) ;
#207 = LOCAL_TIME ( 11, 51, 49.00000000000000000, #273 ) ;
#208 = DIRECTION ( 'NONE',  ( 0.000000000000000000, 0.000000000000000000, 1.000000000000000000 ) ) ;
#209 = LINE ( 'NONE', #259, #109 ) ;
#210 = CC_DESIGN_PERSON_AND_ORGANIZATION_ASSIGNMENT ( #68, #126, ( #261 ) ) ;
#211 = CARTESIAN_POINT ( 'NONE',  ( 0.000000000000000000, 0.000000000000000000, 635.0000000000000000 ) ) ;
#212 = DIRECTION ( 'NONE',  ( 0.000000000000000000, 0.000000000000000000, 1.000000000000000000 ) ) ;
#213 = DIRECTION ( 'NONE',  ( 0.000000000000000000, 0.000000000000000000, 1.000000000000000000 ) ) ;
#214 = CARTESIAN_POINT ( 'NONE',  ( -3.700000000000000178, 4.531193156845206201E-16, 4.999999999999991118 ) ) ;
#215 = PRODUCT_RELATED_PRODUCT_CATEGORY ( 'detail', '', ( #138 ) ) ;
#216 = AXIS2_PLACEMENT_3D ( 'NONE', #211, #56, #258 ) ;
#217 = CARTESIAN_POINT ( 'NONE',  ( 3.700000000000000178, 0.000000000000000000, 5.199999999999982414 ) ) ;
#218 = DIRECTION ( 'NONE',  ( -0.000000000000000000, -0.000000000000000000, -1.000000000000000000 ) ) ;
#219 = APPROVAL_STATUS ( 'not_yet_approved' ) ;
#220 =( GEOMETRIC_REPRESENTATION_CONTEXT ( 3 ) GLOBAL_UNCERTAINTY_ASSIGNED_CONTEXT ( ( #286 ) ) GLOBAL_UNIT_ASSIGNED_CONTEXT ( ( #263, #61, #34 ) ) REPRESENTATION_CONTEXT ( 'NONE', 'WORKASPACE' ) );
#221 = APPROVAL ( #272, 'NEURÈENÝ' ) ;
#222 = VERTEX_POINT ( 'NONE', #244 ) ;
#223 = DATE_TIME_ROLE ( 'creation_date' ) ;
#224 = ORIENTED_EDGE ( 'NONE', *, *, #231, .F. ) ;
#225 = DATE_TIME_ROLE ( 'classification_date' ) ;
#226 = EDGE_LOOP ( 'NONE', ( #160, #93, #232, #23 ) ) ;
#227 = AXIS2_PLACEMENT_3D ( 'NONE', #118, #278, #139 ) ;
#228 = CC_DESIGN_SECURITY_CLASSIFICATION ( #261, ( #82 ) ) ;
#229 = APPROVAL_DATE_TIME ( #294, #221 ) ;
#230 = EDGE_LOOP ( 'NONE', ( #179, #69, #103, #130 ) ) ;
#231 = EDGE_CURVE ( 'NONE', #222, #203, #266, .T. ) ;
#232 = ORIENTED_EDGE ( 'NONE', *, *, #148, .T. ) ;
#233 = FACE_OUTER_BOUND ( 'NONE', #46, .T. ) ;
#234 = DIRECTION ( 'NONE',  ( 0.000000000000000000, 0.000000000000000000, 1.000000000000000000 ) ) ;
#235 = CARTESIAN_POINT ( 'NONE',  ( 0.000000000000000000, 0.000000000000000000, 5.000000000000000000 ) ) ;
#236 = PLANE ( 'NONE',  #277 ) ;
#237 = VECTOR ( 'NONE', #183, 1000.000000000000000 ) ;
#238 = CARTESIAN_POINT ( 'NONE',  ( -6.000000000000000888, 0.000000000000000000, 5.000000000000000000 ) ) ;
#239 = LINE ( 'NONE', #242, #206 ) ;
#240 = CYLINDRICAL_SURFACE ( 'NONE', #40, 6.000000000000000888 ) ;
#241 = CLOSED_SHELL ( 'NONE', ( #28, #256, #120, #301, #125, #144, #264, #154, #16 ) ) ;
#242 = CARTESIAN_POINT ( 'NONE',  ( 3.500000000000000000, 4.286263797015736595E-16, 635.0000000000000000 ) ) ;
#243 = CYLINDRICAL_SURFACE ( 'NONE', #81, 3.500000000000000000 ) ;
#244 = CARTESIAN_POINT ( 'NONE',  ( -3.500000000000000000, 0.000000000000000000, 5.199999999999982414 ) ) ;
#245 = ORGANIZATION ( 'NEURÈENÝ', 'NEURÈENÝ', '' ) ;
#246 = ORIENTED_EDGE ( 'NONE', *, *, #190, .T. ) ;
#247 = CALENDAR_DATE ( 2022, 20, 6 ) ;
#248 = EDGE_LOOP ( 'NONE', ( #298, #250, #63, #196 ) ) ;
#249 = CALENDAR_DATE ( 2022, 20, 6 ) ;
#250 = ORIENTED_EDGE ( 'NONE', *, *, #75, .T. ) ;
#251 = COORDINATED_UNIVERSAL_TIME_OFFSET ( 1, 0, .AHEAD. ) ;
#252 = CIRCLE ( 'NONE', #292, 6.000000000000000888 ) ;
#253 = EDGE_LOOP ( 'NONE', ( #41, #306, #112, #15 ) ) ;
#254 = DESIGN_CONTEXT ( 'detailed design', #102, 'design' ) ;
#255 = CARTESIAN_POINT ( 'NONE',  ( 0.000000000000000000, 0.000000000000000000, 5.199999999999982414 ) ) ;
#256 = ADVANCED_FACE ( 'NONE', ( #291 ), #243, .T. ) ;
#257 = ORIENTED_EDGE ( 'NONE', *, *, #204, .F. ) ;
#258 = DIRECTION ( 'NONE',  ( 1.000000000000000000, 0.000000000000000000, 0.000000000000000000 ) ) ;
#259 = CARTESIAN_POINT ( 'NONE',  ( -3.500000000000000000, 0.000000000000000000, 635.0000000000000000 ) ) ;
#260 = LINE ( 'NONE', #116, #299 ) ;
#261 = SECURITY_CLASSIFICATION ( '', '', #195 ) ;
#262 = DIRECTION ( 'NONE',  ( 0.000000000000000000, 0.000000000000000000, 1.000000000000000000 ) ) ;
#263 =( LENGTH_UNIT ( ) NAMED_UNIT ( * ) SI_UNIT ( .MILLI., .METRE. ) );
#264 = ADVANCED_FACE ( 'NONE', ( #6 ), #174, .T. ) ;
#265 = DIRECTION ( 'NONE',  ( 1.000000000000000000, 0.000000000000000000, 0.000000000000000000 ) ) ;
#266 = CIRCLE ( 'NONE', #132, 3.500000000000000000 ) ;
#267 = DIRECTION ( 'NONE',  ( -0.000000000000000000, -0.000000000000000000, -1.000000000000000000 ) ) ;
#268 = APPROVAL_PERSON_ORGANIZATION ( #275, #72, #111 ) ;
#269 = DIRECTION ( 'NONE',  ( -1.000000000000000000, 0.000000000000000000, 0.000000000000000000 ) ) ;
#270 = ORIENTED_EDGE ( 'NONE', *, *, #43, .F. ) ;
#271 = EDGE_CURVE ( 'NONE', #128, #27, #252, .T. ) ;
#272 = APPROVAL_STATUS ( 'not_yet_approved' ) ;
#273 = COORDINATED_UNIVERSAL_TIME_OFFSET ( 1, 0, .AHEAD. ) ;
#274 = EDGE_LOOP ( 'NONE', ( #246, #157 ) ) ;
#275 = PERSON_AND_ORGANIZATION ( #104, #245 ) ;
#276 = EDGE_CURVE ( 'NONE', #198, #203, #239, .T. ) ;
#277 = AXIS2_PLACEMENT_3D ( 'NONE', #164, #212, #95 ) ;
#278 = DIRECTION ( 'NONE',  ( -0.000000000000000000, -0.000000000000000000, -1.000000000000000000 ) ) ;
#279 = APPROVAL ( #297, 'NEURÈENÝ' ) ;
#280 = DIRECTION ( 'NONE',  ( 1.224646799147353207E-16, 1.000000000000000000, -0.000000000000000000 ) ) ;
#281 = FACE_OUTER_BOUND ( 'NONE', #176, .T. ) ;
#282 = AXIS2_PLACEMENT_3D ( 'NONE', #108, #10, #265 ) ;
#283 = DIRECTION ( 'NONE',  ( 1.000000000000000000, 0.000000000000000000, -0.000000000000000000 ) ) ;
#284 = DIRECTION ( 'NONE',  ( 0.000000000000000000, 0.000000000000000000, 1.000000000000000000 ) ) ;
#285 = EDGE_CURVE ( 'NONE', #134, #19, #158, .T. ) ;
#286 = UNCERTAINTY_MEASURE_WITH_UNIT (LENGTH_MEASURE( 1.000000000000000082E-05 ), #263, 'distance_accuracy_value', 'NONE');
#287 = CARTESIAN_POINT ( 'NONE',  ( 0.000000000000000000, 0.000000000000000000, 5.000000000000000000 ) ) ;
#288 = APPROVAL_PERSON_ORGANIZATION ( #133, #221, #156 ) ;
#289 = CARTESIAN_POINT ( 'NONE',  ( 0.000000000000000000, 0.000000000000000000, 0.000000000000000000 ) ) ;
#290 = CC_DESIGN_PERSON_AND_ORGANIZATION_ASSIGNMENT ( #177, #194, ( #82 ) ) ;
#291 = FACE_OUTER_BOUND ( 'NONE', #230, .T. ) ;
#292 = AXIS2_PLACEMENT_3D ( 'NONE', #105, #262, #58 ) ;
#293 = APPLICATION_PROTOCOL_DEFINITION ( 'international standard', 'config_control_design', 1994, #31 ) ;
#294 = DATE_AND_TIME ( #47, #53 ) ;
#295 = ORIENTED_EDGE ( 'NONE', *, *, #190, .F. ) ;
#296 = PRODUCT_DEFINITION ( 'NEZNÁMÝ', '', #82, #254 ) ;
#297 = APPROVAL_STATUS ( 'not_yet_approved' ) ;
#298 = ORIENTED_EDGE ( 'NONE', *, *, #271, .F. ) ;
#299 = VECTOR ( 'NONE', #117, 1000.000000000000000 ) ;
#300 = VERTEX_POINT ( 'NONE', #214 ) ;
#301 = ADVANCED_FACE ( 'NONE', ( #7 ), #240, .T. ) ;
#302 = PERSON_AND_ORGANIZATION_ROLE ( 'design_owner' ) ;
#303 = PRODUCT_DEFINITION_SHAPE ( 'NONE', 'NONE',  #296 ) ;
#304 = ORIENTED_EDGE ( 'NONE', *, *, #55, .F. ) ;
#305 = ORIENTED_EDGE ( 'NONE', *, *, #22, .T. ) ;
#306 = ORIENTED_EDGE ( 'NONE', *, *, #187, .F. ) ;
#307 = CIRCLE ( 'NONE', #216, 3.500000000000000000 ) ;
ENDSEC;
END-ISO-10303-21;
