ISO-10303-21;
HEADER;
FILE_DESCRIPTION (( 'STEP AP203' ),
    '1' );
FILE_NAME ('e1c6.STEP',
    '2022-06-20T09:52:06',
    ( '' ),
    ( '' ),
    'SwSTEP 2.0',
    'SolidWorks 2019',
    '' );
FILE_SCHEMA (( 'CONFIG_CONTROL_DESIGN' ));
ENDSEC;

DATA;
#1 = EDGE_CURVE ( 'NONE', #58, #199, #117, .T. ) ;
#2 = AXIS2_PLACEMENT_3D ( 'NONE', #287, #145, #49 ) ;
#3 = CYLINDRICAL_SURFACE ( 'NONE', #161, 6.000000000000000888 ) ;
#4 = FACE_OUTER_BOUND ( 'NONE', #103, .T. ) ;
#5 = CIRCLE ( 'NONE', #282, 6.000000000000000888 ) ;
#6 = ORIENTED_EDGE ( 'NONE', *, *, #293, .F. ) ;
#7 = ORIENTED_EDGE ( 'NONE', *, *, #99, .F. ) ;
#8 = CIRCLE ( 'NONE', #172, 3.500000000000000000 ) ;
#9 = EDGE_LOOP ( 'NONE', ( #289, #29 ) ) ;
#10 = ORIENTED_EDGE ( 'NONE', *, *, #267, .F. ) ;
#11 = CARTESIAN_POINT ( 'NONE',  ( 0.000000000000000000, 0.000000000000000000, 405.0000000000000000 ) ) ;
#12 = AXIS2_PLACEMENT_3D ( 'NONE', #188, #278, #64 ) ;
#13 = COORDINATED_UNIVERSAL_TIME_OFFSET ( 1, 0, .AHEAD. ) ;
#14 = DIRECTION ( 'NONE',  ( 0.000000000000000000, -1.000000000000000000, 0.000000000000000000 ) ) ;
#15 = FACE_OUTER_BOUND ( 'NONE', #101, .T. ) ;
#16 = CC_DESIGN_PERSON_AND_ORGANIZATION_ASSIGNMENT ( #86, #277, ( #163 ) ) ;
#17 = DIRECTION ( 'NONE',  ( 0.000000000000000000, 0.000000000000000000, 1.000000000000000000 ) ) ;
#18 = PERSON_AND_ORGANIZATION_ROLE ( 'design_owner' ) ;
#19 = FACE_OUTER_BOUND ( 'NONE', #292, .T. ) ;
#20 = APPROVAL_ROLE ( '' ) ;
#21 = DIRECTION ( 'NONE',  ( -0.000000000000000000, -0.000000000000000000, -1.000000000000000000 ) ) ;
#22 = AXIS2_PLACEMENT_3D ( 'NONE', #239, #238, #170 ) ;
#23 = CARTESIAN_POINT ( 'NONE',  ( 0.000000000000000000, 0.000000000000000000, 5.000000000000000000 ) ) ;
#24 = MANIFOLD_SOLID_BREP ( 'Zaoblit1', #106 ) ;
#25 = ORIENTED_EDGE ( 'NONE', *, *, #138, .T. ) ;
#26 = LOCAL_TIME ( 11, 52, 6.000000000000000000, #13 ) ;
#27 = ORIENTED_EDGE ( 'NONE', *, *, #80, .T. ) ;
#28 = EDGE_LOOP ( 'NONE', ( #56, #242 ) ) ;
#29 = ORIENTED_EDGE ( 'NONE', *, *, #267, .T. ) ;
#30 = AXIS2_PLACEMENT_3D ( 'NONE', #116, #97, #143 ) ;
#31 = CC_DESIGN_PERSON_AND_ORGANIZATION_ASSIGNMENT ( #234, #168, ( #39 ) ) ;
#32 = CIRCLE ( 'NONE', #75, 3.700000000000000178 ) ;
#33 = EDGE_LOOP ( 'NONE', ( #129, #201, #263, #7 ) ) ;
#34 = ADVANCED_BREP_SHAPE_REPRESENTATION ( 'e1c6', ( #24, #74 ), #210 ) ;
#35 = ORIENTED_EDGE ( 'NONE', *, *, #96, .T. ) ;
#36 = APPROVAL_STATUS ( 'not_yet_approved' ) ;
#37 = DIRECTION ( 'NONE',  ( 1.224646799147353207E-16, 1.000000000000000000, -0.000000000000000000 ) ) ;
#38 = DATE_AND_TIME ( #297, #26 ) ;
#39 = PRODUCT_DEFINITION ( 'NEZNÁMÝ', '', #163, #218 ) ;
#40 = DIRECTION ( 'NONE',  ( 0.000000000000000000, 0.000000000000000000, 1.000000000000000000 ) ) ;
#41 = CALENDAR_DATE ( 2022, 20, 6 ) ;
#42 = CARTESIAN_POINT ( 'NONE',  ( 0.000000000000000000, 0.000000000000000000, 5.199999999999982414 ) ) ;
#43 = DIRECTION ( 'NONE',  ( -0.000000000000000000, -0.000000000000000000, -1.000000000000000000 ) ) ;
#44 = EDGE_CURVE ( 'NONE', #241, #153, #300, .T. ) ;
#45 = APPROVAL_STATUS ( 'not_yet_approved' ) ;
#46 = CC_DESIGN_SECURITY_CLASSIFICATION ( #119, ( #163 ) ) ;
#47 = DIRECTION ( 'NONE',  ( -0.000000000000000000, -0.000000000000000000, -1.000000000000000000 ) ) ;
#48 = CARTESIAN_POINT ( 'NONE',  ( 0.000000000000000000, 0.000000000000000000, 405.0000000000000000 ) ) ;
#49 = DIRECTION ( 'NONE',  ( 1.000000000000000000, 0.000000000000000000, 0.000000000000000000 ) ) ;
#50 = AXIS2_PLACEMENT_3D ( 'NONE', #11, #112, #296 ) ;
#51 = ADVANCED_FACE ( 'NONE', ( #209 ), #148, .F. ) ;
#52 = DIRECTION ( 'NONE',  ( 1.000000000000000000, 0.000000000000000000, 0.000000000000000000 ) ) ;
#53 = APPLICATION_CONTEXT ( 'configuration controlled 3d designs of mechanical parts and assemblies' ) ;
#54 = VERTEX_POINT ( 'NONE', #304 ) ;
#55 = ORIENTED_EDGE ( 'NONE', *, *, #126, .F. ) ;
#56 = ORIENTED_EDGE ( 'NONE', *, *, #293, .T. ) ;
#57 = AXIS2_PLACEMENT_3D ( 'NONE', #190, #40, #280 ) ;
#58 = VERTEX_POINT ( 'NONE', #166 ) ;
#59 = CARTESIAN_POINT ( 'NONE',  ( 0.000000000000000000, 0.000000000000000000, 5.199999999999982414 ) ) ;
#60 = DATE_TIME_ROLE ( 'classification_date' ) ;
#61 = DIRECTION ( 'NONE',  ( -0.000000000000000000, -0.000000000000000000, -1.000000000000000000 ) ) ;
#62 = CYLINDRICAL_SURFACE ( 'NONE', #12, 3.500000000000000000 ) ;
#63 = PERSON_AND_ORGANIZATION_ROLE ( 'classification_officer' ) ;
#64 = DIRECTION ( 'NONE',  ( -1.000000000000000000, 0.000000000000000000, 0.000000000000000000 ) ) ;
#65 = PRODUCT_RELATED_PRODUCT_CATEGORY ( 'detail', '', ( #262 ) ) ;
#66 = LINE ( 'NONE', #167, #93 ) ;
#67 = PERSON_AND_ORGANIZATION ( #100, #147 ) ;
#68 = DIRECTION ( 'NONE',  ( 1.000000000000000000, 0.000000000000000000, 0.000000000000000000 ) ) ;
#69 = LOCAL_TIME ( 11, 52, 6.000000000000000000, #274 ) ;
#70 = PLANE ( 'NONE',  #22 ) ;
#71 = DIRECTION ( 'NONE',  ( 0.000000000000000000, 0.000000000000000000, 1.000000000000000000 ) ) ;
#72 = EDGE_CURVE ( 'NONE', #105, #241, #113, .T. ) ;
#73 = DIRECTION ( 'NONE',  ( 0.000000000000000000, 0.000000000000000000, 1.000000000000000000 ) ) ;
#74 = AXIS2_PLACEMENT_3D ( 'NONE', #226, #134, #111 ) ;
#75 = AXIS2_PLACEMENT_3D ( 'NONE', #197, #211, #92 ) ;
#76 = APPLICATION_CONTEXT ( 'configuration controlled 3d designs of mechanical parts and assemblies' ) ;
#77 = ORIENTED_EDGE ( 'NONE', *, *, #191, .T. ) ;
#78 = VERTEX_POINT ( 'NONE', #183 ) ;
#79 = ORIENTED_EDGE ( 'NONE', *, *, #80, .F. ) ;
#80 = EDGE_CURVE ( 'NONE', #78, #268, #227, .T. ) ;
#81 = DIRECTION ( 'NONE',  ( 0.000000000000000000, 0.000000000000000000, -1.000000000000000000 ) ) ;
#82 = ORIENTED_EDGE ( 'NONE', *, *, #96, .F. ) ;
#83 = ADVANCED_FACE ( 'NONE', ( #130 ), #275, .F. ) ;
#84 = PERSON_AND_ORGANIZATION ( #100, #147 ) ;
#85 = DIRECTION ( 'NONE',  ( 0.000000000000000000, 0.000000000000000000, 1.000000000000000000 ) ) ;
#86 = PERSON_AND_ORGANIZATION ( #100, #147 ) ;
#87 = CARTESIAN_POINT ( 'NONE',  ( -3.700000000000000178, 4.531193156845206201E-16, 5.199999999999982414 ) ) ;
#88 = LOCAL_TIME ( 11, 52, 6.000000000000000000, #231 ) ;
#89 = CC_DESIGN_PERSON_AND_ORGANIZATION_ASSIGNMENT ( #67, #18, ( #262 ) ) ;
#90 = CALENDAR_DATE ( 2022, 20, 6 ) ;
#91 = CARTESIAN_POINT ( 'NONE',  ( 0.000000000000000000, 0.000000000000000000, 5.199999999999982414 ) ) ;
#92 = DIRECTION ( 'NONE',  ( 1.000000000000000000, 0.000000000000000000, 0.000000000000000000 ) ) ;
#93 = VECTOR ( 'NONE', #43, 1000.000000000000000 ) ;
#94 = LOCAL_TIME ( 11, 52, 6.000000000000000000, #248 ) ;
#95 = CARTESIAN_POINT ( 'NONE',  ( 3.700000000000000178, 0.000000000000000000, 4.999999999999991118 ) ) ;
#96 = EDGE_CURVE ( 'NONE', #54, #105, #8, .T. ) ;
#97 = DIRECTION ( 'NONE',  ( 0.000000000000000000, 0.000000000000000000, 1.000000000000000000 ) ) ;
#98 = VECTOR ( 'NONE', #247, 1000.000000000000000 ) ;
#99 = EDGE_CURVE ( 'NONE', #153, #199, #208, .T. ) ;
#100 = PERSON ( 'NEURÈENÝ', 'NEURÈENÝ', 'NEURÈENÝ', ('NEURÈENÝ'), ('NEURÈENÝ'), ('NEURÈENÝ') ) ;
#101 = EDGE_LOOP ( 'NONE', ( #82, #291, #217, #154 ) ) ;
#102 = VECTOR ( 'NONE', #157, 1000.000000000000000 ) ;
#103 = EDGE_LOOP ( 'NONE', ( #10, #288, #220, #79 ) ) ;
#104 = ORIENTED_EDGE ( 'NONE', *, *, #1, .F. ) ;
#105 = VERTEX_POINT ( 'NONE', #139 ) ;
#106 = CLOSED_SHELL ( 'NONE', ( #83, #152, #246, #251, #271, #215, #165, #230, #51 ) ) ;
#107 = CC_DESIGN_DATE_AND_TIME_ASSIGNMENT ( #272, #60, ( #119 ) ) ;
#108 = DIRECTION ( 'NONE',  ( 0.000000000000000000, 0.000000000000000000, 1.000000000000000000 ) ) ;
#109 = APPROVAL_DATE_TIME ( #228, #224 ) ;
#110 = FACE_OUTER_BOUND ( 'NONE', #200, .T. ) ;
#111 = DIRECTION ( 'NONE',  ( 1.000000000000000000, 0.000000000000000000, 0.000000000000000000 ) ) ;
#112 = DIRECTION ( 'NONE',  ( -0.000000000000000000, -0.000000000000000000, -1.000000000000000000 ) ) ;
#113 = LINE ( 'NONE', #249, #98 ) ;
#114 = FACE_OUTER_BOUND ( 'NONE', #9, .T. ) ;
#115 = PERSON_AND_ORGANIZATION ( #100, #147 ) ;
#116 = CARTESIAN_POINT ( 'NONE',  ( 0.000000000000000000, 0.000000000000000000, 5.199999999999982414 ) ) ;
#117 = CIRCLE ( 'NONE', #255, 0.1999999999999996503 ) ;
#118 =( NAMED_UNIT ( * ) SI_UNIT ( $, .STERADIAN. ) SOLID_ANGLE_UNIT ( ) );
#119 = SECURITY_CLASSIFICATION ( '', '', #303 ) ;
#120 = CARTESIAN_POINT ( 'NONE',  ( 0.000000000000000000, 0.000000000000000000, 405.0000000000000000 ) ) ;
#121 = APPROVAL ( #206, 'NEURÈENÝ' ) ;
#122 = AXIS2_PLACEMENT_3D ( 'NONE', #87, #37, #135 ) ;
#123 = AXIS2_PLACEMENT_3D ( 'NONE', #213, #47, #141 ) ;
#124 = APPROVAL_PERSON_ORGANIZATION ( #160, #240, #140 ) ;
#125 = EDGE_LOOP ( 'NONE', ( #77, #35 ) ) ;
#126 = EDGE_CURVE ( 'NONE', #176, #266, #202, .T. ) ;
#127 = ORIENTED_EDGE ( 'NONE', *, *, #72, .T. ) ;
#128 = ORIENTED_EDGE ( 'NONE', *, *, #138, .F. ) ;
#129 = ORIENTED_EDGE ( 'NONE', *, *, #44, .F. ) ;
#130 = FACE_OUTER_BOUND ( 'NONE', #216, .T. ) ;
#131 = APPROVAL_DATE_TIME ( #186, #121 ) ;
#132 = CARTESIAN_POINT ( 'NONE',  ( 0.000000000000000000, 0.000000000000000000, 405.0000000000000000 ) ) ;
#133 = AXIS2_PLACEMENT_3D ( 'NONE', #48, #257, #196 ) ;
#134 = DIRECTION ( 'NONE',  ( 0.000000000000000000, 0.000000000000000000, 1.000000000000000000 ) ) ;
#135 = DIRECTION ( 'NONE',  ( -1.000000000000000000, 1.224646799147350742E-16, 0.000000000000000000 ) ) ;
#136 = DATE_AND_TIME ( #182, #94 ) ;
#137 = DIRECTION ( 'NONE',  ( 1.000000000000000000, 0.000000000000000000, 0.000000000000000000 ) ) ;
#138 = EDGE_CURVE ( 'NONE', #268, #266, #198, .T. ) ;
#139 = CARTESIAN_POINT ( 'NONE',  ( -3.500000000000000000, 0.000000000000000000, 405.0000000000000000 ) ) ;
#140 = APPROVAL_ROLE ( '' ) ;
#141 = DIRECTION ( 'NONE',  ( -1.000000000000000000, 0.000000000000000000, 0.000000000000000000 ) ) ;
#142 = CC_DESIGN_DATE_AND_TIME_ASSIGNMENT ( #38, #256, ( #39 ) ) ;
#143 = DIRECTION ( 'NONE',  ( 1.000000000000000000, 0.000000000000000000, 0.000000000000000000 ) ) ;
#144 = AXIS2_PLACEMENT_3D ( 'NONE', #91, #108, #229 ) ;
#145 = DIRECTION ( 'NONE',  ( 0.000000000000000000, 0.000000000000000000, 1.000000000000000000 ) ) ;
#146 = CIRCLE ( 'NONE', #2, 6.000000000000000888 ) ;
#147 = ORGANIZATION ( 'NEURÈENÝ', 'NEURÈENÝ', '' ) ;
#148 = TOROIDAL_SURFACE ( 'NONE', #193, 3.700000000000000178, 0.2000000000000000111 ) ;
#149 = ORIENTED_EDGE ( 'NONE', *, *, #191, .F. ) ;
#150 = APPROVAL_PERSON_ORGANIZATION ( #158, #224, #222 ) ;
#151 = EDGE_LOOP ( 'NONE', ( #128, #155 ) ) ;
#152 = ADVANCED_FACE ( 'NONE', ( #15 ), #298, .T. ) ;
#153 = VERTEX_POINT ( 'NONE', #225 ) ;
#154 = ORIENTED_EDGE ( 'NONE', *, *, #72, .F. ) ;
#155 = ORIENTED_EDGE ( 'NONE', *, *, #156, .F. ) ;
#156 = EDGE_CURVE ( 'NONE', #266, #268, #5, .T. ) ;
#157 = DIRECTION ( 'NONE',  ( -0.000000000000000000, -0.000000000000000000, -1.000000000000000000 ) ) ;
#158 = PERSON_AND_ORGANIZATION ( #100, #147 ) ;
#159 = DIRECTION ( 'NONE',  ( 0.000000000000000000, 0.000000000000000000, 1.000000000000000000 ) ) ;
#160 = PERSON_AND_ORGANIZATION ( #100, #147 ) ;
#161 = AXIS2_PLACEMENT_3D ( 'NONE', #235, #21, #259 ) ;
#162 = ORIENTED_EDGE ( 'NONE', *, *, #44, .T. ) ;
#163 = PRODUCT_DEFINITION_FORMATION_WITH_SPECIFIED_SOURCE ( 'LIBOVOLNÝ', '', #262, .NOT_KNOWN. ) ;
#164 = PERSON_AND_ORGANIZATION_ROLE ( 'creator' ) ;
#165 = ADVANCED_FACE ( 'NONE', ( #110 ), #62, .T. ) ;
#166 = CARTESIAN_POINT ( 'NONE',  ( 3.500000000000000000, 4.286263797015736595E-16, 5.199999999999982414 ) ) ;
#167 = CARTESIAN_POINT ( 'NONE',  ( 3.500000000000000000, 4.286263797015736595E-16, 405.0000000000000000 ) ) ;
#168 = PERSON_AND_ORGANIZATION_ROLE ( 'creator' ) ;
#169 = DIRECTION ( 'NONE',  ( 0.000000000000000000, 0.000000000000000000, 1.000000000000000000 ) ) ;
#170 = DIRECTION ( 'NONE',  ( 1.000000000000000000, 0.000000000000000000, -0.000000000000000000 ) ) ;
#171 = CARTESIAN_POINT ( 'NONE',  ( 0.000000000000000000, 0.000000000000000000, 0.000000000000000000 ) ) ;
#172 = AXIS2_PLACEMENT_3D ( 'NONE', #132, #204, #221 ) ;
#173 = CARTESIAN_POINT ( 'NONE',  ( -3.500000000000000000, 0.000000000000000000, 5.199999999999982414 ) ) ;
#174 = APPROVAL_PERSON_ORGANIZATION ( #84, #121, #20 ) ;
#175 = CIRCLE ( 'NONE', #30, 3.500000000000000000 ) ;
#176 = VERTEX_POINT ( 'NONE', #252 ) ;
#177 = CIRCLE ( 'NONE', #305, 6.000000000000000888 ) ;
#178 = ORIENTED_EDGE ( 'NONE', *, *, #185, .F. ) ;
#179 = EDGE_CURVE ( 'NONE', #58, #241, #223, .T. ) ;
#180 = CARTESIAN_POINT ( 'NONE',  ( 3.700000000000000178, 0.000000000000000000, 5.199999999999982414 ) ) ;
#181 = APPLICATION_PROTOCOL_DEFINITION ( 'international standard', 'config_control_design', 1994, #53 ) ;
#182 = CALENDAR_DATE ( 2022, 20, 6 ) ;
#183 = CARTESIAN_POINT ( 'NONE',  ( -6.000000000000000888, 0.000000000000000000, 5.000000000000000000 ) ) ;
#184 = AXIS2_PLACEMENT_3D ( 'NONE', #273, #203, #245 ) ;
#185 = EDGE_CURVE ( 'NONE', #54, #58, #66, .T. ) ;
#186 = DATE_AND_TIME ( #90, #88 ) ;
#187 = PRODUCT_DEFINITION_SHAPE ( 'NONE', 'NONE',  #39 ) ;
#188 = CARTESIAN_POINT ( 'NONE',  ( 0.000000000000000000, 0.000000000000000000, 405.0000000000000000 ) ) ;
#189 = APPROVAL_DATE_TIME ( #136, #240 ) ;
#190 = CARTESIAN_POINT ( 'NONE',  ( 0.000000000000000000, 0.000000000000000000, 0.000000000000000000 ) ) ;
#191 = EDGE_CURVE ( 'NONE', #105, #54, #264, .T. ) ;
#192 = CARTESIAN_POINT ( 'NONE',  ( -6.000000000000000888, 0.000000000000000000, 0.000000000000000000 ) ) ;
#193 = AXIS2_PLACEMENT_3D ( 'NONE', #59, #159, #137 ) ;
#194 = PLANE ( 'NONE',  #133 ) ;
#195 = LOCAL_TIME ( 11, 52, 6.000000000000000000, #250 ) ;
#196 = DIRECTION ( 'NONE',  ( 1.000000000000000000, 0.000000000000000000, -0.000000000000000000 ) ) ;
#197 = CARTESIAN_POINT ( 'NONE',  ( 0.000000000000000000, 0.000000000000000000, 5.000000000000000000 ) ) ;
#198 = CIRCLE ( 'NONE', #57, 6.000000000000000888 ) ;
#199 = VERTEX_POINT ( 'NONE', #95 ) ;
#200 = EDGE_LOOP ( 'NONE', ( #178, #149, #127, #244 ) ) ;
#201 = ORIENTED_EDGE ( 'NONE', *, *, #179, .F. ) ;
#202 = LINE ( 'NONE', #294, #243 ) ;
#203 = DIRECTION ( 'NONE',  ( -0.000000000000000000, -0.000000000000000000, -1.000000000000000000 ) ) ;
#204 = DIRECTION ( 'NONE',  ( 0.000000000000000000, 0.000000000000000000, 1.000000000000000000 ) ) ;
#205 = CC_DESIGN_PERSON_AND_ORGANIZATION_ASSIGNMENT ( #295, #63, ( #119 ) ) ;
#206 = APPROVAL_STATUS ( 'not_yet_approved' ) ;
#207 = CARTESIAN_POINT ( 'NONE',  ( 0.000000000000000000, 0.000000000000000000, 0.000000000000000000 ) ) ;
#208 = CIRCLE ( 'NONE', #184, 3.700000000000000178 ) ;
#209 = FACE_OUTER_BOUND ( 'NONE', #33, .T. ) ;
#210 =( GEOMETRIC_REPRESENTATION_CONTEXT ( 3 ) GLOBAL_UNCERTAINTY_ASSIGNED_CONTEXT ( ( #265 ) ) GLOBAL_UNIT_ASSIGNED_CONTEXT ( ( #212, #281, #118 ) ) REPRESENTATION_CONTEXT ( 'NONE', 'WORKASPACE' ) );
#211 = DIRECTION ( 'NONE',  ( -0.000000000000000000, -0.000000000000000000, -1.000000000000000000 ) ) ;
#212 =( LENGTH_UNIT ( ) NAMED_UNIT ( * ) SI_UNIT ( .MILLI., .METRE. ) );
#213 = CARTESIAN_POINT ( 'NONE',  ( 0.000000000000000000, 0.000000000000000000, 5.000000000000000000 ) ) ;
#214 = PLANE ( 'NONE',  #219 ) ;
#215 = ADVANCED_FACE ( 'NONE', ( #260 ), #214, .F. ) ;
#216 = EDGE_LOOP ( 'NONE', ( #269, #162, #6, #104 ) ) ;
#217 = ORIENTED_EDGE ( 'NONE', *, *, #179, .T. ) ;
#218 = DESIGN_CONTEXT ( 'detailed design', #53, 'design' ) ;
#219 = AXIS2_PLACEMENT_3D ( 'NONE', #171, #169, #258 ) ;
#220 = ORIENTED_EDGE ( 'NONE', *, *, #156, .T. ) ;
#221 = DIRECTION ( 'NONE',  ( 1.000000000000000000, 0.000000000000000000, 0.000000000000000000 ) ) ;
#222 = APPROVAL_ROLE ( '' ) ;
#223 = CIRCLE ( 'NONE', #276, 3.500000000000000000 ) ;
#224 = APPROVAL ( #36, 'NEURÈENÝ' ) ;
#225 = CARTESIAN_POINT ( 'NONE',  ( -3.700000000000000178, 4.531193156845206201E-16, 4.999999999999991118 ) ) ;
#226 = CARTESIAN_POINT ( 'NONE',  ( 0.000000000000000000, 0.000000000000000000, 0.000000000000000000 ) ) ;
#227 = LINE ( 'NONE', #270, #102 ) ;
#228 = DATE_AND_TIME ( #41, #195 ) ;
#229 = DIRECTION ( 'NONE',  ( 1.000000000000000000, 0.000000000000000000, 0.000000000000000000 ) ) ;
#230 = ADVANCED_FACE ( 'NONE', ( #307 ), #194, .T. ) ;
#231 = COORDINATED_UNIVERSAL_TIME_OFFSET ( 1, 0, .AHEAD. ) ;
#232 = DIRECTION ( 'NONE',  ( 1.000000000000000000, 0.000000000000000000, 0.000000000000000000 ) ) ;
#233 = CC_DESIGN_APPROVAL ( #121, ( #163 ) ) ;
#234 = PERSON_AND_ORGANIZATION ( #100, #147 ) ;
#235 = CARTESIAN_POINT ( 'NONE',  ( 0.000000000000000000, 0.000000000000000000, 5.000000000000000000 ) ) ;
#236 = CYLINDRICAL_SURFACE ( 'NONE', #123, 6.000000000000000888 ) ;
#237 = CC_DESIGN_PERSON_AND_ORGANIZATION_ASSIGNMENT ( #115, #164, ( #163 ) ) ;
#238 = DIRECTION ( 'NONE',  ( 0.000000000000000000, 0.000000000000000000, 1.000000000000000000 ) ) ;
#239 = CARTESIAN_POINT ( 'NONE',  ( 0.000000000000000000, 0.000000000000000000, 5.000000000000000000 ) ) ;
#240 = APPROVAL ( #45, 'NEURÈENÝ' ) ;
#241 = VERTEX_POINT ( 'NONE', #173 ) ;
#242 = ORIENTED_EDGE ( 'NONE', *, *, #99, .T. ) ;
#243 = VECTOR ( 'NONE', #61, 1000.000000000000000 ) ;
#244 = ORIENTED_EDGE ( 'NONE', *, *, #290, .T. ) ;
#245 = DIRECTION ( 'NONE',  ( 1.000000000000000000, 0.000000000000000000, 0.000000000000000000 ) ) ;
#246 = ADVANCED_FACE ( 'NONE', ( #4 ), #236, .T. ) ;
#247 = DIRECTION ( 'NONE',  ( -0.000000000000000000, -0.000000000000000000, -1.000000000000000000 ) ) ;
#248 = COORDINATED_UNIVERSAL_TIME_OFFSET ( 1, 0, .AHEAD. ) ;
#249 = CARTESIAN_POINT ( 'NONE',  ( -3.500000000000000000, 0.000000000000000000, 405.0000000000000000 ) ) ;
#250 = COORDINATED_UNIVERSAL_TIME_OFFSET ( 1, 0, .AHEAD. ) ;
#251 = ADVANCED_FACE ( 'NONE', ( #19 ), #3, .T. ) ;
#252 = CARTESIAN_POINT ( 'NONE',  ( 6.000000000000000888, 7.347880794884120722E-16, 5.000000000000000000 ) ) ;
#253 = MECHANICAL_CONTEXT ( 'NONE', #76, 'mechanical' ) ;
#254 = DIRECTION ( 'NONE',  ( 1.000000000000000000, 0.000000000000000000, 0.000000000000000000 ) ) ;
#255 = AXIS2_PLACEMENT_3D ( 'NONE', #180, #14, #81 ) ;
#256 = DATE_TIME_ROLE ( 'creation_date' ) ;
#257 = DIRECTION ( 'NONE',  ( 0.000000000000000000, 0.000000000000000000, 1.000000000000000000 ) ) ;
#258 = DIRECTION ( 'NONE',  ( 1.000000000000000000, 0.000000000000000000, -0.000000000000000000 ) ) ;
#259 = DIRECTION ( 'NONE',  ( -1.000000000000000000, 0.000000000000000000, 0.000000000000000000 ) ) ;
#260 = FACE_OUTER_BOUND ( 'NONE', #151, .T. ) ;
#261 = CC_DESIGN_APPROVAL ( #224, ( #119 ) ) ;
#262 = PRODUCT ( 'e1c6', 'e1c6', '', ( #253 ) ) ;
#263 = ORIENTED_EDGE ( 'NONE', *, *, #1, .T. ) ;
#264 = CIRCLE ( 'NONE', #302, 3.500000000000000000 ) ;
#265 = UNCERTAINTY_MEASURE_WITH_UNIT (LENGTH_MEASURE( 1.000000000000000082E-05 ), #212, 'distance_accuracy_value', 'NONE');
#266 = VERTEX_POINT ( 'NONE', #286 ) ;
#267 = EDGE_CURVE ( 'NONE', #176, #78, #146, .T. ) ;
#268 = VERTEX_POINT ( 'NONE', #192 ) ;
#269 = ORIENTED_EDGE ( 'NONE', *, *, #290, .F. ) ;
#270 = CARTESIAN_POINT ( 'NONE',  ( -6.000000000000000888, 0.000000000000000000, 5.000000000000000000 ) ) ;
#271 = ADVANCED_FACE ( 'NONE', ( #283, #114 ), #70, .T. ) ;
#272 = DATE_AND_TIME ( #279, #69 ) ;
#273 = CARTESIAN_POINT ( 'NONE',  ( 0.000000000000000000, 0.000000000000000000, 5.000000000000000000 ) ) ;
#274 = COORDINATED_UNIVERSAL_TIME_OFFSET ( 1, 0, .AHEAD. ) ;
#275 = TOROIDAL_SURFACE ( 'NONE', #144, 3.700000000000000178, 0.2000000000000000111 ) ;
#276 = AXIS2_PLACEMENT_3D ( 'NONE', #42, #17, #232 ) ;
#277 = PERSON_AND_ORGANIZATION_ROLE ( 'design_supplier' ) ;
#278 = DIRECTION ( 'NONE',  ( -0.000000000000000000, -0.000000000000000000, -1.000000000000000000 ) ) ;
#279 = CALENDAR_DATE ( 2022, 20, 6 ) ;
#280 = DIRECTION ( 'NONE',  ( 1.000000000000000000, 0.000000000000000000, 0.000000000000000000 ) ) ;
#281 =( NAMED_UNIT ( * ) PLANE_ANGLE_UNIT ( ) SI_UNIT ( $, .RADIAN. ) );
#282 = AXIS2_PLACEMENT_3D ( 'NONE', #207, #85, #254 ) ;
#283 = FACE_BOUND ( 'NONE', #28, .T. ) ;
#284 = CC_DESIGN_APPROVAL ( #240, ( #39 ) ) ;
#285 = EDGE_CURVE ( 'NONE', #78, #176, #177, .T. ) ;
#286 = CARTESIAN_POINT ( 'NONE',  ( 6.000000000000000888, 7.347880794884120722E-16, 0.000000000000000000 ) ) ;
#287 = CARTESIAN_POINT ( 'NONE',  ( 0.000000000000000000, 0.000000000000000000, 5.000000000000000000 ) ) ;
#288 = ORIENTED_EDGE ( 'NONE', *, *, #126, .T. ) ;
#289 = ORIENTED_EDGE ( 'NONE', *, *, #285, .T. ) ;
#290 = EDGE_CURVE ( 'NONE', #241, #58, #175, .T. ) ;
#291 = ORIENTED_EDGE ( 'NONE', *, *, #185, .T. ) ;
#292 = EDGE_LOOP ( 'NONE', ( #55, #301, #27, #25 ) ) ;
#293 = EDGE_CURVE ( 'NONE', #199, #153, #32, .T. ) ;
#294 = CARTESIAN_POINT ( 'NONE',  ( 6.000000000000000888, 7.347880794884120722E-16, 5.000000000000000000 ) ) ;
#295 = PERSON_AND_ORGANIZATION ( #100, #147 ) ;
#296 = DIRECTION ( 'NONE',  ( -1.000000000000000000, 0.000000000000000000, 0.000000000000000000 ) ) ;
#297 = CALENDAR_DATE ( 2022, 20, 6 ) ;
#298 = CYLINDRICAL_SURFACE ( 'NONE', #50, 3.500000000000000000 ) ;
#299 = APPLICATION_PROTOCOL_DEFINITION ( 'international standard', 'config_control_design', 1994, #76 ) ;
#300 = CIRCLE ( 'NONE', #122, 0.2000000000000000944 ) ;
#301 = ORIENTED_EDGE ( 'NONE', *, *, #285, .F. ) ;
#302 = AXIS2_PLACEMENT_3D ( 'NONE', #120, #71, #68 ) ;
#303 = SECURITY_CLASSIFICATION_LEVEL ( 'unclassified' ) ;
#304 = CARTESIAN_POINT ( 'NONE',  ( 3.500000000000000000, 4.286263797015736595E-16, 405.0000000000000000 ) ) ;
#305 = AXIS2_PLACEMENT_3D ( 'NONE', #23, #73, #52 ) ;
#306 = SHAPE_DEFINITION_REPRESENTATION ( #187, #34 ) ;
#307 = FACE_OUTER_BOUND ( 'NONE', #125, .T. ) ;
ENDSEC;
END-ISO-10303-21;
