ISO-10303-21;
HEADER;
FILE_DESCRIPTION (( 'STEP AP203' ),
    '1' );
FILE_NAME ('bf55.STEP',
    '2022-06-20T09:27:11',
    ( '' ),
    ( '' ),
    'SwSTEP 2.0',
    'SolidWorks 2019',
    '' );
FILE_SCHEMA (( 'CONFIG_CONTROL_DESIGN' ));
ENDSEC;

DATA;
#1 = VERTEX_POINT ( 'NONE', #258 ) ;
#2 = CIRCLE ( 'NONE', #177, 11.00000000000000000 ) ;
#3 = CC_DESIGN_PERSON_AND_ORGANIZATION_ASSIGNMENT ( #101, #25, ( #172 ) ) ;
#4 = EDGE_CURVE ( 'NONE', #5, #194, #41, .T. ) ;
#5 = VERTEX_POINT ( 'NONE', #116 ) ;
#6 = AXIS2_PLACEMENT_3D ( 'NONE', #109, #65, #252 ) ;
#7 = ORIENTED_EDGE ( 'NONE', *, *, #223, .T. ) ;
#8 = DIRECTION ( 'NONE',  ( 0.000000000000000000, 0.000000000000000000, 1.000000000000000000 ) ) ;
#9 = DIRECTION ( 'NONE',  ( -0.000000000000000000, -0.000000000000000000, -1.000000000000000000 ) ) ;
#10 = EDGE_LOOP ( 'NONE', ( #158, #283, #29, #267 ) ) ;
#11 =( GEOMETRIC_REPRESENTATION_CONTEXT ( 3 ) GLOBAL_UNCERTAINTY_ASSIGNED_CONTEXT ( ( #43 ) ) GLOBAL_UNIT_ASSIGNED_CONTEXT ( ( #226, #151, #275 ) ) REPRESENTATION_CONTEXT ( 'NONE', 'WORKASPACE' ) );
#12 = DIRECTION ( 'NONE',  ( 0.000000000000000000, 0.000000000000000000, 1.000000000000000000 ) ) ;
#13 = APPROVAL ( #145, 'NEURÈENÝ' ) ;
#14 = DIRECTION ( 'NONE',  ( -1.000000000000000000, 0.000000000000000000, 0.000000000000000000 ) ) ;
#15 = TOROIDAL_SURFACE ( 'NONE', #36, 7.200000000000001066, 0.2000000000000000111 ) ;
#16 = ORIENTED_EDGE ( 'NONE', *, *, #294, .T. ) ;
#17 = APPROVAL_PERSON_ORGANIZATION ( #45, #219, #188 ) ;
#18 = APPLICATION_PROTOCOL_DEFINITION ( 'international standard', 'config_control_design', 1994, #240 ) ;
#19 = DIRECTION ( 'NONE',  ( 1.000000000000000000, 0.000000000000000000, 0.000000000000000000 ) ) ;
#20 = PERSON_AND_ORGANIZATION ( #27, #144 ) ;
#21 = EDGE_CURVE ( 'NONE', #194, #231, #249, .T. ) ;
#22 = PLANE ( 'NONE',  #168 ) ;
#23 = CIRCLE ( 'NONE', #274, 7.000000000000000888 ) ;
#24 = DIRECTION ( 'NONE',  ( 0.000000000000000000, 0.000000000000000000, 1.000000000000000000 ) ) ;
#25 = PERSON_AND_ORGANIZATION_ROLE ( 'creator' ) ;
#26 = AXIS2_PLACEMENT_3D ( 'NONE', #178, #9, #63 ) ;
#27 = PERSON ( 'NEURÈENÝ', 'NEURÈENÝ', 'NEURÈENÝ', ('NEURÈENÝ'), ('NEURÈENÝ'), ('NEURÈENÝ') ) ;
#28 = EDGE_CURVE ( 'NONE', #194, #124, #171, .T. ) ;
#29 = ORIENTED_EDGE ( 'NONE', *, *, #74, .T. ) ;
#30 = CIRCLE ( 'NONE', #287, 11.00000000000000000 ) ;
#31 = CC_DESIGN_DATE_AND_TIME_ASSIGNMENT ( #78, #118, ( #146 ) ) ;
#32 = PLANE ( 'NONE',  #64 ) ;
#33 = ORIENTED_EDGE ( 'NONE', *, *, #294, .F. ) ;
#34 = DIRECTION ( 'NONE',  ( -1.000000000000000000, 1.224646799147358384E-16, 0.000000000000000000 ) ) ;
#35 = DIRECTION ( 'NONE',  ( 1.000000000000000000, 0.000000000000000000, 0.000000000000000000 ) ) ;
#36 = AXIS2_PLACEMENT_3D ( 'NONE', #253, #98, #186 ) ;
#37 = LOCAL_TIME ( 11, 27, 11.00000000000000000, #164 ) ;
#38 = VERTEX_POINT ( 'NONE', #297 ) ;
#39 = CARTESIAN_POINT ( 'NONE',  ( -7.000000000000000888, 0.000000000000000000, 167.0000000000000000 ) ) ;
#40 = DIRECTION ( 'NONE',  ( -0.000000000000000000, -0.000000000000000000, -1.000000000000000000 ) ) ;
#41 = LINE ( 'NONE', #157, #263 ) ;
#42 = CALENDAR_DATE ( 2022, 20, 6 ) ;
#43 = UNCERTAINTY_MEASURE_WITH_UNIT (LENGTH_MEASURE( 1.000000000000000082E-05 ), #226, 'distance_accuracy_value', 'NONE');
#44 = EDGE_LOOP ( 'NONE', ( #176, #282, #227, #217 ) ) ;
#45 = PERSON_AND_ORGANIZATION ( #27, #144 ) ;
#46 = DIRECTION ( 'NONE',  ( -0.000000000000000000, -0.000000000000000000, -1.000000000000000000 ) ) ;
#47 = EDGE_CURVE ( 'NONE', #124, #194, #23, .T. ) ;
#48 = DIRECTION ( 'NONE',  ( 1.000000000000000000, 0.000000000000000000, 0.000000000000000000 ) ) ;
#49 = CIRCLE ( 'NONE', #183, 11.00000000000000000 ) ;
#50 = PERSON_AND_ORGANIZATION_ROLE ( 'design_owner' ) ;
#51 = CC_DESIGN_APPROVAL ( #13, ( #146 ) ) ;
#52 = CARTESIAN_POINT ( 'NONE',  ( 0.000000000000000000, 0.000000000000000000, 7.000000000000000000 ) ) ;
#53 = EDGE_CURVE ( 'NONE', #231, #289, #197, .T. ) ;
#54 = ADVANCED_FACE ( 'NONE', ( #156, #184 ), #96, .T. ) ;
#55 = DIRECTION ( 'NONE',  ( -0.000000000000000000, -0.000000000000000000, -1.000000000000000000 ) ) ;
#56 = ADVANCED_FACE ( 'NONE', ( #229 ), #15, .F. ) ;
#57 = FACE_OUTER_BOUND ( 'NONE', #117, .T. ) ;
#58 = ORIENTED_EDGE ( 'NONE', *, *, #74, .F. ) ;
#59 = FACE_OUTER_BOUND ( 'NONE', #131, .T. ) ;
#60 = ORIENTED_EDGE ( 'NONE', *, *, #223, .F. ) ;
#61 = DIRECTION ( 'NONE',  ( 1.000000000000000000, 0.000000000000000000, 0.000000000000000000 ) ) ;
#62 = EDGE_LOOP ( 'NONE', ( #129, #7 ) ) ;
#63 = DIRECTION ( 'NONE',  ( -1.000000000000000000, 0.000000000000000000, 0.000000000000000000 ) ) ;
#64 = AXIS2_PLACEMENT_3D ( 'NONE', #243, #24, #220 ) ;
#65 = DIRECTION ( 'NONE',  ( 0.000000000000000000, 0.000000000000000000, 1.000000000000000000 ) ) ;
#66 = LINE ( 'NONE', #39, #239 ) ;
#67 = CARTESIAN_POINT ( 'NONE',  ( 0.000000000000000000, 0.000000000000000000, 167.0000000000000000 ) ) ;
#68 = DIRECTION ( 'NONE',  ( 0.000000000000000000, 0.000000000000000000, 1.000000000000000000 ) ) ;
#69 = DATE_AND_TIME ( #302, #261 ) ;
#70 = AXIS2_PLACEMENT_3D ( 'NONE', #179, #295, #87 ) ;
#71 = APPROVAL_DATE_TIME ( #234, #13 ) ;
#72 = DESIGN_CONTEXT ( 'detailed design', #240, 'design' ) ;
#73 = VERTEX_POINT ( 'NONE', #192 ) ;
#74 = EDGE_CURVE ( 'NONE', #247, #124, #66, .T. ) ;
#75 = PERSON_AND_ORGANIZATION_ROLE ( 'design_supplier' ) ;
#76 = CYLINDRICAL_SURFACE ( 'NONE', #210, 11.00000000000000000 ) ;
#77 = SHAPE_DEFINITION_REPRESENTATION ( #149, #173 ) ;
#78 = DATE_AND_TIME ( #135, #155 ) ;
#79 = CARTESIAN_POINT ( 'NONE',  ( 0.000000000000000000, 0.000000000000000000, 7.000000000000000000 ) ) ;
#80 = PRODUCT ( 'bf55', 'bf55', '', ( #142 ) ) ;
#81 = AXIS2_PLACEMENT_3D ( 'NONE', #288, #170, #48 ) ;
#82 = ORIENTED_EDGE ( 'NONE', *, *, #233, .F. ) ;
#83 = FACE_OUTER_BOUND ( 'NONE', #174, .T. ) ;
#84 = CC_DESIGN_APPROVAL ( #211, ( #90 ) ) ;
#85 = ADVANCED_FACE ( 'NONE', ( #165 ), #22, .T. ) ;
#86 = CARTESIAN_POINT ( 'NONE',  ( -7.000000000000000888, 0.000000000000000000, 167.0000000000000000 ) ) ;
#87 = DIRECTION ( 'NONE',  ( 1.000000000000000000, 0.000000000000000000, 0.000000000000000000 ) ) ;
#88 = ORIENTED_EDGE ( 'NONE', *, *, #148, .F. ) ;
#89 = AXIS2_PLACEMENT_3D ( 'NONE', #278, #105, #61 ) ;
#90 = SECURITY_CLASSIFICATION ( '', '', #169 ) ;
#91 = DIRECTION ( 'NONE',  ( 1.000000000000000000, 0.000000000000000000, 0.000000000000000000 ) ) ;
#92 = ORIENTED_EDGE ( 'NONE', *, *, #235, .F. ) ;
#93 = CARTESIAN_POINT ( 'NONE',  ( 0.000000000000000000, 0.000000000000000000, 167.0000000000000000 ) ) ;
#94 = CARTESIAN_POINT ( 'NONE',  ( 0.000000000000000000, 0.000000000000000000, 167.0000000000000000 ) ) ;
#95 = DATE_AND_TIME ( #161, #224 ) ;
#96 = PLANE ( 'NONE',  #304 ) ;
#97 = DATE_AND_TIME ( #42, #37 ) ;
#98 = DIRECTION ( 'NONE',  ( 0.000000000000000000, 0.000000000000000000, 1.000000000000000000 ) ) ;
#99 = ADVANCED_FACE ( 'NONE', ( #213 ), #76, .T. ) ;
#100 = COORDINATED_UNIVERSAL_TIME_OFFSET ( 1, 0, .AHEAD. ) ;
#101 = PERSON_AND_ORGANIZATION ( #27, #144 ) ;
#102 = AXIS2_PLACEMENT_3D ( 'NONE', #306, #248, #14 ) ;
#103 = FACE_OUTER_BOUND ( 'NONE', #10, .T. ) ;
#104 = EDGE_CURVE ( 'NONE', #289, #231, #255, .T. ) ;
#105 = DIRECTION ( 'NONE',  ( 0.000000000000000000, 0.000000000000000000, 1.000000000000000000 ) ) ;
#106 = CLOSED_SHELL ( 'NONE', ( #56, #180, #99, #285, #54, #127, #166, #85, #271 ) ) ;
#107 = DIRECTION ( 'NONE',  ( -1.000000000000000000, 0.000000000000000000, 0.000000000000000000 ) ) ;
#108 = DIRECTION ( 'NONE',  ( 0.000000000000000000, 0.000000000000000000, 1.000000000000000000 ) ) ;
#109 = CARTESIAN_POINT ( 'NONE',  ( 0.000000000000000000, 0.000000000000000000, 7.200000000000011724 ) ) ;
#110 = CC_DESIGN_PERSON_AND_ORGANIZATION_ASSIGNMENT ( #20, #50, ( #80 ) ) ;
#111 = ORIENTED_EDGE ( 'NONE', *, *, #28, .T. ) ;
#112 = ORIENTED_EDGE ( 'NONE', *, *, #21, .T. ) ;
#113 = DIRECTION ( 'NONE',  ( 1.000000000000000000, 0.000000000000000000, 0.000000000000000000 ) ) ;
#114 = DIRECTION ( 'NONE',  ( 0.000000000000000000, -1.000000000000000000, 0.000000000000000000 ) ) ;
#115 = PERSON_AND_ORGANIZATION ( #27, #144 ) ;
#116 = CARTESIAN_POINT ( 'NONE',  ( 7.000000000000000888, 8.572527594031474176E-16, 167.0000000000000000 ) ) ;
#117 = EDGE_LOOP ( 'NONE', ( #33, #82 ) ) ;
#118 = DATE_TIME_ROLE ( 'creation_date' ) ;
#119 = CARTESIAN_POINT ( 'NONE',  ( 0.000000000000000000, 0.000000000000000000, 7.000000000000000000 ) ) ;
#120 = CIRCLE ( 'NONE', #122, 7.000000000000000888 ) ;
#121 = EDGE_LOOP ( 'NONE', ( #88, #134, #153, #281 ) ) ;
#122 = AXIS2_PLACEMENT_3D ( 'NONE', #67, #108, #113 ) ;
#123 = APPROVAL_PERSON_ORGANIZATION ( #137, #211, #232 ) ;
#124 = VERTEX_POINT ( 'NONE', #266 ) ;
#125 = APPROVAL_PERSON_ORGANIZATION ( #115, #13, #237 ) ;
#126 = DIRECTION ( 'NONE',  ( 1.000000000000000000, 0.000000000000000000, -0.000000000000000000 ) ) ;
#127 = ADVANCED_FACE ( 'NONE', ( #57 ), #32, .F. ) ;
#128 = CYLINDRICAL_SURFACE ( 'NONE', #102, 7.000000000000000888 ) ;
#129 = ORIENTED_EDGE ( 'NONE', *, *, #215, .T. ) ;
#130 = FACE_OUTER_BOUND ( 'NONE', #242, .T. ) ;
#131 = EDGE_LOOP ( 'NONE', ( #60, #254, #111, #58 ) ) ;
#132 = AXIS2_PLACEMENT_3D ( 'NONE', #299, #163, #207 ) ;
#133 = CARTESIAN_POINT ( 'NONE',  ( 7.200000000000001066, 0.000000000000000000, 7.000000000000006217 ) ) ;
#134 = ORIENTED_EDGE ( 'NONE', *, *, #301, .T. ) ;
#135 = CALENDAR_DATE ( 2022, 20, 6 ) ;
#136 = ORIENTED_EDGE ( 'NONE', *, *, #104, .T. ) ;
#137 = PERSON_AND_ORGANIZATION ( #27, #144 ) ;
#138 = EDGE_LOOP ( 'NONE', ( #175, #152 ) ) ;
#139 = ORIENTED_EDGE ( 'NONE', *, *, #301, .F. ) ;
#140 = COORDINATED_UNIVERSAL_TIME_OFFSET ( 1, 0, .AHEAD. ) ;
#141 = CARTESIAN_POINT ( 'NONE',  ( 0.000000000000000000, 0.000000000000000000, 7.200000000000011724 ) ) ;
#142 = MECHANICAL_CONTEXT ( 'NONE', #198, 'mechanical' ) ;
#143 = VECTOR ( 'NONE', #293, 1000.000000000000000 ) ;
#144 = ORGANIZATION ( 'NEURÈENÝ', 'NEURÈENÝ', '' ) ;
#145 = APPROVAL_STATUS ( 'not_yet_approved' ) ;
#146 = PRODUCT_DEFINITION ( 'NEZNÁMÝ', '', #172, #72 ) ;
#147 = LOCAL_TIME ( 11, 27, 11.00000000000000000, #262 ) ;
#148 = EDGE_CURVE ( 'NONE', #303, #73, #2, .T. ) ;
#149 = PRODUCT_DEFINITION_SHAPE ( 'NONE', 'NONE',  #146 ) ;
#150 = ORIENTED_EDGE ( 'NONE', *, *, #256, .T. ) ;
#151 =( NAMED_UNIT ( * ) PLANE_ANGLE_UNIT ( ) SI_UNIT ( $, .RADIAN. ) );
#152 = ORIENTED_EDGE ( 'NONE', *, *, #148, .T. ) ;
#153 = ORIENTED_EDGE ( 'NONE', *, *, #233, .T. ) ;
#154 = CARTESIAN_POINT ( 'NONE',  ( 11.00000000000000000, 1.347111479062088405E-15, 7.000000000000000000 ) ) ;
#155 = LOCAL_TIME ( 11, 27, 11.00000000000000000, #300 ) ;
#156 = FACE_BOUND ( 'NONE', #199, .T. ) ;
#157 = CARTESIAN_POINT ( 'NONE',  ( 7.000000000000000888, 8.572527594031474176E-16, 167.0000000000000000 ) ) ;
#158 = ORIENTED_EDGE ( 'NONE', *, *, #4, .F. ) ;
#159 = CARTESIAN_POINT ( 'NONE',  ( -7.200000000000001066, 8.817456953860944275E-16, 7.000000000000006217 ) ) ;
#160 = ORIENTED_EDGE ( 'NONE', *, *, #104, .F. ) ;
#161 = CALENDAR_DATE ( 2022, 20, 6 ) ;
#162 = TOROIDAL_SURFACE ( 'NONE', #6, 7.200000000000001066, 0.2000000000000000111 ) ;
#163 = DIRECTION ( 'NONE',  ( 0.000000000000000000, 0.000000000000000000, 1.000000000000000000 ) ) ;
#164 = COORDINATED_UNIVERSAL_TIME_OFFSET ( 1, 0, .AHEAD. ) ;
#165 = FACE_OUTER_BOUND ( 'NONE', #62, .T. ) ;
#166 = ADVANCED_FACE ( 'NONE', ( #103 ), #128, .T. ) ;
#167 = DIRECTION ( 'NONE',  ( 0.000000000000000000, 0.000000000000000000, 1.000000000000000000 ) ) ;
#168 = AXIS2_PLACEMENT_3D ( 'NONE', #94, #68, #126 ) ;
#169 = SECURITY_CLASSIFICATION_LEVEL ( 'unclassified' ) ;
#170 = DIRECTION ( 'NONE',  ( -0.000000000000000000, -0.000000000000000000, -1.000000000000000000 ) ) ;
#171 = CIRCLE ( 'NONE', #132, 7.000000000000000888 ) ;
#172 = PRODUCT_DEFINITION_FORMATION_WITH_SPECIFIED_SOURCE ( 'LIBOVOLNÝ', '', #80, .NOT_KNOWN. ) ;
#173 = ADVANCED_BREP_SHAPE_REPRESENTATION ( 'bf55', ( #238, #268 ), #11 ) ;
#174 = EDGE_LOOP ( 'NONE', ( #187, #265, #112, #160 ) ) ;
#175 = ORIENTED_EDGE ( 'NONE', *, *, #235, .T. ) ;
#176 = ORIENTED_EDGE ( 'NONE', *, *, #47, .F. ) ;
#177 = AXIS2_PLACEMENT_3D ( 'NONE', #52, #8, #244 ) ;
#178 = CARTESIAN_POINT ( 'NONE',  ( 0.000000000000000000, 0.000000000000000000, 7.000000000000000000 ) ) ;
#179 = CARTESIAN_POINT ( 'NONE',  ( 0.000000000000000000, 0.000000000000000000, 0.000000000000000000 ) ) ;
#180 = ADVANCED_FACE ( 'NONE', ( #59 ), #246, .T. ) ;
#181 = CARTESIAN_POINT ( 'NONE',  ( 11.00000000000000000, 1.347111479062088405E-15, 7.000000000000000000 ) ) ;
#182 = CARTESIAN_POINT ( 'NONE',  ( 7.200000000000001066, 0.000000000000000000, 7.200000000000011724 ) ) ;
#183 = AXIS2_PLACEMENT_3D ( 'NONE', #200, #201, #251 ) ;
#184 = FACE_OUTER_BOUND ( 'NONE', #138, .T. ) ;
#185 = LINE ( 'NONE', #292, #143 ) ;
#186 = DIRECTION ( 'NONE',  ( 1.000000000000000000, 0.000000000000000000, 0.000000000000000000 ) ) ;
#187 = ORIENTED_EDGE ( 'NONE', *, *, #245, .F. ) ;
#188 = APPROVAL_ROLE ( '' ) ;
#189 = PRODUCT_RELATED_PRODUCT_CATEGORY ( 'detail', '', ( #80 ) ) ;
#190 = DIRECTION ( 'NONE',  ( 0.000000000000000000, 0.000000000000000000, 1.000000000000000000 ) ) ;
#191 = AXIS2_PLACEMENT_3D ( 'NONE', #93, #40, #107 ) ;
#192 = CARTESIAN_POINT ( 'NONE',  ( -11.00000000000000000, 0.000000000000000000, 7.000000000000000000 ) ) ;
#193 = PERSON_AND_ORGANIZATION_ROLE ( 'creator' ) ;
#194 = VERTEX_POINT ( 'NONE', #225 ) ;
#195 = PERSON_AND_ORGANIZATION ( #27, #144 ) ;
#196 = CC_DESIGN_PERSON_AND_ORGANIZATION_ASSIGNMENT ( #305, #193, ( #146 ) ) ;
#197 = CIRCLE ( 'NONE', #216, 7.200000000000001066 ) ;
#198 = APPLICATION_CONTEXT ( 'configuration controlled 3d designs of mechanical parts and assemblies' ) ;
#199 = EDGE_LOOP ( 'NONE', ( #277, #136 ) ) ;
#200 = CARTESIAN_POINT ( 'NONE',  ( 0.000000000000000000, 0.000000000000000000, 7.000000000000000000 ) ) ;
#201 = DIRECTION ( 'NONE',  ( 0.000000000000000000, 0.000000000000000000, 1.000000000000000000 ) ) ;
#202 = DIRECTION ( 'NONE',  ( 1.224646799147353207E-16, 1.000000000000000000, -0.000000000000000000 ) ) ;
#203 = DIRECTION ( 'NONE',  ( 0.000000000000000000, 0.000000000000000000, -1.000000000000000000 ) ) ;
#204 = CARTESIAN_POINT ( 'NONE',  ( -7.200000000000001066, 8.817456953860944275E-16, 7.200000000000011724 ) ) ;
#205 = DIRECTION ( 'NONE',  ( -0.000000000000000000, -0.000000000000000000, -1.000000000000000000 ) ) ;
#206 = CARTESIAN_POINT ( 'NONE',  ( 0.000000000000000000, 0.000000000000000000, 0.000000000000000000 ) ) ;
#207 = DIRECTION ( 'NONE',  ( 1.000000000000000000, 0.000000000000000000, 0.000000000000000000 ) ) ;
#208 = PERSON_AND_ORGANIZATION_ROLE ( 'classification_officer' ) ;
#209 = DIRECTION ( 'NONE',  ( 1.000000000000000000, 0.000000000000000000, -0.000000000000000000 ) ) ;
#210 = AXIS2_PLACEMENT_3D ( 'NONE', #79, #55, #241 ) ;
#211 = APPROVAL ( #307, 'NEURÈENÝ' ) ;
#212 = APPROVAL_DATE_TIME ( #97, #219 ) ;
#213 = FACE_OUTER_BOUND ( 'NONE', #121, .T. ) ;
#214 = APPROVAL_DATE_TIME ( #69, #211 ) ;
#215 = EDGE_CURVE ( 'NONE', #247, #5, #218, .T. ) ;
#216 = AXIS2_PLACEMENT_3D ( 'NONE', #119, #273, #91 ) ;
#217 = ORIENTED_EDGE ( 'NONE', *, *, #21, .F. ) ;
#218 = CIRCLE ( 'NONE', #89, 7.000000000000000888 ) ;
#219 = APPROVAL ( #230, 'NEURÈENÝ' ) ;
#220 = DIRECTION ( 'NONE',  ( 1.000000000000000000, 0.000000000000000000, -0.000000000000000000 ) ) ;
#221 = CYLINDRICAL_SURFACE ( 'NONE', #26, 11.00000000000000000 ) ;
#222 = CC_DESIGN_PERSON_AND_ORGANIZATION_ASSIGNMENT ( #195, #75, ( #172 ) ) ;
#223 = EDGE_CURVE ( 'NONE', #5, #247, #120, .T. ) ;
#224 = LOCAL_TIME ( 11, 27, 11.00000000000000000, #140 ) ;
#225 = CARTESIAN_POINT ( 'NONE',  ( 7.000000000000000888, 8.572527594031474176E-16, 7.200000000000011724 ) ) ;
#226 =( LENGTH_UNIT ( ) NAMED_UNIT ( * ) SI_UNIT ( .MILLI., .METRE. ) );
#227 = ORIENTED_EDGE ( 'NONE', *, *, #53, .F. ) ;
#228 = CC_DESIGN_PERSON_AND_ORGANIZATION_ASSIGNMENT ( #257, #208, ( #90 ) ) ;
#229 = FACE_OUTER_BOUND ( 'NONE', #44, .T. ) ;
#230 = APPROVAL_STATUS ( 'not_yet_approved' ) ;
#231 = VERTEX_POINT ( 'NONE', #133 ) ;
#232 = APPROVAL_ROLE ( '' ) ;
#233 = EDGE_CURVE ( 'NONE', #38, #1, #30, .T. ) ;
#234 = DATE_AND_TIME ( #260, #147 ) ;
#235 = EDGE_CURVE ( 'NONE', #73, #303, #49, .T. ) ;
#236 = VECTOR ( 'NONE', #270, 1000.000000000000000 ) ;
#237 = APPROVAL_ROLE ( '' ) ;
#238 = MANIFOLD_SOLID_BREP ( 'Zaoblit1', #106 ) ;
#239 = VECTOR ( 'NONE', #205, 1000.000000000000000 ) ;
#240 = APPLICATION_CONTEXT ( 'configuration controlled 3d designs of mechanical parts and assemblies' ) ;
#241 = DIRECTION ( 'NONE',  ( -1.000000000000000000, 0.000000000000000000, 0.000000000000000000 ) ) ;
#242 = EDGE_LOOP ( 'NONE', ( #139, #92, #150, #16 ) ) ;
#243 = CARTESIAN_POINT ( 'NONE',  ( 0.000000000000000000, 0.000000000000000000, 0.000000000000000000 ) ) ;
#244 = DIRECTION ( 'NONE',  ( 1.000000000000000000, 0.000000000000000000, 0.000000000000000000 ) ) ;
#245 = EDGE_CURVE ( 'NONE', #124, #289, #259, .T. ) ;
#246 = CYLINDRICAL_SURFACE ( 'NONE', #191, 7.000000000000000888 ) ;
#247 = VERTEX_POINT ( 'NONE', #86 ) ;
#248 = DIRECTION ( 'NONE',  ( -0.000000000000000000, -0.000000000000000000, -1.000000000000000000 ) ) ;
#249 = CIRCLE ( 'NONE', #296, 0.1999999999999996503 ) ;
#250 = CC_DESIGN_SECURITY_CLASSIFICATION ( #90, ( #172 ) ) ;
#251 = DIRECTION ( 'NONE',  ( 1.000000000000000000, 0.000000000000000000, 0.000000000000000000 ) ) ;
#252 = DIRECTION ( 'NONE',  ( 1.000000000000000000, 0.000000000000000000, 0.000000000000000000 ) ) ;
#253 = CARTESIAN_POINT ( 'NONE',  ( 0.000000000000000000, 0.000000000000000000, 7.200000000000011724 ) ) ;
#254 = ORIENTED_EDGE ( 'NONE', *, *, #4, .T. ) ;
#255 = CIRCLE ( 'NONE', #81, 7.200000000000001066 ) ;
#256 = EDGE_CURVE ( 'NONE', #73, #1, #185, .T. ) ;
#257 = PERSON_AND_ORGANIZATION ( #27, #144 ) ;
#258 = CARTESIAN_POINT ( 'NONE',  ( -11.00000000000000000, 0.000000000000000000, 0.000000000000000000 ) ) ;
#259 = CIRCLE ( 'NONE', #290, 0.1999999999999996503 ) ;
#260 = CALENDAR_DATE ( 2022, 20, 6 ) ;
#261 = LOCAL_TIME ( 11, 27, 11.00000000000000000, #100 ) ;
#262 = COORDINATED_UNIVERSAL_TIME_OFFSET ( 1, 0, .AHEAD. ) ;
#263 = VECTOR ( 'NONE', #46, 1000.000000000000000 ) ;
#264 = CC_DESIGN_DATE_AND_TIME_ASSIGNMENT ( #95, #284, ( #90 ) ) ;
#265 = ORIENTED_EDGE ( 'NONE', *, *, #28, .F. ) ;
#266 = CARTESIAN_POINT ( 'NONE',  ( -7.000000000000000888, 0.000000000000000000, 7.200000000000011724 ) ) ;
#267 = ORIENTED_EDGE ( 'NONE', *, *, #47, .T. ) ;
#268 = AXIS2_PLACEMENT_3D ( 'NONE', #206, #167, #280 ) ;
#269 = APPLICATION_PROTOCOL_DEFINITION ( 'international standard', 'config_control_design', 1994, #198 ) ;
#270 = DIRECTION ( 'NONE',  ( -0.000000000000000000, -0.000000000000000000, -1.000000000000000000 ) ) ;
#271 = ADVANCED_FACE ( 'NONE', ( #83 ), #162, .F. ) ;
#272 = CARTESIAN_POINT ( 'NONE',  ( 0.000000000000000000, 0.000000000000000000, 0.000000000000000000 ) ) ;
#273 = DIRECTION ( 'NONE',  ( -0.000000000000000000, -0.000000000000000000, -1.000000000000000000 ) ) ;
#274 = AXIS2_PLACEMENT_3D ( 'NONE', #141, #279, #19 ) ;
#275 =( NAMED_UNIT ( * ) SI_UNIT ( $, .STERADIAN. ) SOLID_ANGLE_UNIT ( ) );
#276 = CARTESIAN_POINT ( 'NONE',  ( 0.000000000000000000, 0.000000000000000000, 7.000000000000000000 ) ) ;
#277 = ORIENTED_EDGE ( 'NONE', *, *, #53, .T. ) ;
#278 = CARTESIAN_POINT ( 'NONE',  ( 0.000000000000000000, 0.000000000000000000, 167.0000000000000000 ) ) ;
#279 = DIRECTION ( 'NONE',  ( 0.000000000000000000, 0.000000000000000000, 1.000000000000000000 ) ) ;
#280 = DIRECTION ( 'NONE',  ( 1.000000000000000000, 0.000000000000000000, 0.000000000000000000 ) ) ;
#281 = ORIENTED_EDGE ( 'NONE', *, *, #256, .F. ) ;
#282 = ORIENTED_EDGE ( 'NONE', *, *, #245, .T. ) ;
#283 = ORIENTED_EDGE ( 'NONE', *, *, #215, .F. ) ;
#284 = DATE_TIME_ROLE ( 'classification_date' ) ;
#285 = ADVANCED_FACE ( 'NONE', ( #130 ), #221, .T. ) ;
#286 = CIRCLE ( 'NONE', #70, 11.00000000000000000 ) ;
#287 = AXIS2_PLACEMENT_3D ( 'NONE', #272, #12, #35 ) ;
#288 = CARTESIAN_POINT ( 'NONE',  ( 0.000000000000000000, 0.000000000000000000, 7.000000000000000000 ) ) ;
#289 = VERTEX_POINT ( 'NONE', #159 ) ;
#290 = AXIS2_PLACEMENT_3D ( 'NONE', #204, #202, #34 ) ;
#291 = CC_DESIGN_APPROVAL ( #219, ( #172 ) ) ;
#292 = CARTESIAN_POINT ( 'NONE',  ( -11.00000000000000000, 0.000000000000000000, 7.000000000000000000 ) ) ;
#293 = DIRECTION ( 'NONE',  ( -0.000000000000000000, -0.000000000000000000, -1.000000000000000000 ) ) ;
#294 = EDGE_CURVE ( 'NONE', #1, #38, #286, .T. ) ;
#295 = DIRECTION ( 'NONE',  ( 0.000000000000000000, 0.000000000000000000, 1.000000000000000000 ) ) ;
#296 = AXIS2_PLACEMENT_3D ( 'NONE', #182, #114, #203 ) ;
#297 = CARTESIAN_POINT ( 'NONE',  ( 11.00000000000000000, 1.347111479062088405E-15, 0.000000000000000000 ) ) ;
#298 = LINE ( 'NONE', #181, #236 ) ;
#299 = CARTESIAN_POINT ( 'NONE',  ( 0.000000000000000000, 0.000000000000000000, 7.200000000000011724 ) ) ;
#300 = COORDINATED_UNIVERSAL_TIME_OFFSET ( 1, 0, .AHEAD. ) ;
#301 = EDGE_CURVE ( 'NONE', #303, #38, #298, .T. ) ;
#302 = CALENDAR_DATE ( 2022, 20, 6 ) ;
#303 = VERTEX_POINT ( 'NONE', #154 ) ;
#304 = AXIS2_PLACEMENT_3D ( 'NONE', #276, #190, #209 ) ;
#305 = PERSON_AND_ORGANIZATION ( #27, #144 ) ;
#306 = CARTESIAN_POINT ( 'NONE',  ( 0.000000000000000000, 0.000000000000000000, 167.0000000000000000 ) ) ;
#307 = APPROVAL_STATUS ( 'not_yet_approved' ) ;
ENDSEC;
END-ISO-10303-21;
