ISO-10303-21;
HEADER;
FILE_DESCRIPTION (( 'STEP AP203' ),
    '1' );
FILE_NAME ('abb0.STEP',
    '2022-06-20T09:17:52',
    ( '' ),
    ( '' ),
    'SwSTEP 2.0',
    'SolidWorks 2019',
    '' );
FILE_SCHEMA (( 'CONFIG_CONTROL_DESIGN' ));
ENDSEC;

DATA;
#1 = CARTESIAN_POINT ( 'NONE',  ( 0.000000000000000000, 0.000000000000000000, 410.0000000000000568 ) ) ;
#2 = EDGE_LOOP ( 'NONE', ( #261, #288 ) ) ;
#3 = APPROVAL ( #75, 'NEURÈENÝ' ) ;
#4 = ORIENTED_EDGE ( 'NONE', *, *, #118, .F. ) ;
#5 = VERTEX_POINT ( 'NONE', #59 ) ;
#6 = CIRCLE ( 'NONE', #105, 16.00000000000000000 ) ;
#7 = DIRECTION ( 'NONE',  ( 1.000000000000000000, 0.000000000000000000, 0.000000000000000000 ) ) ;
#8 = VERTEX_POINT ( 'NONE', #28 ) ;
#9 = CARTESIAN_POINT ( 'NONE',  ( -12.70000000000000107, 1.555301434917138630E-15, 9.999999999999992895 ) ) ;
#10 = DIRECTION ( 'NONE',  ( 1.000000000000000000, 0.000000000000000000, 0.000000000000000000 ) ) ;
#11 = EDGE_CURVE ( 'NONE', #57, #127, #218, .T. ) ;
#12 = ORIENTED_EDGE ( 'NONE', *, *, #214, .F. ) ;
#13 = VECTOR ( 'NONE', #225, 1000.000000000000000 ) ;
#14 = CARTESIAN_POINT ( 'NONE',  ( 12.50000000000000000, 1.530808498934191521E-15, 410.0000000000000568 ) ) ;
#15 = AXIS2_PLACEMENT_3D ( 'NONE', #167, #152, #34 ) ;
#16 = CARTESIAN_POINT ( 'NONE',  ( -12.50000000000000000, 0.000000000000000000, 10.19999999999998685 ) ) ;
#17 = CARTESIAN_POINT ( 'NONE',  ( 0.000000000000000000, 0.000000000000000000, 10.00000000000000000 ) ) ;
#18 = CARTESIAN_POINT ( 'NONE',  ( 0.000000000000000000, 0.000000000000000000, 10.19999999999998685 ) ) ;
#19 = PERSON_AND_ORGANIZATION ( #294, #41 ) ;
#20 = CARTESIAN_POINT ( 'NONE',  ( 0.000000000000000000, 0.000000000000000000, 0.000000000000000000 ) ) ;
#21 = CARTESIAN_POINT ( 'NONE',  ( -12.50000000000000000, 0.000000000000000000, 410.0000000000000568 ) ) ;
#22 = CALENDAR_DATE ( 2022, 20, 6 ) ;
#23 = PERSON_AND_ORGANIZATION_ROLE ( 'creator' ) ;
#24 = PRODUCT_RELATED_PRODUCT_CATEGORY ( 'detail', '', ( #137 ) ) ;
#25 = AXIS2_PLACEMENT_3D ( 'NONE', #71, #303, #112 ) ;
#26 = APPROVAL_PERSON_ORGANIZATION ( #240, #179, #279 ) ;
#27 = ORIENTED_EDGE ( 'NONE', *, *, #128, .F. ) ;
#28 = CARTESIAN_POINT ( 'NONE',  ( 12.50000000000000000, 1.530808498934191521E-15, 10.19999999999998685 ) ) ;
#29 = EDGE_LOOP ( 'NONE', ( #227, #123 ) ) ;
#30 = VECTOR ( 'NONE', #92, 1000.000000000000000 ) ;
#31 = CC_DESIGN_APPROVAL ( #3, ( #269 ) ) ;
#32 = ORIENTED_EDGE ( 'NONE', *, *, #307, .F. ) ;
#33 = CARTESIAN_POINT ( 'NONE',  ( 0.000000000000000000, 0.000000000000000000, 10.00000000000000000 ) ) ;
#34 = DIRECTION ( 'NONE',  ( 1.000000000000000000, 0.000000000000000000, 0.000000000000000000 ) ) ;
#35 = CC_DESIGN_PERSON_AND_ORGANIZATION_ASSIGNMENT ( #94, #196, ( #269 ) ) ;
#36 = AXIS2_PLACEMENT_3D ( 'NONE', #39, #64, #206 ) ;
#37 = PLANE ( 'NONE',  #201 ) ;
#38 = APPLICATION_CONTEXT ( 'configuration controlled 3d designs of mechanical parts and assemblies' ) ;
#39 = CARTESIAN_POINT ( 'NONE',  ( 0.000000000000000000, 0.000000000000000000, 0.000000000000000000 ) ) ;
#40 = CIRCLE ( 'NONE', #217, 12.50000000000000000 ) ;
#41 = ORGANIZATION ( 'NEURÈENÝ', 'NEURÈENÝ', '' ) ;
#42 = EDGE_CURVE ( 'NONE', #5, #54, #40, .T. ) ;
#43 = DIRECTION ( 'NONE',  ( 0.000000000000000000, 0.000000000000000000, 1.000000000000000000 ) ) ;
#44 = CARTESIAN_POINT ( 'NONE',  ( 0.000000000000000000, 0.000000000000000000, 410.0000000000000568 ) ) ;
#45 = PLANE ( 'NONE',  #36 ) ;
#46 = CARTESIAN_POINT ( 'NONE',  ( 0.000000000000000000, 0.000000000000000000, 10.00000000000000000 ) ) ;
#47 = PRODUCT_DEFINITION_SHAPE ( 'NONE', 'NONE',  #168 ) ;
#48 = CALENDAR_DATE ( 2022, 20, 6 ) ;
#49 = EDGE_CURVE ( 'NONE', #122, #81, #68, .T. ) ;
#50 = APPROVAL_STATUS ( 'not_yet_approved' ) ;
#51 = CYLINDRICAL_SURFACE ( 'NONE', #185, 12.50000000000000000 ) ;
#52 = PERSON_AND_ORGANIZATION_ROLE ( 'design_owner' ) ;
#53 = ORIENTED_EDGE ( 'NONE', *, *, #98, .T. ) ;
#54 = VERTEX_POINT ( 'NONE', #21 ) ;
#55 = AXIS2_PLACEMENT_3D ( 'NONE', #44, #257, #189 ) ;
#56 = DESIGN_CONTEXT ( 'detailed design', #38, 'design' ) ;
#57 = VERTEX_POINT ( 'NONE', #285 ) ;
#58 = CC_DESIGN_DATE_AND_TIME_ASSIGNMENT ( #276, #115, ( #168 ) ) ;
#59 = CARTESIAN_POINT ( 'NONE',  ( 12.50000000000000000, 1.530808498934191521E-15, 410.0000000000000568 ) ) ;
#60 = EDGE_LOOP ( 'NONE', ( #32, #53, #102, #280 ) ) ;
#61 = FACE_OUTER_BOUND ( 'NONE', #223, .T. ) ;
#62 = DIRECTION ( 'NONE',  ( 0.000000000000000000, 0.000000000000000000, 1.000000000000000000 ) ) ;
#63 = DIRECTION ( 'NONE',  ( 0.000000000000000000, 0.000000000000000000, 1.000000000000000000 ) ) ;
#64 = DIRECTION ( 'NONE',  ( 0.000000000000000000, 0.000000000000000000, 1.000000000000000000 ) ) ;
#65 = CC_DESIGN_DATE_AND_TIME_ASSIGNMENT ( #173, #142, ( #269 ) ) ;
#66 = EDGE_CURVE ( 'NONE', #8, #81, #268, .T. ) ;
#67 = CARTESIAN_POINT ( 'NONE',  ( 0.000000000000000000, 0.000000000000000000, 10.19999999999998685 ) ) ;
#68 = CIRCLE ( 'NONE', #191, 12.70000000000000107 ) ;
#69 = CIRCLE ( 'NONE', #194, 12.70000000000000107 ) ;
#70 = FACE_OUTER_BOUND ( 'NONE', #145, .T. ) ;
#71 = CARTESIAN_POINT ( 'NONE',  ( 0.000000000000000000, 0.000000000000000000, 410.0000000000000568 ) ) ;
#72 = CARTESIAN_POINT ( 'NONE',  ( 16.00000000000000000, 1.959434878635765131E-15, 10.00000000000000000 ) ) ;
#73 = DIRECTION ( 'NONE',  ( 0.000000000000000000, 0.000000000000000000, 1.000000000000000000 ) ) ;
#74 = COORDINATED_UNIVERSAL_TIME_OFFSET ( 1, 0, .AHEAD. ) ;
#75 = APPROVAL_STATUS ( 'not_yet_approved' ) ;
#76 = PERSON_AND_ORGANIZATION ( #294, #41 ) ;
#77 = DIRECTION ( 'NONE',  ( 0.000000000000000000, 0.000000000000000000, -1.000000000000000000 ) ) ;
#78 = LOCAL_TIME ( 11, 17, 52.00000000000000000, #166 ) ;
#79 = APPROVAL_DATE_TIME ( #245, #3 ) ;
#80 = DIRECTION ( 'NONE',  ( 1.000000000000000000, 0.000000000000000000, 0.000000000000000000 ) ) ;
#81 = VERTEX_POINT ( 'NONE', #126 ) ;
#82 = ADVANCED_FACE ( 'NONE', ( #228 ), #51, .T. ) ;
#83 = DATE_AND_TIME ( #22, #106 ) ;
#84 = PERSON_AND_ORGANIZATION ( #294, #41 ) ;
#85 = EDGE_LOOP ( 'NONE', ( #181, #104 ) ) ;
#86 = AXIS2_PLACEMENT_3D ( 'NONE', #93, #234, #195 ) ;
#87 = ORIENTED_EDGE ( 'NONE', *, *, #182, .F. ) ;
#88 = DIRECTION ( 'NONE',  ( -0.000000000000000000, -0.000000000000000000, -1.000000000000000000 ) ) ;
#89 =( NAMED_UNIT ( * ) PLANE_ANGLE_UNIT ( ) SI_UNIT ( $, .RADIAN. ) );
#90 = FACE_OUTER_BOUND ( 'NONE', #219, .T. ) ;
#91 = FACE_OUTER_BOUND ( 'NONE', #99, .T. ) ;
#92 = DIRECTION ( 'NONE',  ( -0.000000000000000000, -0.000000000000000000, -1.000000000000000000 ) ) ;
#93 = CARTESIAN_POINT ( 'NONE',  ( 0.000000000000000000, 0.000000000000000000, 10.00000000000000000 ) ) ;
#94 = PERSON_AND_ORGANIZATION ( #294, #41 ) ;
#95 = APPROVAL_ROLE ( '' ) ;
#96 = CARTESIAN_POINT ( 'NONE',  ( 16.00000000000000000, 1.959434878635765131E-15, 10.00000000000000000 ) ) ;
#97 = ORIENTED_EDGE ( 'NONE', *, *, #182, .T. ) ;
#98 = EDGE_CURVE ( 'NONE', #169, #224, #289, .T. ) ;
#99 = EDGE_LOOP ( 'NONE', ( #284, #100, #97, #202 ) ) ;
#100 = ORIENTED_EDGE ( 'NONE', *, *, #203, .T. ) ;
#101 = LOCAL_TIME ( 11, 17, 52.00000000000000000, #74 ) ;
#102 = ORIENTED_EDGE ( 'NONE', *, *, #260, .T. ) ;
#103 = DIRECTION ( 'NONE',  ( -0.000000000000000000, -0.000000000000000000, -1.000000000000000000 ) ) ;
#104 = ORIENTED_EDGE ( 'NONE', *, *, #49, .T. ) ;
#105 = AXIS2_PLACEMENT_3D ( 'NONE', #33, #107, #184 ) ;
#106 = LOCAL_TIME ( 11, 17, 52.00000000000000000, #120 ) ;
#107 = DIRECTION ( 'NONE',  ( 0.000000000000000000, 0.000000000000000000, 1.000000000000000000 ) ) ;
#108 = DIRECTION ( 'NONE',  ( 1.000000000000000000, 0.000000000000000000, 0.000000000000000000 ) ) ;
#109 = LINE ( 'NONE', #14, #30 ) ;
#110 = ADVANCED_FACE ( 'NONE', ( #61 ), #139, .F. ) ;
#111 = DIRECTION ( 'NONE',  ( 0.000000000000000000, 0.000000000000000000, 1.000000000000000000 ) ) ;
#112 = DIRECTION ( 'NONE',  ( 1.000000000000000000, 0.000000000000000000, 0.000000000000000000 ) ) ;
#113 = DIRECTION ( 'NONE',  ( 1.000000000000000000, 0.000000000000000000, -0.000000000000000000 ) ) ;
#114 = PERSON_AND_ORGANIZATION_ROLE ( 'design_supplier' ) ;
#115 = DATE_TIME_ROLE ( 'creation_date' ) ;
#116 = CC_DESIGN_PERSON_AND_ORGANIZATION_ASSIGNMENT ( #262, #197, ( #265 ) ) ;
#117 =( NAMED_UNIT ( * ) SI_UNIT ( $, .STERADIAN. ) SOLID_ANGLE_UNIT ( ) );
#118 = EDGE_CURVE ( 'NONE', #57, #169, #6, .T. ) ;
#119 = CLOSED_SHELL ( 'NONE', ( #110, #153, #278, #241, #190, #233, #82, #251, #229 ) ) ;
#120 = COORDINATED_UNIVERSAL_TIME_OFFSET ( 1, 0, .AHEAD. ) ;
#121 = LOCAL_TIME ( 11, 17, 52.00000000000000000, #222 ) ;
#122 = VERTEX_POINT ( 'NONE', #9 ) ;
#123 = ORIENTED_EDGE ( 'NONE', *, *, #260, .F. ) ;
#124 = ORIENTED_EDGE ( 'NONE', *, *, #198, .F. ) ;
#125 = AXIS2_PLACEMENT_3D ( 'NONE', #180, #306, #77 ) ;
#126 = CARTESIAN_POINT ( 'NONE',  ( 12.70000000000000107, 0.000000000000000000, 9.999999999999992895 ) ) ;
#127 = VERTEX_POINT ( 'NONE', #267 ) ;
#128 = EDGE_CURVE ( 'NONE', #54, #5, #264, .T. ) ;
#129 = APPROVAL_PERSON_ORGANIZATION ( #84, #3, #170 ) ;
#130 = FACE_OUTER_BOUND ( 'NONE', #2, .T. ) ;
#131 = CC_DESIGN_PERSON_AND_ORGANIZATION_ASSIGNMENT ( #143, #23, ( #168 ) ) ;
#132 = DIRECTION ( 'NONE',  ( -0.000000000000000000, -0.000000000000000000, -1.000000000000000000 ) ) ;
#133 = AXIS2_PLACEMENT_3D ( 'NONE', #275, #63, #298 ) ;
#134 = DIRECTION ( 'NONE',  ( 0.000000000000000000, 0.000000000000000000, 1.000000000000000000 ) ) ;
#135 = CYLINDRICAL_SURFACE ( 'NONE', #55, 12.50000000000000000 ) ;
#136 = FACE_OUTER_BOUND ( 'NONE', #29, .T. ) ;
#137 = PRODUCT ( 'abb0', 'abb0', '', ( #212 ) ) ;
#138 = CYLINDRICAL_SURFACE ( 'NONE', #86, 16.00000000000000000 ) ;
#139 = TOROIDAL_SURFACE ( 'NONE', #15, 12.70000000000000107, 0.2000000000000000111 ) ;
#140 = CALENDAR_DATE ( 2022, 20, 6 ) ;
#141 = EDGE_CURVE ( 'NONE', #54, #172, #300, .T. ) ;
#142 = DATE_TIME_ROLE ( 'classification_date' ) ;
#143 = PERSON_AND_ORGANIZATION ( #294, #41 ) ;
#144 = APPLICATION_CONTEXT ( 'configuration controlled 3d designs of mechanical parts and assemblies' ) ;
#145 = EDGE_LOOP ( 'NONE', ( #150, #244 ) ) ;
#146 = SHAPE_DEFINITION_REPRESENTATION ( #47, #176 ) ;
#147 = CIRCLE ( 'NONE', #133, 16.00000000000000000 ) ;
#148 = COORDINATED_UNIVERSAL_TIME_OFFSET ( 1, 0, .AHEAD. ) ;
#149 = ORIENTED_EDGE ( 'NONE', *, *, #66, .T. ) ;
#150 = ORIENTED_EDGE ( 'NONE', *, *, #118, .T. ) ;
#151 = VECTOR ( 'NONE', #88, 1000.000000000000000 ) ;
#152 = DIRECTION ( 'NONE',  ( 0.000000000000000000, 0.000000000000000000, 1.000000000000000000 ) ) ;
#153 = ADVANCED_FACE ( 'NONE', ( #91 ), #135, .T. ) ;
#154 = AXIS2_PLACEMENT_3D ( 'NONE', #187, #43, #270 ) ;
#155 = LOCAL_TIME ( 11, 17, 52.00000000000000000, #148 ) ;
#156 =( LENGTH_UNIT ( ) NAMED_UNIT ( * ) SI_UNIT ( .MILLI., .METRE. ) );
#157 = DIRECTION ( 'NONE',  ( -0.000000000000000000, -0.000000000000000000, -1.000000000000000000 ) ) ;
#158 = CYLINDRICAL_SURFACE ( 'NONE', #175, 16.00000000000000000 ) ;
#159 = CIRCLE ( 'NONE', #220, 16.00000000000000000 ) ;
#160 = DIRECTION ( 'NONE',  ( 1.000000000000000000, 0.000000000000000000, 0.000000000000000000 ) ) ;
#161 = DIRECTION ( 'NONE',  ( -0.000000000000000000, -0.000000000000000000, -1.000000000000000000 ) ) ;
#162 = CARTESIAN_POINT ( 'NONE',  ( 16.00000000000000000, 1.959434878635765131E-15, 0.000000000000000000 ) ) ;
#163 = CALENDAR_DATE ( 2022, 20, 6 ) ;
#164 = CIRCLE ( 'NONE', #193, 12.50000000000000000 ) ;
#165 = AXIS2_PLACEMENT_3D ( 'NONE', #192, #236, #211 ) ;
#166 = COORDINATED_UNIVERSAL_TIME_OFFSET ( 1, 0, .AHEAD. ) ;
#167 = CARTESIAN_POINT ( 'NONE',  ( 0.000000000000000000, 0.000000000000000000, 10.19999999999998685 ) ) ;
#168 = PRODUCT_DEFINITION ( 'NEZNÁMÝ', '', #265, #56 ) ;
#169 = VERTEX_POINT ( 'NONE', #72 ) ;
#170 = APPROVAL_ROLE ( '' ) ;
#171 = APPROVAL_DATE_TIME ( #83, #179 ) ;
#172 = VERTEX_POINT ( 'NONE', #16 ) ;
#173 = DATE_AND_TIME ( #163, #101 ) ;
#174 = CIRCLE ( 'NONE', #154, 12.50000000000000000 ) ;
#175 = AXIS2_PLACEMENT_3D ( 'NONE', #252, #132, #256 ) ;
#176 = ADVANCED_BREP_SHAPE_REPRESENTATION ( 'abb0', ( #216, #231 ), #226 ) ;
#177 = ORIENTED_EDGE ( 'NONE', *, *, #66, .F. ) ;
#178 = ORIENTED_EDGE ( 'NONE', *, *, #11, .T. ) ;
#179 = APPROVAL ( #305, 'NEURÈENÝ' ) ;
#180 = CARTESIAN_POINT ( 'NONE',  ( 12.70000000000000107, 0.000000000000000000, 10.19999999999998685 ) ) ;
#181 = ORIENTED_EDGE ( 'NONE', *, *, #214, .T. ) ;
#182 = EDGE_CURVE ( 'NONE', #8, #172, #164, .T. ) ;
#183 = AXIS2_PLACEMENT_3D ( 'NONE', #67, #232, #160 ) ;
#184 = DIRECTION ( 'NONE',  ( 1.000000000000000000, 0.000000000000000000, 0.000000000000000000 ) ) ;
#185 = AXIS2_PLACEMENT_3D ( 'NONE', #1, #103, #204 ) ;
#186 = CIRCLE ( 'NONE', #165, 16.00000000000000000 ) ;
#187 = CARTESIAN_POINT ( 'NONE',  ( 0.000000000000000000, 0.000000000000000000, 10.19999999999998685 ) ) ;
#188 = DIRECTION ( 'NONE',  ( 0.000000000000000000, 0.000000000000000000, 1.000000000000000000 ) ) ;
#189 = DIRECTION ( 'NONE',  ( -1.000000000000000000, 0.000000000000000000, 0.000000000000000000 ) ) ;
#190 = ADVANCED_FACE ( 'NONE', ( #299, #70 ), #296, .T. ) ;
#191 = AXIS2_PLACEMENT_3D ( 'NONE', #287, #249, #10 ) ;
#192 = CARTESIAN_POINT ( 'NONE',  ( 0.000000000000000000, 0.000000000000000000, 0.000000000000000000 ) ) ;
#193 = AXIS2_PLACEMENT_3D ( 'NONE', #18, #73, #273 ) ;
#194 = AXIS2_PLACEMENT_3D ( 'NONE', #46, #157, #108 ) ;
#195 = DIRECTION ( 'NONE',  ( -1.000000000000000000, 0.000000000000000000, 0.000000000000000000 ) ) ;
#196 = PERSON_AND_ORGANIZATION_ROLE ( 'classification_officer' ) ;
#197 = PERSON_AND_ORGANIZATION_ROLE ( 'creator' ) ;
#198 = EDGE_CURVE ( 'NONE', #172, #8, #174, .T. ) ;
#199 = ORIENTED_EDGE ( 'NONE', *, *, #290, .T. ) ;
#200 = ORIENTED_EDGE ( 'NONE', *, *, #209, .F. ) ;
#201 = AXIS2_PLACEMENT_3D ( 'NONE', #253, #134, #113 ) ;
#202 = ORIENTED_EDGE ( 'NONE', *, *, #141, .F. ) ;
#203 = EDGE_CURVE ( 'NONE', #5, #8, #109, .T. ) ;
#204 = DIRECTION ( 'NONE',  ( -1.000000000000000000, 0.000000000000000000, 0.000000000000000000 ) ) ;
#205 = ORIENTED_EDGE ( 'NONE', *, *, #49, .F. ) ;
#206 = DIRECTION ( 'NONE',  ( 1.000000000000000000, 0.000000000000000000, -0.000000000000000000 ) ) ;
#207 = CC_DESIGN_SECURITY_CLASSIFICATION ( #269, ( #265 ) ) ;
#208 = DIRECTION ( 'NONE',  ( -1.000000000000000000, 1.224646799147353207E-16, 0.000000000000000000 ) ) ;
#209 = EDGE_CURVE ( 'NONE', #172, #122, #213, .T. ) ;
#210 = DIRECTION ( 'NONE',  ( 1.000000000000000000, 0.000000000000000000, 0.000000000000000000 ) ) ;
#211 = DIRECTION ( 'NONE',  ( 1.000000000000000000, 0.000000000000000000, 0.000000000000000000 ) ) ;
#212 = MECHANICAL_CONTEXT ( 'NONE', #144, 'mechanical' ) ;
#213 = CIRCLE ( 'NONE', #295, 0.2000000000000005107 ) ;
#214 = EDGE_CURVE ( 'NONE', #81, #122, #69, .T. ) ;
#215 = DATE_AND_TIME ( #48, #78 ) ;
#216 = MANIFOLD_SOLID_BREP ( 'Zaoblit1', #119 ) ;
#217 = AXIS2_PLACEMENT_3D ( 'NONE', #291, #62, #7 ) ;
#218 = LINE ( 'NONE', #239, #13 ) ;
#219 = EDGE_LOOP ( 'NONE', ( #200, #87, #149, #205 ) ) ;
#220 = AXIS2_PLACEMENT_3D ( 'NONE', #17, #111, #210 ) ;
#221 = CALENDAR_DATE ( 2022, 20, 6 ) ;
#222 = COORDINATED_UNIVERSAL_TIME_OFFSET ( 1, 0, .AHEAD. ) ;
#223 = EDGE_LOOP ( 'NONE', ( #124, #286, #12, #177 ) ) ;
#224 = VERTEX_POINT ( 'NONE', #162 ) ;
#225 = DIRECTION ( 'NONE',  ( -0.000000000000000000, -0.000000000000000000, -1.000000000000000000 ) ) ;
#226 =( GEOMETRIC_REPRESENTATION_CONTEXT ( 3 ) GLOBAL_UNCERTAINTY_ASSIGNED_CONTEXT ( ( #283 ) ) GLOBAL_UNIT_ASSIGNED_CONTEXT ( ( #156, #89, #117 ) ) REPRESENTATION_CONTEXT ( 'NONE', 'WORKASPACE' ) );
#227 = ORIENTED_EDGE ( 'NONE', *, *, #290, .F. ) ;
#228 = FACE_OUTER_BOUND ( 'NONE', #266, .T. ) ;
#229 = ADVANCED_FACE ( 'NONE', ( #90 ), #292, .F. ) ;
#230 = ORIENTED_EDGE ( 'NONE', *, *, #98, .F. ) ;
#231 = AXIS2_PLACEMENT_3D ( 'NONE', #20, #277, #80 ) ;
#232 = DIRECTION ( 'NONE',  ( 0.000000000000000000, 0.000000000000000000, 1.000000000000000000 ) ) ;
#233 = ADVANCED_FACE ( 'NONE', ( #136 ), #45, .F. ) ;
#234 = DIRECTION ( 'NONE',  ( -0.000000000000000000, -0.000000000000000000, -1.000000000000000000 ) ) ;
#235 = DIRECTION ( 'NONE',  ( 1.000000000000000000, 0.000000000000000000, -0.000000000000000000 ) ) ;
#236 = DIRECTION ( 'NONE',  ( 0.000000000000000000, 0.000000000000000000, 1.000000000000000000 ) ) ;
#237 = APPLICATION_PROTOCOL_DEFINITION ( 'international standard', 'config_control_design', 1994, #38 ) ;
#238 = APPROVAL_DATE_TIME ( #215, #247 ) ;
#239 = CARTESIAN_POINT ( 'NONE',  ( -16.00000000000000000, 0.000000000000000000, 10.00000000000000000 ) ) ;
#240 = PERSON_AND_ORGANIZATION ( #294, #41 ) ;
#241 = ADVANCED_FACE ( 'NONE', ( #258 ), #158, .T. ) ;
#242 = VECTOR ( 'NONE', #161, 1000.000000000000000 ) ;
#243 = APPROVAL_PERSON_ORGANIZATION ( #281, #247, #95 ) ;
#244 = ORIENTED_EDGE ( 'NONE', *, *, #307, .T. ) ;
#245 = DATE_AND_TIME ( #221, #155 ) ;
#246 = ORIENTED_EDGE ( 'NONE', *, *, #141, .T. ) ;
#247 = APPROVAL ( #50, 'NEURÈENÝ' ) ;
#248 = ORIENTED_EDGE ( 'NONE', *, *, #203, .F. ) ;
#249 = DIRECTION ( 'NONE',  ( -0.000000000000000000, -0.000000000000000000, -1.000000000000000000 ) ) ;
#250 = CARTESIAN_POINT ( 'NONE',  ( 0.000000000000000000, 0.000000000000000000, 10.00000000000000000 ) ) ;
#251 = ADVANCED_FACE ( 'NONE', ( #130 ), #37, .T. ) ;
#252 = CARTESIAN_POINT ( 'NONE',  ( 0.000000000000000000, 0.000000000000000000, 10.00000000000000000 ) ) ;
#253 = CARTESIAN_POINT ( 'NONE',  ( 0.000000000000000000, 0.000000000000000000, 410.0000000000000568 ) ) ;
#254 = CC_DESIGN_APPROVAL ( #247, ( #168 ) ) ;
#255 = CARTESIAN_POINT ( 'NONE',  ( -12.50000000000000000, 0.000000000000000000, 410.0000000000000568 ) ) ;
#256 = DIRECTION ( 'NONE',  ( -1.000000000000000000, 0.000000000000000000, 0.000000000000000000 ) ) ;
#257 = DIRECTION ( 'NONE',  ( -0.000000000000000000, -0.000000000000000000, -1.000000000000000000 ) ) ;
#258 = FACE_OUTER_BOUND ( 'NONE', #263, .T. ) ;
#259 = APPLICATION_PROTOCOL_DEFINITION ( 'international standard', 'config_control_design', 1994, #144 ) ;
#260 = EDGE_CURVE ( 'NONE', #224, #127, #186, .T. ) ;
#261 = ORIENTED_EDGE ( 'NONE', *, *, #128, .T. ) ;
#262 = PERSON_AND_ORGANIZATION ( #294, #41 ) ;
#263 = EDGE_LOOP ( 'NONE', ( #230, #4, #178, #199 ) ) ;
#264 = CIRCLE ( 'NONE', #25, 12.50000000000000000 ) ;
#265 = PRODUCT_DEFINITION_FORMATION_WITH_SPECIFIED_SOURCE ( 'LIBOVOLNÝ', '', #137, .NOT_KNOWN. ) ;
#266 = EDGE_LOOP ( 'NONE', ( #248, #27, #246, #282 ) ) ;
#267 = CARTESIAN_POINT ( 'NONE',  ( -16.00000000000000000, 0.000000000000000000, 0.000000000000000000 ) ) ;
#268 = CIRCLE ( 'NONE', #125, 0.2000000000000005107 ) ;
#269 = SECURITY_CLASSIFICATION ( '', '', #304 ) ;
#270 = DIRECTION ( 'NONE',  ( 1.000000000000000000, 0.000000000000000000, 0.000000000000000000 ) ) ;
#271 = CARTESIAN_POINT ( 'NONE',  ( -12.70000000000000107, 1.555301434917138630E-15, 10.19999999999998685 ) ) ;
#272 = DIRECTION ( 'NONE',  ( 1.224646799147353207E-16, 1.000000000000000000, -0.000000000000000000 ) ) ;
#273 = DIRECTION ( 'NONE',  ( 1.000000000000000000, 0.000000000000000000, 0.000000000000000000 ) ) ;
#274 = CC_DESIGN_APPROVAL ( #179, ( #265 ) ) ;
#275 = CARTESIAN_POINT ( 'NONE',  ( 0.000000000000000000, 0.000000000000000000, 0.000000000000000000 ) ) ;
#276 = DATE_AND_TIME ( #140, #121 ) ;
#277 = DIRECTION ( 'NONE',  ( 0.000000000000000000, 0.000000000000000000, 1.000000000000000000 ) ) ;
#278 = ADVANCED_FACE ( 'NONE', ( #301 ), #138, .T. ) ;
#279 = APPROVAL_ROLE ( '' ) ;
#280 = ORIENTED_EDGE ( 'NONE', *, *, #11, .F. ) ;
#281 = PERSON_AND_ORGANIZATION ( #294, #41 ) ;
#282 = ORIENTED_EDGE ( 'NONE', *, *, #198, .T. ) ;
#283 = UNCERTAINTY_MEASURE_WITH_UNIT (LENGTH_MEASURE( 1.000000000000000082E-05 ), #156, 'distance_accuracy_value', 'NONE');
#284 = ORIENTED_EDGE ( 'NONE', *, *, #42, .F. ) ;
#285 = CARTESIAN_POINT ( 'NONE',  ( -16.00000000000000000, 0.000000000000000000, 10.00000000000000000 ) ) ;
#286 = ORIENTED_EDGE ( 'NONE', *, *, #209, .T. ) ;
#287 = CARTESIAN_POINT ( 'NONE',  ( 0.000000000000000000, 0.000000000000000000, 10.00000000000000000 ) ) ;
#288 = ORIENTED_EDGE ( 'NONE', *, *, #42, .T. ) ;
#289 = LINE ( 'NONE', #96, #151 ) ;
#290 = EDGE_CURVE ( 'NONE', #127, #224, #147, .T. ) ;
#291 = CARTESIAN_POINT ( 'NONE',  ( 0.000000000000000000, 0.000000000000000000, 410.0000000000000568 ) ) ;
#292 = TOROIDAL_SURFACE ( 'NONE', #183, 12.70000000000000107, 0.2000000000000000111 ) ;
#293 = CC_DESIGN_PERSON_AND_ORGANIZATION_ASSIGNMENT ( #19, #114, ( #265 ) ) ;
#294 = PERSON ( 'NEURÈENÝ', 'NEURÈENÝ', 'NEURÈENÝ', ('NEURÈENÝ'), ('NEURÈENÝ'), ('NEURÈENÝ') ) ;
#295 = AXIS2_PLACEMENT_3D ( 'NONE', #271, #272, #208 ) ;
#296 = PLANE ( 'NONE',  #302 ) ;
#297 = CC_DESIGN_PERSON_AND_ORGANIZATION_ASSIGNMENT ( #76, #52, ( #137 ) ) ;
#298 = DIRECTION ( 'NONE',  ( 1.000000000000000000, 0.000000000000000000, 0.000000000000000000 ) ) ;
#299 = FACE_BOUND ( 'NONE', #85, .T. ) ;
#300 = LINE ( 'NONE', #255, #242 ) ;
#301 = FACE_OUTER_BOUND ( 'NONE', #60, .T. ) ;
#302 = AXIS2_PLACEMENT_3D ( 'NONE', #250, #188, #235 ) ;
#303 = DIRECTION ( 'NONE',  ( 0.000000000000000000, 0.000000000000000000, 1.000000000000000000 ) ) ;
#304 = SECURITY_CLASSIFICATION_LEVEL ( 'unclassified' ) ;
#305 = APPROVAL_STATUS ( 'not_yet_approved' ) ;
#306 = DIRECTION ( 'NONE',  ( 0.000000000000000000, -1.000000000000000000, 0.000000000000000000 ) ) ;
#307 = EDGE_CURVE ( 'NONE', #169, #57, #159, .T. ) ;
ENDSEC;
END-ISO-10303-21;
