ISO-10303-21;
HEADER;
FILE_DESCRIPTION (( 'STEP AP203' ),
    '1' );
FILE_NAME ('0469.STEP',
    '2022-06-20T09:51:15',
    ( '' ),
    ( '' ),
    'SwSTEP 2.0',
    'SolidWorks 2019',
    '' );
FILE_SCHEMA (( 'CONFIG_CONTROL_DESIGN' ));
ENDSEC;

DATA;
#1 = DIRECTION ( 'NONE',  ( 1.000000000000000000, 0.000000000000000000, 0.000000000000000000 ) ) ;
#2 = CARTESIAN_POINT ( 'NONE',  ( 6.000000000000000888, 7.347880794884120722E-16, 5.000000000000000000 ) ) ;
#3 = VECTOR ( 'NONE', #86, 1000.000000000000000 ) ;
#4 = PRODUCT_DEFINITION_SHAPE ( 'NONE', 'NONE',  #195 ) ;
#5 = LINE ( 'NONE', #129, #190 ) ;
#6 = EDGE_CURVE ( 'NONE', #64, #301, #165, .T. ) ;
#7 = CIRCLE ( 'NONE', #265, 6.000000000000000888 ) ;
#8 = LOCAL_TIME ( 11, 51, 15.00000000000000000, #210 ) ;
#9 = ORIENTED_EDGE ( 'NONE', *, *, #268, .F. ) ;
#10 = CIRCLE ( 'NONE', #45, 3.750000000000000000 ) ;
#11 = ORIENTED_EDGE ( 'NONE', *, *, #106, .F. ) ;
#12 = VERTEX_POINT ( 'NONE', #114 ) ;
#13 = VECTOR ( 'NONE', #257, 1000.000000000000000 ) ;
#14 = ORIENTED_EDGE ( 'NONE', *, *, #285, .T. ) ;
#15 = CIRCLE ( 'NONE', #207, 3.750000000000000000 ) ;
#16 = EDGE_LOOP ( 'NONE', ( #294, #264, #156, #247 ) ) ;
#17 = CARTESIAN_POINT ( 'NONE',  ( -3.750000000000000000, 0.000000000000000000, 130.0000000000000000 ) ) ;
#18 = APPROVAL_DATE_TIME ( #238, #152 ) ;
#19 = DIRECTION ( 'NONE',  ( 1.000000000000000000, 0.000000000000000000, 0.000000000000000000 ) ) ;
#20 = PERSON_AND_ORGANIZATION_ROLE ( 'creator' ) ;
#21 = AXIS2_PLACEMENT_3D ( 'NONE', #171, #56, #149 ) ;
#22 = FACE_OUTER_BOUND ( 'NONE', #135, .T. ) ;
#23 = COORDINATED_UNIVERSAL_TIME_OFFSET ( 1, 0, .AHEAD. ) ;
#24 = DIRECTION ( 'NONE',  ( 1.000000000000000000, 0.000000000000000000, 0.000000000000000000 ) ) ;
#25 = COORDINATED_UNIVERSAL_TIME_OFFSET ( 1, 0, .AHEAD. ) ;
#26 = DIRECTION ( 'NONE',  ( 0.000000000000000000, 0.000000000000000000, 1.000000000000000000 ) ) ;
#27 = ADVANCED_FACE ( 'NONE', ( #73, #164 ), #226, .T. ) ;
#28 = APPLICATION_PROTOCOL_DEFINITION ( 'international standard', 'config_control_design', 1994, #39 ) ;
#29 = CARTESIAN_POINT ( 'NONE',  ( 3.750000000000000000, 4.592425496802573972E-16, 5.199999999999996625 ) ) ;
#30 = APPROVAL_PERSON_ORGANIZATION ( #252, #254, #183 ) ;
#31 = FACE_OUTER_BOUND ( 'NONE', #221, .T. ) ;
#32 = MANIFOLD_SOLID_BREP ( 'Zaoblit1', #123 ) ;
#33 = DIRECTION ( 'NONE',  ( 1.000000000000000000, 0.000000000000000000, 0.000000000000000000 ) ) ;
#34 = CIRCLE ( 'NONE', #76, 6.000000000000000888 ) ;
#35 = ADVANCED_FACE ( 'NONE', ( #44 ), #253, .T. ) ;
#36 = ORIENTED_EDGE ( 'NONE', *, *, #38, .F. ) ;
#37 = ORIENTED_EDGE ( 'NONE', *, *, #38, .T. ) ;
#38 = EDGE_CURVE ( 'NONE', #83, #248, #113, .T. ) ;
#39 = APPLICATION_CONTEXT ( 'configuration controlled 3d designs of mechanical parts and assemblies' ) ;
#40 = DIRECTION ( 'NONE',  ( -0.000000000000000000, -0.000000000000000000, -1.000000000000000000 ) ) ;
#41 = CC_DESIGN_PERSON_AND_ORGANIZATION_ASSIGNMENT ( #98, #88, ( #271 ) ) ;
#42 = APPROVAL_STATUS ( 'not_yet_approved' ) ;
#43 = CARTESIAN_POINT ( 'NONE',  ( 0.000000000000000000, 0.000000000000000000, 5.000000000000000000 ) ) ;
#44 = FACE_OUTER_BOUND ( 'NONE', #84, .T. ) ;
#45 = AXIS2_PLACEMENT_3D ( 'NONE', #284, #101, #124 ) ;
#46 = VERTEX_POINT ( 'NONE', #145 ) ;
#47 = ADVANCED_FACE ( 'NONE', ( #232 ), #251, .T. ) ;
#48 = CARTESIAN_POINT ( 'NONE',  ( -6.000000000000000888, 0.000000000000000000, 5.000000000000000000 ) ) ;
#49 = PERSON_AND_ORGANIZATION_ROLE ( 'classification_officer' ) ;
#50 = CARTESIAN_POINT ( 'NONE',  ( 6.000000000000000888, 7.347880794884120722E-16, 0.000000000000000000 ) ) ;
#51 = CIRCLE ( 'NONE', #87, 6.000000000000000888 ) ;
#52 = LOCAL_TIME ( 11, 51, 15.00000000000000000, #25 ) ;
#53 = CARTESIAN_POINT ( 'NONE',  ( 0.000000000000000000, 0.000000000000000000, 5.199999999999996625 ) ) ;
#54 = EDGE_CURVE ( 'NONE', #248, #301, #286, .T. ) ;
#55 = DIRECTION ( 'NONE',  ( -0.000000000000000000, -0.000000000000000000, -1.000000000000000000 ) ) ;
#56 = DIRECTION ( 'NONE',  ( 0.000000000000000000, 0.000000000000000000, 1.000000000000000000 ) ) ;
#57 = AXIS2_PLACEMENT_3D ( 'NONE', #167, #143, #182 ) ;
#58 = AXIS2_PLACEMENT_3D ( 'NONE', #78, #188, #33 ) ;
#59 = CC_DESIGN_PERSON_AND_ORGANIZATION_ASSIGNMENT ( #205, #20, ( #195 ) ) ;
#60 = ORIENTED_EDGE ( 'NONE', *, *, #244, .T. ) ;
#61 = ORIENTED_EDGE ( 'NONE', *, *, #106, .T. ) ;
#62 = AXIS2_PLACEMENT_3D ( 'NONE', #298, #116, #69 ) ;
#63 = EDGE_CURVE ( 'NONE', #193, #64, #65, .T. ) ;
#64 = VERTEX_POINT ( 'NONE', #95 ) ;
#65 = CIRCLE ( 'NONE', #62, 0.1999999999999996503 ) ;
#66 = DIRECTION ( 'NONE',  ( 1.000000000000000000, 0.000000000000000000, 0.000000000000000000 ) ) ;
#67 = FACE_OUTER_BOUND ( 'NONE', #178, .T. ) ;
#68 = DATE_TIME_ROLE ( 'creation_date' ) ;
#69 = DIRECTION ( 'NONE',  ( 0.000000000000000000, 0.000000000000000000, -1.000000000000000000 ) ) ;
#70 = PERSON_AND_ORGANIZATION ( #107, #79 ) ;
#71 = VERTEX_POINT ( 'NONE', #48 ) ;
#72 = EDGE_CURVE ( 'NONE', #71, #46, #51, .T. ) ;
#73 = FACE_BOUND ( 'NONE', #199, .T. ) ;
#74 = PLANE ( 'NONE',  #21 ) ;
#75 = PRODUCT_RELATED_PRODUCT_CATEGORY ( 'detail', '', ( #103 ) ) ;
#76 = AXIS2_PLACEMENT_3D ( 'NONE', #132, #26, #1 ) ;
#77 = PLANE ( 'NONE',  #233 ) ;
#78 = CARTESIAN_POINT ( 'NONE',  ( 0.000000000000000000, 0.000000000000000000, 130.0000000000000000 ) ) ;
#79 = ORGANIZATION ( 'NEURÈENÝ', 'NEURÈENÝ', '' ) ;
#80 = ORIENTED_EDGE ( 'NONE', *, *, #281, .T. ) ;
#81 = VERTEX_POINT ( 'NONE', #121 ) ;
#82 = UNCERTAINTY_MEASURE_WITH_UNIT (LENGTH_MEASURE( 1.000000000000000082E-05 ), #173, 'distance_accuracy_value', 'NONE');
#83 = VERTEX_POINT ( 'NONE', #17 ) ;
#84 = EDGE_LOOP ( 'NONE', ( #11, #155, #37, #266 ) ) ;
#85 = APPLICATION_CONTEXT ( 'configuration controlled 3d designs of mechanical parts and assemblies' ) ;
#86 = DIRECTION ( 'NONE',  ( -0.000000000000000000, -0.000000000000000000, -1.000000000000000000 ) ) ;
#87 = AXIS2_PLACEMENT_3D ( 'NONE', #237, #136, #24 ) ;
#88 = PERSON_AND_ORGANIZATION_ROLE ( 'design_supplier' ) ;
#89 = ADVANCED_FACE ( 'NONE', ( #67 ), #93, .T. ) ;
#90 = CARTESIAN_POINT ( 'NONE',  ( 0.000000000000000000, 0.000000000000000000, 5.000000000000000000 ) ) ;
#91 = CC_DESIGN_APPROVAL ( #295, ( #271 ) ) ;
#92 = SECURITY_CLASSIFICATION ( '', '', #270 ) ;
#93 = CYLINDRICAL_SURFACE ( 'NONE', #230, 6.000000000000000888 ) ;
#94 = COORDINATED_UNIVERSAL_TIME_OFFSET ( 1, 0, .AHEAD. ) ;
#95 = CARTESIAN_POINT ( 'NONE',  ( 3.949999999999999734, 0.000000000000000000, 4.999999999999998224 ) ) ;
#96 = APPROVAL_DATE_TIME ( #306, #254 ) ;
#97 = DIRECTION ( 'NONE',  ( 0.000000000000000000, 0.000000000000000000, 1.000000000000000000 ) ) ;
#98 = PERSON_AND_ORGANIZATION ( #107, #79 ) ;
#99 = CARTESIAN_POINT ( 'NONE',  ( -3.750000000000000000, 0.000000000000000000, 5.199999999999996625 ) ) ;
#100 = ADVANCED_FACE ( 'NONE', ( #22 ), #206, .T. ) ;
#101 = DIRECTION ( 'NONE',  ( 0.000000000000000000, 0.000000000000000000, 1.000000000000000000 ) ) ;
#102 = CARTESIAN_POINT ( 'NONE',  ( 0.000000000000000000, 0.000000000000000000, 0.000000000000000000 ) ) ;
#103 = PRODUCT ( '0469', '0469', '', ( #299 ) ) ;
#104 = CIRCLE ( 'NONE', #58, 3.750000000000000000 ) ;
#105 = DIRECTION ( 'NONE',  ( -0.000000000000000000, -0.000000000000000000, -1.000000000000000000 ) ) ;
#106 = EDGE_CURVE ( 'NONE', #12, #193, #180, .T. ) ;
#107 = PERSON ( 'NEURÈENÝ', 'NEURÈENÝ', 'NEURÈENÝ', ('NEURÈENÝ'), ('NEURÈENÝ'), ('NEURÈENÝ') ) ;
#108 = LOCAL_TIME ( 11, 51, 15.00000000000000000, #23 ) ;
#109 = ORIENTED_EDGE ( 'NONE', *, *, #54, .T. ) ;
#110 = ORIENTED_EDGE ( 'NONE', *, *, #118, .T. ) ;
#111 = ORIENTED_EDGE ( 'NONE', *, *, #63, .F. ) ;
#112 = CC_DESIGN_SECURITY_CLASSIFICATION ( #92, ( #271 ) ) ;
#113 = LINE ( 'NONE', #184, #13 ) ;
#114 = CARTESIAN_POINT ( 'NONE',  ( 3.750000000000000000, 4.592425496802573972E-16, 130.0000000000000000 ) ) ;
#115 = PERSON_AND_ORGANIZATION ( #107, #79 ) ;
#116 = DIRECTION ( 'NONE',  ( 0.000000000000000000, -1.000000000000000000, 0.000000000000000000 ) ) ;
#117 = AXIS2_PLACEMENT_3D ( 'NONE', #274, #97, #66 ) ;
#118 = EDGE_CURVE ( 'NONE', #245, #81, #141, .T. ) ;
#119 = CARTESIAN_POINT ( 'NONE',  ( -3.949999999999999734, 4.837354856632044071E-16, 5.199999999999996625 ) ) ;
#120 = CALENDAR_DATE ( 2022, 20, 6 ) ;
#121 = CARTESIAN_POINT ( 'NONE',  ( -6.000000000000000888, 0.000000000000000000, 0.000000000000000000 ) ) ;
#122 = PERSON_AND_ORGANIZATION ( #107, #79 ) ;
#123 = CLOSED_SHELL ( 'NONE', ( #290, #47, #100, #89, #27, #172, #35, #224, #263 ) ) ;
#124 = DIRECTION ( 'NONE',  ( 1.000000000000000000, 0.000000000000000000, 0.000000000000000000 ) ) ;
#125 = AXIS2_PLACEMENT_3D ( 'NONE', #215, #191, #243 ) ;
#126 = DATE_AND_TIME ( #276, #52 ) ;
#127 = DIRECTION ( 'NONE',  ( 1.000000000000000000, 0.000000000000000000, -0.000000000000000000 ) ) ;
#128 = EDGE_CURVE ( 'NONE', #248, #193, #15, .T. ) ;
#129 = CARTESIAN_POINT ( 'NONE',  ( -6.000000000000000888, 0.000000000000000000, 5.000000000000000000 ) ) ;
#130 = FACE_OUTER_BOUND ( 'NONE', #223, .T. ) ;
#131 = TOROIDAL_SURFACE ( 'NONE', #201, 3.949999999999999734, 0.2000000000000000111 ) ;
#132 = CARTESIAN_POINT ( 'NONE',  ( 0.000000000000000000, 0.000000000000000000, 0.000000000000000000 ) ) ;
#133 = ORIENTED_EDGE ( 'NONE', *, *, #275, .F. ) ;
#134 = EDGE_LOOP ( 'NONE', ( #197, #176 ) ) ;
#135 = EDGE_LOOP ( 'NONE', ( #291, #262, #110, #9 ) ) ;
#136 = DIRECTION ( 'NONE',  ( 0.000000000000000000, 0.000000000000000000, 1.000000000000000000 ) ) ;
#137 = CALENDAR_DATE ( 2022, 20, 6 ) ;
#138 = CARTESIAN_POINT ( 'NONE',  ( 0.000000000000000000, 0.000000000000000000, 5.000000000000000000 ) ) ;
#139 = DIRECTION ( 'NONE',  ( 1.000000000000000000, 0.000000000000000000, 0.000000000000000000 ) ) ;
#140 = DIRECTION ( 'NONE',  ( 1.000000000000000000, 0.000000000000000000, 0.000000000000000000 ) ) ;
#141 = CIRCLE ( 'NONE', #117, 6.000000000000000888 ) ;
#142 = PERSON_AND_ORGANIZATION_ROLE ( 'design_owner' ) ;
#143 = DIRECTION ( 'NONE',  ( -0.000000000000000000, -0.000000000000000000, -1.000000000000000000 ) ) ;
#144 = CARTESIAN_POINT ( 'NONE',  ( 0.000000000000000000, 0.000000000000000000, 0.000000000000000000 ) ) ;
#145 = CARTESIAN_POINT ( 'NONE',  ( 6.000000000000000888, 7.347880794884120722E-16, 5.000000000000000000 ) ) ;
#146 = DIRECTION ( 'NONE',  ( 0.000000000000000000, 0.000000000000000000, 1.000000000000000000 ) ) ;
#147 = EDGE_CURVE ( 'NONE', #46, #71, #7, .T. ) ;
#148 = APPROVAL_PERSON_ORGANIZATION ( #70, #295, #160 ) ;
#149 = DIRECTION ( 'NONE',  ( 1.000000000000000000, 0.000000000000000000, -0.000000000000000000 ) ) ;
#150 = CARTESIAN_POINT ( 'NONE',  ( 0.000000000000000000, 0.000000000000000000, 130.0000000000000000 ) ) ;
#151 = ORIENTED_EDGE ( 'NONE', *, *, #6, .T. ) ;
#152 = APPROVAL ( #42, 'NEURÈENÝ' ) ;
#153 = EDGE_LOOP ( 'NONE', ( #196, #61, #14, #36 ) ) ;
#154 = TOROIDAL_SURFACE ( 'NONE', #177, 3.949999999999999734, 0.2000000000000000111 ) ;
#155 = ORIENTED_EDGE ( 'NONE', *, *, #281, .F. ) ;
#156 = ORIENTED_EDGE ( 'NONE', *, *, #63, .T. ) ;
#157 = DESIGN_CONTEXT ( 'detailed design', #85, 'design' ) ;
#158 = CARTESIAN_POINT ( 'NONE',  ( 0.000000000000000000, 0.000000000000000000, 5.199999999999996625 ) ) ;
#159 = LOCAL_TIME ( 11, 51, 15.00000000000000000, #304 ) ;
#160 = APPROVAL_ROLE ( '' ) ;
#161 = DIRECTION ( 'NONE',  ( 1.000000000000000000, 0.000000000000000000, 0.000000000000000000 ) ) ;
#162 = CC_DESIGN_PERSON_AND_ORGANIZATION_ASSIGNMENT ( #115, #142, ( #103 ) ) ;
#163 = APPROVAL_STATUS ( 'not_yet_approved' ) ;
#164 = FACE_OUTER_BOUND ( 'NONE', #134, .T. ) ;
#165 = CIRCLE ( 'NONE', #246, 3.949999999999999734 ) ;
#166 = CALENDAR_DATE ( 2022, 20, 6 ) ;
#167 = CARTESIAN_POINT ( 'NONE',  ( 0.000000000000000000, 0.000000000000000000, 130.0000000000000000 ) ) ;
#168 = LOCAL_TIME ( 11, 51, 15.00000000000000000, #94 ) ;
#169 = DIRECTION ( 'NONE',  ( 0.000000000000000000, 0.000000000000000000, 1.000000000000000000 ) ) ;
#170 = APPLICATION_PROTOCOL_DEFINITION ( 'international standard', 'config_control_design', 1994, #85 ) ;
#171 = CARTESIAN_POINT ( 'NONE',  ( 0.000000000000000000, 0.000000000000000000, 130.0000000000000000 ) ) ;
#172 = ADVANCED_FACE ( 'NONE', ( #130 ), #77, .F. ) ;
#173 =( LENGTH_UNIT ( ) NAMED_UNIT ( * ) SI_UNIT ( .MILLI., .METRE. ) );
#174 =( GEOMETRIC_REPRESENTATION_CONTEXT ( 3 ) GLOBAL_UNCERTAINTY_ASSIGNED_CONTEXT ( ( #82 ) ) GLOBAL_UNIT_ASSIGNED_CONTEXT ( ( #173, #260, #283 ) ) REPRESENTATION_CONTEXT ( 'NONE', 'WORKASPACE' ) );
#175 = ORIENTED_EDGE ( 'NONE', *, *, #216, .T. ) ;
#176 = ORIENTED_EDGE ( 'NONE', *, *, #147, .T. ) ;
#177 = AXIS2_PLACEMENT_3D ( 'NONE', #212, #146, #239 ) ;
#178 = EDGE_LOOP ( 'NONE', ( #133, #277, #293, #60 ) ) ;
#179 = CARTESIAN_POINT ( 'NONE',  ( 0.000000000000000000, 0.000000000000000000, 5.000000000000000000 ) ) ;
#180 = LINE ( 'NONE', #305, #3 ) ;
#181 = VECTOR ( 'NONE', #105, 1000.000000000000000 ) ;
#182 = DIRECTION ( 'NONE',  ( -1.000000000000000000, 0.000000000000000000, 0.000000000000000000 ) ) ;
#183 = APPROVAL_ROLE ( '' ) ;
#184 = CARTESIAN_POINT ( 'NONE',  ( -3.750000000000000000, 0.000000000000000000, 130.0000000000000000 ) ) ;
#185 = SHAPE_DEFINITION_REPRESENTATION ( #4, #287 ) ;
#186 = DIRECTION ( 'NONE',  ( 0.000000000000000000, 0.000000000000000000, 1.000000000000000000 ) ) ;
#187 = AXIS2_PLACEMENT_3D ( 'NONE', #150, #218, #307 ) ;
#188 = DIRECTION ( 'NONE',  ( 0.000000000000000000, 0.000000000000000000, 1.000000000000000000 ) ) ;
#189 = DIRECTION ( 'NONE',  ( 1.000000000000000000, 0.000000000000000000, 0.000000000000000000 ) ) ;
#190 = VECTOR ( 'NONE', #55, 1000.000000000000000 ) ;
#191 = DIRECTION ( 'NONE',  ( -0.000000000000000000, -0.000000000000000000, -1.000000000000000000 ) ) ;
#192 = AXIS2_PLACEMENT_3D ( 'NONE', #119, #272, #209 ) ;
#193 = VERTEX_POINT ( 'NONE', #29 ) ;
#194 = CC_DESIGN_APPROVAL ( #152, ( #195 ) ) ;
#195 = PRODUCT_DEFINITION ( 'NEZNÁMÝ', '', #271, #157 ) ;
#196 = ORIENTED_EDGE ( 'NONE', *, *, #219, .F. ) ;
#197 = ORIENTED_EDGE ( 'NONE', *, *, #72, .T. ) ;
#198 = AXIS2_PLACEMENT_3D ( 'NONE', #43, #169, #204 ) ;
#199 = EDGE_LOOP ( 'NONE', ( #151, #175 ) ) ;
#200 = CC_DESIGN_DATE_AND_TIME_ASSIGNMENT ( #250, #68, ( #195 ) ) ;
#201 = AXIS2_PLACEMENT_3D ( 'NONE', #53, #261, #189 ) ;
#202 = ORIENTED_EDGE ( 'NONE', *, *, #244, .F. ) ;
#203 = DIRECTION ( 'NONE',  ( -0.000000000000000000, -0.000000000000000000, -1.000000000000000000 ) ) ;
#204 = DIRECTION ( 'NONE',  ( 1.000000000000000000, 0.000000000000000000, -0.000000000000000000 ) ) ;
#205 = PERSON_AND_ORGANIZATION ( #107, #79 ) ;
#206 = CYLINDRICAL_SURFACE ( 'NONE', #259, 6.000000000000000888 ) ;
#207 = AXIS2_PLACEMENT_3D ( 'NONE', #158, #186, #161 ) ;
#208 = DATE_AND_TIME ( #137, #168 ) ;
#209 = DIRECTION ( 'NONE',  ( -1.000000000000000000, 1.224646799147353454E-16, 0.000000000000000000 ) ) ;
#210 = COORDINATED_UNIVERSAL_TIME_OFFSET ( 1, 0, .AHEAD. ) ;
#211 = DIRECTION ( 'NONE',  ( -1.000000000000000000, 0.000000000000000000, 0.000000000000000000 ) ) ;
#212 = CARTESIAN_POINT ( 'NONE',  ( 0.000000000000000000, 0.000000000000000000, 5.199999999999996625 ) ) ;
#213 = AXIS2_PLACEMENT_3D ( 'NONE', #144, #273, #139 ) ;
#214 = CC_DESIGN_APPROVAL ( #254, ( #92 ) ) ;
#215 = CARTESIAN_POINT ( 'NONE',  ( 0.000000000000000000, 0.000000000000000000, 5.000000000000000000 ) ) ;
#216 = EDGE_CURVE ( 'NONE', #301, #64, #278, .T. ) ;
#217 = CARTESIAN_POINT ( 'NONE',  ( -3.949999999999999734, 4.837354856632044071E-16, 4.999999999999998224 ) ) ;
#218 = DIRECTION ( 'NONE',  ( 0.000000000000000000, 0.000000000000000000, 1.000000000000000000 ) ) ;
#219 = EDGE_CURVE ( 'NONE', #12, #83, #222, .T. ) ;
#220 = AXIS2_PLACEMENT_3D ( 'NONE', #255, #203, #279 ) ;
#221 = EDGE_LOOP ( 'NONE', ( #80, #225 ) ) ;
#222 = CIRCLE ( 'NONE', #187, 3.750000000000000000 ) ;
#223 = EDGE_LOOP ( 'NONE', ( #202, #288 ) ) ;
#224 = ADVANCED_FACE ( 'NONE', ( #31 ), #74, .T. ) ;
#225 = ORIENTED_EDGE ( 'NONE', *, *, #219, .T. ) ;
#226 = PLANE ( 'NONE',  #198 ) ;
#227 = CC_DESIGN_DATE_AND_TIME_ASSIGNMENT ( #208, #228, ( #92 ) ) ;
#228 = DATE_TIME_ROLE ( 'classification_date' ) ;
#229 = DIRECTION ( 'NONE',  ( 0.000000000000000000, 0.000000000000000000, 1.000000000000000000 ) ) ;
#230 = AXIS2_PLACEMENT_3D ( 'NONE', #303, #235, #296 ) ;
#231 = APPROVAL_ROLE ( '' ) ;
#232 = FACE_OUTER_BOUND ( 'NONE', #153, .T. ) ;
#233 = AXIS2_PLACEMENT_3D ( 'NONE', #102, #242, #127 ) ;
#234 = PERSON_AND_ORGANIZATION ( #107, #79 ) ;
#235 = DIRECTION ( 'NONE',  ( -0.000000000000000000, -0.000000000000000000, -1.000000000000000000 ) ) ;
#236 = CALENDAR_DATE ( 2022, 20, 6 ) ;
#237 = CARTESIAN_POINT ( 'NONE',  ( 0.000000000000000000, 0.000000000000000000, 5.000000000000000000 ) ) ;
#238 = DATE_AND_TIME ( #236, #159 ) ;
#239 = DIRECTION ( 'NONE',  ( 1.000000000000000000, 0.000000000000000000, 0.000000000000000000 ) ) ;
#240 = CC_DESIGN_PERSON_AND_ORGANIZATION_ASSIGNMENT ( #122, #297, ( #271 ) ) ;
#241 = LINE ( 'NONE', #2, #181 ) ;
#242 = DIRECTION ( 'NONE',  ( 0.000000000000000000, 0.000000000000000000, 1.000000000000000000 ) ) ;
#243 = DIRECTION ( 'NONE',  ( 1.000000000000000000, 0.000000000000000000, 0.000000000000000000 ) ) ;
#244 = EDGE_CURVE ( 'NONE', #81, #245, #34, .T. ) ;
#245 = VERTEX_POINT ( 'NONE', #50 ) ;
#246 = AXIS2_PLACEMENT_3D ( 'NONE', #90, #40, #140 ) ;
#247 = ORIENTED_EDGE ( 'NONE', *, *, #216, .F. ) ;
#248 = VERTEX_POINT ( 'NONE', #99 ) ;
#249 = DIRECTION ( 'NONE',  ( -0.000000000000000000, -0.000000000000000000, -1.000000000000000000 ) ) ;
#250 = DATE_AND_TIME ( #120, #108 ) ;
#251 = CYLINDRICAL_SURFACE ( 'NONE', #220, 3.750000000000000000 ) ;
#252 = PERSON_AND_ORGANIZATION ( #107, #79 ) ;
#253 = CYLINDRICAL_SURFACE ( 'NONE', #57, 3.750000000000000000 ) ;
#254 = APPROVAL ( #302, 'NEURÈENÝ' ) ;
#255 = CARTESIAN_POINT ( 'NONE',  ( 0.000000000000000000, 0.000000000000000000, 130.0000000000000000 ) ) ;
#256 = PERSON_AND_ORGANIZATION ( #107, #79 ) ;
#257 = DIRECTION ( 'NONE',  ( -0.000000000000000000, -0.000000000000000000, -1.000000000000000000 ) ) ;
#258 = APPROVAL_DATE_TIME ( #126, #295 ) ;
#259 = AXIS2_PLACEMENT_3D ( 'NONE', #179, #249, #211 ) ;
#260 =( NAMED_UNIT ( * ) PLANE_ANGLE_UNIT ( ) SI_UNIT ( $, .RADIAN. ) );
#261 = DIRECTION ( 'NONE',  ( 0.000000000000000000, 0.000000000000000000, 1.000000000000000000 ) ) ;
#262 = ORIENTED_EDGE ( 'NONE', *, *, #275, .T. ) ;
#263 = ADVANCED_FACE ( 'NONE', ( #282 ), #154, .F. ) ;
#264 = ORIENTED_EDGE ( 'NONE', *, *, #285, .F. ) ;
#265 = AXIS2_PLACEMENT_3D ( 'NONE', #138, #229, #19 ) ;
#266 = ORIENTED_EDGE ( 'NONE', *, *, #128, .T. ) ;
#267 = ORIENTED_EDGE ( 'NONE', *, *, #128, .F. ) ;
#268 = EDGE_CURVE ( 'NONE', #71, #81, #5, .T. ) ;
#269 = EDGE_LOOP ( 'NONE', ( #267, #109, #292, #111 ) ) ;
#270 = SECURITY_CLASSIFICATION_LEVEL ( 'unclassified' ) ;
#271 = PRODUCT_DEFINITION_FORMATION_WITH_SPECIFIED_SOURCE ( 'LIBOVOLNÝ', '', #103, .NOT_KNOWN. ) ;
#272 = DIRECTION ( 'NONE',  ( 1.224646799147353207E-16, 1.000000000000000000, -0.000000000000000000 ) ) ;
#273 = DIRECTION ( 'NONE',  ( 0.000000000000000000, 0.000000000000000000, 1.000000000000000000 ) ) ;
#274 = CARTESIAN_POINT ( 'NONE',  ( 0.000000000000000000, 0.000000000000000000, 0.000000000000000000 ) ) ;
#275 = EDGE_CURVE ( 'NONE', #46, #245, #241, .T. ) ;
#276 = CALENDAR_DATE ( 2022, 20, 6 ) ;
#277 = ORIENTED_EDGE ( 'NONE', *, *, #72, .F. ) ;
#278 = CIRCLE ( 'NONE', #125, 3.949999999999999734 ) ;
#279 = DIRECTION ( 'NONE',  ( -1.000000000000000000, 0.000000000000000000, 0.000000000000000000 ) ) ;
#280 = FACE_OUTER_BOUND ( 'NONE', #269, .T. ) ;
#281 = EDGE_CURVE ( 'NONE', #83, #12, #104, .T. ) ;
#282 = FACE_OUTER_BOUND ( 'NONE', #16, .T. ) ;
#283 =( NAMED_UNIT ( * ) SI_UNIT ( $, .STERADIAN. ) SOLID_ANGLE_UNIT ( ) );
#284 = CARTESIAN_POINT ( 'NONE',  ( 0.000000000000000000, 0.000000000000000000, 5.199999999999996625 ) ) ;
#285 = EDGE_CURVE ( 'NONE', #193, #248, #10, .T. ) ;
#286 = CIRCLE ( 'NONE', #192, 0.1999999999999996503 ) ;
#287 = ADVANCED_BREP_SHAPE_REPRESENTATION ( '0469', ( #32, #213 ), #174 ) ;
#288 = ORIENTED_EDGE ( 'NONE', *, *, #118, .F. ) ;
#289 = APPROVAL_PERSON_ORGANIZATION ( #234, #152, #231 ) ;
#290 = ADVANCED_FACE ( 'NONE', ( #280 ), #131, .F. ) ;
#291 = ORIENTED_EDGE ( 'NONE', *, *, #147, .F. ) ;
#292 = ORIENTED_EDGE ( 'NONE', *, *, #6, .F. ) ;
#293 = ORIENTED_EDGE ( 'NONE', *, *, #268, .T. ) ;
#294 = ORIENTED_EDGE ( 'NONE', *, *, #54, .F. ) ;
#295 = APPROVAL ( #163, 'NEURÈENÝ' ) ;
#296 = DIRECTION ( 'NONE',  ( -1.000000000000000000, 0.000000000000000000, 0.000000000000000000 ) ) ;
#297 = PERSON_AND_ORGANIZATION_ROLE ( 'creator' ) ;
#298 = CARTESIAN_POINT ( 'NONE',  ( 3.949999999999999734, 0.000000000000000000, 5.199999999999996625 ) ) ;
#299 = MECHANICAL_CONTEXT ( 'NONE', #39, 'mechanical' ) ;
#300 = CC_DESIGN_PERSON_AND_ORGANIZATION_ASSIGNMENT ( #256, #49, ( #92 ) ) ;
#301 = VERTEX_POINT ( 'NONE', #217 ) ;
#302 = APPROVAL_STATUS ( 'not_yet_approved' ) ;
#303 = CARTESIAN_POINT ( 'NONE',  ( 0.000000000000000000, 0.000000000000000000, 5.000000000000000000 ) ) ;
#304 = COORDINATED_UNIVERSAL_TIME_OFFSET ( 1, 0, .AHEAD. ) ;
#305 = CARTESIAN_POINT ( 'NONE',  ( 3.750000000000000000, 4.592425496802573972E-16, 130.0000000000000000 ) ) ;
#306 = DATE_AND_TIME ( #166, #8 ) ;
#307 = DIRECTION ( 'NONE',  ( 1.000000000000000000, 0.000000000000000000, 0.000000000000000000 ) ) ;
ENDSEC;
END-ISO-10303-21;
