ISO-10303-21;
HEADER;
FILE_DESCRIPTION (( 'STEP AP203' ),
    '1' );
FILE_NAME ('f23f.STEP',
    '2022-06-20T09:41:56',
    ( '' ),
    ( '' ),
    'SwSTEP 2.0',
    'SolidWorks 2019',
    '' );
FILE_SCHEMA (( 'CONFIG_CONTROL_DESIGN' ));
ENDSEC;

DATA;
#1 = FACE_OUTER_BOUND ( 'NONE', #100, .T. ) ;
#2 = VECTOR ( 'NONE', #215, 1000.000000000000000 ) ;
#3 = CARTESIAN_POINT ( 'NONE',  ( 0.000000000000000000, 0.000000000000000000, 5.000000000000000000 ) ) ;
#4 = EDGE_CURVE ( 'NONE', #104, #270, #303, .T. ) ;
#5 = DIRECTION ( 'NONE',  ( -0.000000000000000000, -0.000000000000000000, -1.000000000000000000 ) ) ;
#6 = CARTESIAN_POINT ( 'NONE',  ( 0.000000000000000000, 0.000000000000000000, 0.000000000000000000 ) ) ;
#7 = DATE_AND_TIME ( #34, #144 ) ;
#8 = CC_DESIGN_PERSON_AND_ORGANIZATION_ASSIGNMENT ( #227, #268, ( #290 ) ) ;
#9 = APPLICATION_PROTOCOL_DEFINITION ( 'international standard', 'config_control_design', 1994, #184 ) ;
#10 = AXIS2_PLACEMENT_3D ( 'NONE', #23, #280, #45 ) ;
#11 = PERSON_AND_ORGANIZATION_ROLE ( 'design_owner' ) ;
#12 = AXIS2_PLACEMENT_3D ( 'NONE', #95, #142, #192 ) ;
#13 = CC_DESIGN_APPROVAL ( #203, ( #290 ) ) ;
#14 = ORIENTED_EDGE ( 'NONE', *, *, #216, .T. ) ;
#15 = PERSON_AND_ORGANIZATION ( #283, #96 ) ;
#16 = PERSON_AND_ORGANIZATION ( #283, #96 ) ;
#17 = CIRCLE ( 'NONE', #115, 5.000000000000000888 ) ;
#18 = CIRCLE ( 'NONE', #32, 8.000000000000000000 ) ;
#19 = CARTESIAN_POINT ( 'NONE',  ( 5.200000000000001066, 0.000000000000000000, 5.199999999999996625 ) ) ;
#20 = EDGE_CURVE ( 'NONE', #104, #235, #36, .T. ) ;
#21 = DIRECTION ( 'NONE',  ( -0.000000000000000000, -0.000000000000000000, -1.000000000000000000 ) ) ;
#22 = APPLICATION_CONTEXT ( 'configuration controlled 3d designs of mechanical parts and assemblies' ) ;
#23 = CARTESIAN_POINT ( 'NONE',  ( 0.000000000000000000, 0.000000000000000000, 5.199999999999996625 ) ) ;
#24 = DIRECTION ( 'NONE',  ( 0.000000000000000000, 0.000000000000000000, 1.000000000000000000 ) ) ;
#25 = DIRECTION ( 'NONE',  ( -0.000000000000000000, -0.000000000000000000, -1.000000000000000000 ) ) ;
#26 = ADVANCED_FACE ( 'NONE', ( #117 ), #82, .T. ) ;
#27 = FACE_OUTER_BOUND ( 'NONE', #181, .T. ) ;
#28 = CARTESIAN_POINT ( 'NONE',  ( 0.000000000000000000, 0.000000000000000000, 5.199999999999996625 ) ) ;
#29 = DIRECTION ( 'NONE',  ( 1.000000000000000000, 0.000000000000000000, 0.000000000000000000 ) ) ;
#30 = CARTESIAN_POINT ( 'NONE',  ( 0.000000000000000000, 0.000000000000000000, 0.000000000000000000 ) ) ;
#31 = CARTESIAN_POINT ( 'NONE',  ( 5.000000000000000888, 6.123233995736767268E-16, 105.0000000000000142 ) ) ;
#32 = AXIS2_PLACEMENT_3D ( 'NONE', #6, #122, #92 ) ;
#33 = ADVANCED_FACE ( 'NONE', ( #189 ), #278, .F. ) ;
#34 = CALENDAR_DATE ( 2022, 20, 6 ) ;
#35 = MECHANICAL_CONTEXT ( 'NONE', #184, 'mechanical' ) ;
#36 = CIRCLE ( 'NONE', #10, 5.000000000000000888 ) ;
#37 = ORIENTED_EDGE ( 'NONE', *, *, #97, .F. ) ;
#38 = COORDINATED_UNIVERSAL_TIME_OFFSET ( 1, 0, .AHEAD. ) ;
#39 = EDGE_CURVE ( 'NONE', #188, #225, #70, .T. ) ;
#40 = ORIENTED_EDGE ( 'NONE', *, *, #63, .T. ) ;
#41 = ORIENTED_EDGE ( 'NONE', *, *, #151, .T. ) ;
#42 = DIRECTION ( 'NONE',  ( 1.000000000000000000, 0.000000000000000000, 0.000000000000000000 ) ) ;
#43 = CC_DESIGN_SECURITY_CLASSIFICATION ( #187, ( #290 ) ) ;
#44 = CARTESIAN_POINT ( 'NONE',  ( 0.000000000000000000, 0.000000000000000000, 5.199999999999996625 ) ) ;
#45 = DIRECTION ( 'NONE',  ( 1.000000000000000000, 0.000000000000000000, 0.000000000000000000 ) ) ;
#46 = CARTESIAN_POINT ( 'NONE',  ( 0.000000000000000000, 0.000000000000000000, 105.0000000000000142 ) ) ;
#47 = CC_DESIGN_DATE_AND_TIME_ASSIGNMENT ( #129, #107, ( #208 ) ) ;
#48 = DIRECTION ( 'NONE',  ( -1.000000000000000000, 0.000000000000000000, 0.000000000000000000 ) ) ;
#49 = DIRECTION ( 'NONE',  ( 0.000000000000000000, 0.000000000000000000, 1.000000000000000000 ) ) ;
#50 = PLANE ( 'NONE',  #12 ) ;
#51 = CARTESIAN_POINT ( 'NONE',  ( 0.000000000000000000, 0.000000000000000000, 5.000000000000000000 ) ) ;
#52 = PLANE ( 'NONE',  #149 ) ;
#53 = PRODUCT_DEFINITION_SHAPE ( 'NONE', 'NONE',  #208 ) ;
#54 = APPROVAL_PERSON_ORGANIZATION ( #15, #203, #182 ) ;
#55 = PERSON_AND_ORGANIZATION_ROLE ( 'classification_officer' ) ;
#56 = APPROVAL_DATE_TIME ( #7, #193 ) ;
#57 = ORIENTED_EDGE ( 'NONE', *, *, #233, .F. ) ;
#58 = EDGE_CURVE ( 'NONE', #225, #188, #250, .T. ) ;
#59 = AXIS2_PLACEMENT_3D ( 'NONE', #237, #185, #86 ) ;
#60 = CIRCLE ( 'NONE', #281, 8.000000000000000000 ) ;
#61 = VERTEX_POINT ( 'NONE', #87 ) ;
#62 = ORIENTED_EDGE ( 'NONE', *, *, #58, .T. ) ;
#63 = EDGE_CURVE ( 'NONE', #235, #104, #17, .T. ) ;
#64 = CARTESIAN_POINT ( 'NONE',  ( 0.000000000000000000, 0.000000000000000000, 5.000000000000000000 ) ) ;
#65 = VERTEX_POINT ( 'NONE', #304 ) ;
#66 = ADVANCED_FACE ( 'NONE', ( #135 ), #214, .T. ) ;
#67 = ORIENTED_EDGE ( 'NONE', *, *, #63, .F. ) ;
#68 = VERTEX_POINT ( 'NONE', #112 ) ;
#69 = LINE ( 'NONE', #218, #157 ) ;
#70 = CIRCLE ( 'NONE', #272, 5.000000000000000888 ) ;
#71 = FACE_OUTER_BOUND ( 'NONE', #201, .T. ) ;
#72 = DIRECTION ( 'NONE',  ( -0.000000000000000000, -0.000000000000000000, -1.000000000000000000 ) ) ;
#73 = DIRECTION ( 'NONE',  ( -0.000000000000000000, -0.000000000000000000, -1.000000000000000000 ) ) ;
#74 = CC_DESIGN_APPROVAL ( #193, ( #208 ) ) ;
#75 = DIRECTION ( 'NONE',  ( 1.000000000000000000, 0.000000000000000000, 0.000000000000000000 ) ) ;
#76 = ORIENTED_EDGE ( 'NONE', *, *, #257, .T. ) ;
#77 = ORIENTED_EDGE ( 'NONE', *, *, #233, .T. ) ;
#78 = CALENDAR_DATE ( 2022, 20, 6 ) ;
#79 = APPROVAL_ROLE ( '' ) ;
#80 = APPROVAL_PERSON_ORGANIZATION ( #199, #193, #292 ) ;
#81 = ORIENTED_EDGE ( 'NONE', *, *, #288, .F. ) ;
#82 = CYLINDRICAL_SURFACE ( 'NONE', #231, 5.000000000000000888 ) ;
#83 = APPROVAL_DATE_TIME ( #160, #212 ) ;
#84 = DIRECTION ( 'NONE',  ( -1.000000000000000000, 1.224646799147353454E-16, 0.000000000000000000 ) ) ;
#85 = AXIS2_PLACEMENT_3D ( 'NONE', #146, #73, #244 ) ;
#86 = DIRECTION ( 'NONE',  ( 1.000000000000000000, 0.000000000000000000, 0.000000000000000000 ) ) ;
#87 = CARTESIAN_POINT ( 'NONE',  ( -8.000000000000000000, 0.000000000000000000, 5.000000000000000000 ) ) ;
#88 = CARTESIAN_POINT ( 'NONE',  ( 5.000000000000000888, 6.123233995736767268E-16, 5.199999999999996625 ) ) ;
#89 = PRODUCT ( 'f23f', 'f23f', '', ( #35 ) ) ;
#90 = CARTESIAN_POINT ( 'NONE',  ( 5.200000000000001066, 0.000000000000000000, 4.999999999999998224 ) ) ;
#91 = CIRCLE ( 'NONE', #186, 8.000000000000000000 ) ;
#92 = DIRECTION ( 'NONE',  ( 1.000000000000000000, 0.000000000000000000, 0.000000000000000000 ) ) ;
#93 = FACE_OUTER_BOUND ( 'NONE', #249, .T. ) ;
#94 = AXIS2_PLACEMENT_3D ( 'NONE', #136, #209, #84 ) ;
#95 = CARTESIAN_POINT ( 'NONE',  ( 0.000000000000000000, 0.000000000000000000, 0.000000000000000000 ) ) ;
#96 = ORGANIZATION ( 'NEURÈENÝ', 'NEURÈENÝ', '' ) ;
#97 = EDGE_CURVE ( 'NONE', #235, #68, #154, .T. ) ;
#98 = CARTESIAN_POINT ( 'NONE',  ( 8.000000000000000000, 9.797174393178825657E-16, 5.000000000000000000 ) ) ;
#99 = COORDINATED_UNIVERSAL_TIME_OFFSET ( 1, 0, .AHEAD. ) ;
#100 = EDGE_LOOP ( 'NONE', ( #41, #285 ) ) ;
#101 = AXIS2_PLACEMENT_3D ( 'NONE', #19, #299, #161 ) ;
#102 = CALENDAR_DATE ( 2022, 20, 6 ) ;
#103 = CC_DESIGN_PERSON_AND_ORGANIZATION_ASSIGNMENT ( #274, #174, ( #290 ) ) ;
#104 = VERTEX_POINT ( 'NONE', #88 ) ;
#105 = PERSON_AND_ORGANIZATION_ROLE ( 'creator' ) ;
#106 = ORIENTED_EDGE ( 'NONE', *, *, #4, .F. ) ;
#107 = DATE_TIME_ROLE ( 'creation_date' ) ;
#108 = PERSON_AND_ORGANIZATION ( #283, #96 ) ;
#109 = ORIENTED_EDGE ( 'NONE', *, *, #39, .F. ) ;
#110 = CC_DESIGN_DATE_AND_TIME_ASSIGNMENT ( #204, #180, ( #187 ) ) ;
#111 = ORIENTED_EDGE ( 'NONE', *, *, #39, .T. ) ;
#112 = CARTESIAN_POINT ( 'NONE',  ( -5.200000000000001066, 6.368163355566237368E-16, 4.999999999999998224 ) ) ;
#113 = CARTESIAN_POINT ( 'NONE',  ( 0.000000000000000000, 0.000000000000000000, 5.000000000000000000 ) ) ;
#114 = EDGE_CURVE ( 'NONE', #139, #61, #133, .T. ) ;
#115 = AXIS2_PLACEMENT_3D ( 'NONE', #44, #277, #42 ) ;
#116 = DESIGN_CONTEXT ( 'detailed design', #22, 'design' ) ;
#117 = FACE_OUTER_BOUND ( 'NONE', #165, .T. ) ;
#118 = APPROVAL_PERSON_ORGANIZATION ( #108, #212, #79 ) ;
#119 = CARTESIAN_POINT ( 'NONE',  ( 0.000000000000000000, 0.000000000000000000, 105.0000000000000142 ) ) ;
#120 = LINE ( 'NONE', #31, #2 ) ;
#121 = ADVANCED_FACE ( 'NONE', ( #262 ), #163, .T. ) ;
#122 = DIRECTION ( 'NONE',  ( 0.000000000000000000, 0.000000000000000000, 1.000000000000000000 ) ) ;
#123 = DIRECTION ( 'NONE',  ( 0.000000000000000000, 0.000000000000000000, 1.000000000000000000 ) ) ;
#124 = CYLINDRICAL_SURFACE ( 'NONE', #255, 5.000000000000000888 ) ;
#125 = ADVANCED_FACE ( 'NONE', ( #210 ), #50, .F. ) ;
#126 = LOCAL_TIME ( 11, 41, 56.00000000000000000, #158 ) ;
#127 = SECURITY_CLASSIFICATION_LEVEL ( 'unclassified' ) ;
#128 = AXIS2_PLACEMENT_3D ( 'NONE', #3, #5, #75 ) ;
#129 = DATE_AND_TIME ( #78, #126 ) ;
#130 = ORIENTED_EDGE ( 'NONE', *, *, #275, .F. ) ;
#131 = DATE_AND_TIME ( #178, #242 ) ;
#132 = ORIENTED_EDGE ( 'NONE', *, *, #4, .T. ) ;
#133 = CIRCLE ( 'NONE', #232, 8.000000000000000000 ) ;
#134 = EDGE_LOOP ( 'NONE', ( #206, #57 ) ) ;
#135 = FACE_OUTER_BOUND ( 'NONE', #297, .T. ) ;
#136 = CARTESIAN_POINT ( 'NONE',  ( -5.200000000000001066, 6.368163355566237368E-16, 5.199999999999996625 ) ) ;
#137 = ORIENTED_EDGE ( 'NONE', *, *, #162, .F. ) ;
#138 = DIRECTION ( 'NONE',  ( 0.000000000000000000, 0.000000000000000000, 1.000000000000000000 ) ) ;
#139 = VERTEX_POINT ( 'NONE', #98 ) ;
#140 = PRODUCT_RELATED_PRODUCT_CATEGORY ( 'detail', '', ( #89 ) ) ;
#141 = DIRECTION ( 'NONE',  ( 1.000000000000000000, 0.000000000000000000, -0.000000000000000000 ) ) ;
#142 = DIRECTION ( 'NONE',  ( 0.000000000000000000, 0.000000000000000000, 1.000000000000000000 ) ) ;
#143 = AXIS2_PLACEMENT_3D ( 'NONE', #169, #49, #141 ) ;
#144 = LOCAL_TIME ( 11, 41, 56.00000000000000000, #38 ) ;
#145 = ADVANCED_FACE ( 'NONE', ( #245, #1 ), #52, .T. ) ;
#146 = CARTESIAN_POINT ( 'NONE',  ( 0.000000000000000000, 0.000000000000000000, 5.000000000000000000 ) ) ;
#147 = CARTESIAN_POINT ( 'NONE',  ( 0.000000000000000000, 0.000000000000000000, 5.000000000000000000 ) ) ;
#148 = COORDINATED_UNIVERSAL_TIME_OFFSET ( 1, 0, .AHEAD. ) ;
#149 = AXIS2_PLACEMENT_3D ( 'NONE', #147, #243, #195 ) ;
#150 = COORDINATED_UNIVERSAL_TIME_OFFSET ( 1, 0, .AHEAD. ) ;
#151 = EDGE_CURVE ( 'NONE', #61, #139, #60, .T. ) ;
#152 =( LENGTH_UNIT ( ) NAMED_UNIT ( * ) SI_UNIT ( .MILLI., .METRE. ) );
#153 = ORIENTED_EDGE ( 'NONE', *, *, #58, .F. ) ;
#154 = CIRCLE ( 'NONE', #94, 0.1999999999999996503 ) ;
#155 = APPLICATION_PROTOCOL_DEFINITION ( 'international standard', 'config_control_design', 1994, #22 ) ;
#156 = VECTOR ( 'NONE', #287, 1000.000000000000000 ) ;
#157 = VECTOR ( 'NONE', #191, 1000.000000000000000 ) ;
#158 = COORDINATED_UNIVERSAL_TIME_OFFSET ( 1, 0, .AHEAD. ) ;
#159 = ADVANCED_FACE ( 'NONE', ( #93 ), #175, .F. ) ;
#160 = DATE_AND_TIME ( #246, #222 ) ;
#161 = DIRECTION ( 'NONE',  ( 0.000000000000000000, 0.000000000000000000, -1.000000000000000000 ) ) ;
#162 = EDGE_CURVE ( 'NONE', #61, #65, #69, .T. ) ;
#163 = CYLINDRICAL_SURFACE ( 'NONE', #196, 8.000000000000000000 ) ;
#164 = DIRECTION ( 'NONE',  ( -1.000000000000000000, 0.000000000000000000, 0.000000000000000000 ) ) ;
#165 = EDGE_LOOP ( 'NONE', ( #230, #153, #234, #40 ) ) ;
#166 = VECTOR ( 'NONE', #219, 1000.000000000000000 ) ;
#167 = DIRECTION ( 'NONE',  ( 1.000000000000000000, 0.000000000000000000, 0.000000000000000000 ) ) ;
#168 = CC_DESIGN_PERSON_AND_ORGANIZATION_ASSIGNMENT ( #16, #55, ( #187 ) ) ;
#169 = CARTESIAN_POINT ( 'NONE',  ( 0.000000000000000000, 0.000000000000000000, 105.0000000000000142 ) ) ;
#170 = CARTESIAN_POINT ( 'NONE',  ( 8.000000000000000000, 9.797174393178825657E-16, 5.000000000000000000 ) ) ;
#171 = DIRECTION ( 'NONE',  ( -1.000000000000000000, 0.000000000000000000, 0.000000000000000000 ) ) ;
#172 = CARTESIAN_POINT ( 'NONE',  ( -5.000000000000000888, 0.000000000000000000, 105.0000000000000142 ) ) ;
#173 = DIRECTION ( 'NONE',  ( 0.000000000000000000, 0.000000000000000000, 1.000000000000000000 ) ) ;
#174 = PERSON_AND_ORGANIZATION_ROLE ( 'creator' ) ;
#175 = TOROIDAL_SURFACE ( 'NONE', #261, 5.200000000000001066, 0.2000000000000000111 ) ;
#176 = PERSON_AND_ORGANIZATION ( #283, #96 ) ;
#177 = ORIENTED_EDGE ( 'NONE', *, *, #241, .F. ) ;
#178 = CALENDAR_DATE ( 2022, 20, 6 ) ;
#179 = ADVANCED_FACE ( 'NONE', ( #27 ), #267, .T. ) ;
#180 = DATE_TIME_ROLE ( 'classification_date' ) ;
#181 = EDGE_LOOP ( 'NONE', ( #62, #111 ) ) ;
#182 = APPROVAL_ROLE ( '' ) ;
#183 = DIRECTION ( 'NONE',  ( 1.000000000000000000, 0.000000000000000000, 0.000000000000000000 ) ) ;
#184 = APPLICATION_CONTEXT ( 'configuration controlled 3d designs of mechanical parts and assemblies' ) ;
#185 = DIRECTION ( 'NONE',  ( 0.000000000000000000, 0.000000000000000000, 1.000000000000000000 ) ) ;
#186 = AXIS2_PLACEMENT_3D ( 'NONE', #30, #240, #263 ) ;
#187 = SECURITY_CLASSIFICATION ( '', '', #127 ) ;
#188 = VERTEX_POINT ( 'NONE', #291 ) ;
#189 = FACE_OUTER_BOUND ( 'NONE', #205, .T. ) ;
#190 = CC_DESIGN_APPROVAL ( #212, ( #187 ) ) ;
#191 = DIRECTION ( 'NONE',  ( -0.000000000000000000, -0.000000000000000000, -1.000000000000000000 ) ) ;
#192 = DIRECTION ( 'NONE',  ( 1.000000000000000000, 0.000000000000000000, -0.000000000000000000 ) ) ;
#193 = APPROVAL ( #269, 'NEURÈENÝ' ) ;
#194 = CARTESIAN_POINT ( 'NONE',  ( -5.000000000000000888, 0.000000000000000000, 105.0000000000000142 ) ) ;
#195 = DIRECTION ( 'NONE',  ( 1.000000000000000000, 0.000000000000000000, -0.000000000000000000 ) ) ;
#196 = AXIS2_PLACEMENT_3D ( 'NONE', #113, #25, #48 ) ;
#197 = ADVANCED_BREP_SHAPE_REPRESENTATION ( 'f23f', ( #300, #289 ), #251 ) ;
#198 = LINE ( 'NONE', #170, #156 ) ;
#199 = PERSON_AND_ORGANIZATION ( #283, #96 ) ;
#200 = DIRECTION ( 'NONE',  ( 1.000000000000000000, 0.000000000000000000, 0.000000000000000000 ) ) ;
#201 = EDGE_LOOP ( 'NONE', ( #109, #211, #294, #177 ) ) ;
#202 = APPROVAL_STATUS ( 'not_yet_approved' ) ;
#203 = APPROVAL ( #202, 'NEURÈENÝ' ) ;
#204 = DATE_AND_TIME ( #102, #298 ) ;
#205 = EDGE_LOOP ( 'NONE', ( #67, #253, #81, #106 ) ) ;
#206 = ORIENTED_EDGE ( 'NONE', *, *, #257, .F. ) ;
#207 = ORIENTED_EDGE ( 'NONE', *, *, #288, .T. ) ;
#208 = PRODUCT_DEFINITION ( 'NEZNÁMÝ', '', #290, #116 ) ;
#209 = DIRECTION ( 'NONE',  ( 1.224646799147353207E-16, 1.000000000000000000, -0.000000000000000000 ) ) ;
#210 = FACE_OUTER_BOUND ( 'NONE', #134, .T. ) ;
#211 = ORIENTED_EDGE ( 'NONE', *, *, #223, .T. ) ;
#212 = APPROVAL ( #296, 'NEURÈENÝ' ) ;
#213 = UNCERTAINTY_MEASURE_WITH_UNIT (LENGTH_MEASURE( 1.000000000000000082E-05 ), #152, 'distance_accuracy_value', 'NONE');
#214 = CYLINDRICAL_SURFACE ( 'NONE', #236, 8.000000000000000000 ) ;
#215 = DIRECTION ( 'NONE',  ( -0.000000000000000000, -0.000000000000000000, -1.000000000000000000 ) ) ;
#216 = EDGE_CURVE ( 'NONE', #139, #276, #198, .T. ) ;
#217 = CARTESIAN_POINT ( 'NONE',  ( 8.000000000000000000, 9.797174393178825657E-16, 0.000000000000000000 ) ) ;
#218 = CARTESIAN_POINT ( 'NONE',  ( -8.000000000000000000, 0.000000000000000000, 5.000000000000000000 ) ) ;
#219 = DIRECTION ( 'NONE',  ( -0.000000000000000000, -0.000000000000000000, -1.000000000000000000 ) ) ;
#220 = AXIS2_PLACEMENT_3D ( 'NONE', #46, #256, #183 ) ;
#221 = CARTESIAN_POINT ( 'NONE',  ( -5.000000000000000888, 0.000000000000000000, 5.199999999999996625 ) ) ;
#222 = LOCAL_TIME ( 11, 41, 56.00000000000000000, #148 ) ;
#223 = EDGE_CURVE ( 'NONE', #188, #104, #120, .T. ) ;
#224 =( NAMED_UNIT ( * ) SI_UNIT ( $, .STERADIAN. ) SOLID_ANGLE_UNIT ( ) );
#225 = VERTEX_POINT ( 'NONE', #194 ) ;
#226 = CIRCLE ( 'NONE', #85, 5.200000000000001066 ) ;
#227 = PERSON_AND_ORGANIZATION ( #283, #96 ) ;
#228 = EDGE_LOOP ( 'NONE', ( #207, #273 ) ) ;
#229 = APPROVAL_DATE_TIME ( #131, #203 ) ;
#230 = ORIENTED_EDGE ( 'NONE', *, *, #223, .F. ) ;
#231 = AXIS2_PLACEMENT_3D ( 'NONE', #254, #301, #164 ) ;
#232 = AXIS2_PLACEMENT_3D ( 'NONE', #64, #138, #239 ) ;
#233 = EDGE_CURVE ( 'NONE', #276, #65, #91, .T. ) ;
#234 = ORIENTED_EDGE ( 'NONE', *, *, #241, .T. ) ;
#235 = VERTEX_POINT ( 'NONE', #221 ) ;
#236 = AXIS2_PLACEMENT_3D ( 'NONE', #284, #21, #306 ) ;
#237 = CARTESIAN_POINT ( 'NONE',  ( 0.000000000000000000, 0.000000000000000000, 5.199999999999996625 ) ) ;
#238 = ADVANCED_FACE ( 'NONE', ( #71 ), #124, .T. ) ;
#239 = DIRECTION ( 'NONE',  ( 1.000000000000000000, 0.000000000000000000, 0.000000000000000000 ) ) ;
#240 = DIRECTION ( 'NONE',  ( 0.000000000000000000, 0.000000000000000000, 1.000000000000000000 ) ) ;
#241 = EDGE_CURVE ( 'NONE', #225, #235, #265, .T. ) ;
#242 = LOCAL_TIME ( 11, 41, 56.00000000000000000, #99 ) ;
#243 = DIRECTION ( 'NONE',  ( 0.000000000000000000, 0.000000000000000000, 1.000000000000000000 ) ) ;
#244 = DIRECTION ( 'NONE',  ( 1.000000000000000000, 0.000000000000000000, 0.000000000000000000 ) ) ;
#245 = FACE_BOUND ( 'NONE', #228, .T. ) ;
#246 = CALENDAR_DATE ( 2022, 20, 6 ) ;
#247 = CARTESIAN_POINT ( 'NONE',  ( 0.000000000000000000, 0.000000000000000000, 0.000000000000000000 ) ) ;
#248 = PERSON_AND_ORGANIZATION ( #283, #96 ) ;
#249 = EDGE_LOOP ( 'NONE', ( #37, #305, #132, #130 ) ) ;
#250 = CIRCLE ( 'NONE', #220, 5.000000000000000888 ) ;
#251 =( GEOMETRIC_REPRESENTATION_CONTEXT ( 3 ) GLOBAL_UNCERTAINTY_ASSIGNED_CONTEXT ( ( #213 ) ) GLOBAL_UNIT_ASSIGNED_CONTEXT ( ( #152, #252, #224 ) ) REPRESENTATION_CONTEXT ( 'NONE', 'WORKASPACE' ) );
#252 =( NAMED_UNIT ( * ) PLANE_ANGLE_UNIT ( ) SI_UNIT ( $, .RADIAN. ) );
#253 = ORIENTED_EDGE ( 'NONE', *, *, #97, .T. ) ;
#254 = CARTESIAN_POINT ( 'NONE',  ( 0.000000000000000000, 0.000000000000000000, 105.0000000000000142 ) ) ;
#255 = AXIS2_PLACEMENT_3D ( 'NONE', #266, #72, #171 ) ;
#256 = DIRECTION ( 'NONE',  ( 0.000000000000000000, 0.000000000000000000, 1.000000000000000000 ) ) ;
#257 = EDGE_CURVE ( 'NONE', #65, #276, #18, .T. ) ;
#258 = EDGE_LOOP ( 'NONE', ( #271, #14, #77, #137 ) ) ;
#259 = CLOSED_SHELL ( 'NONE', ( #33, #238, #121, #66, #145, #125, #26, #179, #159 ) ) ;
#260 = ORIENTED_EDGE ( 'NONE', *, *, #151, .F. ) ;
#261 = AXIS2_PLACEMENT_3D ( 'NONE', #28, #123, #286 ) ;
#262 = FACE_OUTER_BOUND ( 'NONE', #258, .T. ) ;
#263 = DIRECTION ( 'NONE',  ( 1.000000000000000000, 0.000000000000000000, 0.000000000000000000 ) ) ;
#264 = CIRCLE ( 'NONE', #128, 5.200000000000001066 ) ;
#265 = LINE ( 'NONE', #172, #166 ) ;
#266 = CARTESIAN_POINT ( 'NONE',  ( 0.000000000000000000, 0.000000000000000000, 105.0000000000000142 ) ) ;
#267 = PLANE ( 'NONE',  #143 ) ;
#268 = PERSON_AND_ORGANIZATION_ROLE ( 'design_supplier' ) ;
#269 = APPROVAL_STATUS ( 'not_yet_approved' ) ;
#270 = VERTEX_POINT ( 'NONE', #90 ) ;
#271 = ORIENTED_EDGE ( 'NONE', *, *, #114, .F. ) ;
#272 = AXIS2_PLACEMENT_3D ( 'NONE', #119, #24, #167 ) ;
#273 = ORIENTED_EDGE ( 'NONE', *, *, #275, .T. ) ;
#274 = PERSON_AND_ORGANIZATION ( #283, #96 ) ;
#275 = EDGE_CURVE ( 'NONE', #68, #270, #226, .T. ) ;
#276 = VERTEX_POINT ( 'NONE', #217 ) ;
#277 = DIRECTION ( 'NONE',  ( 0.000000000000000000, 0.000000000000000000, 1.000000000000000000 ) ) ;
#278 = TOROIDAL_SURFACE ( 'NONE', #59, 5.200000000000001066, 0.2000000000000000111 ) ;
#279 = SHAPE_DEFINITION_REPRESENTATION ( #53, #197 ) ;
#280 = DIRECTION ( 'NONE',  ( 0.000000000000000000, 0.000000000000000000, 1.000000000000000000 ) ) ;
#281 = AXIS2_PLACEMENT_3D ( 'NONE', #51, #173, #29 ) ;
#282 = ORIENTED_EDGE ( 'NONE', *, *, #216, .F. ) ;
#283 = PERSON ( 'NEURÈENÝ', 'NEURÈENÝ', 'NEURÈENÝ', ('NEURÈENÝ'), ('NEURÈENÝ'), ('NEURÈENÝ') ) ;
#284 = CARTESIAN_POINT ( 'NONE',  ( 0.000000000000000000, 0.000000000000000000, 5.000000000000000000 ) ) ;
#285 = ORIENTED_EDGE ( 'NONE', *, *, #114, .T. ) ;
#286 = DIRECTION ( 'NONE',  ( 1.000000000000000000, 0.000000000000000000, 0.000000000000000000 ) ) ;
#287 = DIRECTION ( 'NONE',  ( -0.000000000000000000, -0.000000000000000000, -1.000000000000000000 ) ) ;
#288 = EDGE_CURVE ( 'NONE', #270, #68, #264, .T. ) ;
#289 = AXIS2_PLACEMENT_3D ( 'NONE', #247, #293, #200 ) ;
#290 = PRODUCT_DEFINITION_FORMATION_WITH_SPECIFIED_SOURCE ( 'LIBOVOLNÝ', '', #89, .NOT_KNOWN. ) ;
#291 = CARTESIAN_POINT ( 'NONE',  ( 5.000000000000000888, 6.123233995736767268E-16, 105.0000000000000142 ) ) ;
#292 = APPROVAL_ROLE ( '' ) ;
#293 = DIRECTION ( 'NONE',  ( 0.000000000000000000, 0.000000000000000000, 1.000000000000000000 ) ) ;
#294 = ORIENTED_EDGE ( 'NONE', *, *, #20, .T. ) ;
#295 = ORIENTED_EDGE ( 'NONE', *, *, #162, .T. ) ;
#296 = APPROVAL_STATUS ( 'not_yet_approved' ) ;
#297 = EDGE_LOOP ( 'NONE', ( #282, #260, #295, #76 ) ) ;
#298 = LOCAL_TIME ( 11, 41, 56.00000000000000000, #150 ) ;
#299 = DIRECTION ( 'NONE',  ( 0.000000000000000000, -1.000000000000000000, 0.000000000000000000 ) ) ;
#300 = MANIFOLD_SOLID_BREP ( 'Zaoblit1', #259 ) ;
#301 = DIRECTION ( 'NONE',  ( -0.000000000000000000, -0.000000000000000000, -1.000000000000000000 ) ) ;
#302 = CC_DESIGN_PERSON_AND_ORGANIZATION_ASSIGNMENT ( #176, #11, ( #89 ) ) ;
#303 = CIRCLE ( 'NONE', #101, 0.1999999999999996503 ) ;
#304 = CARTESIAN_POINT ( 'NONE',  ( -8.000000000000000000, 0.000000000000000000, 0.000000000000000000 ) ) ;
#305 = ORIENTED_EDGE ( 'NONE', *, *, #20, .F. ) ;
#306 = DIRECTION ( 'NONE',  ( -1.000000000000000000, 0.000000000000000000, 0.000000000000000000 ) ) ;
#307 = CC_DESIGN_PERSON_AND_ORGANIZATION_ASSIGNMENT ( #248, #105, ( #208 ) ) ;
ENDSEC;
END-ISO-10303-21;
