ISO-10303-21;
HEADER;
FILE_DESCRIPTION (( 'STEP AP203' ),
    '1' );
FILE_NAME ('bf72.STEP',
    '2022-06-20T09:27:28',
    ( '' ),
    ( '' ),
    'SwSTEP 2.0',
    'SolidWorks 2019',
    '' );
FILE_SCHEMA (( 'CONFIG_CONTROL_DESIGN' ));
ENDSEC;

DATA;
#1 = ORIENTED_EDGE ( 'NONE', *, *, #78, .T. ) ;
#2 = ORIENTED_EDGE ( 'NONE', *, *, #138, .T. ) ;
#3 = DIRECTION ( 'NONE',  ( -0.000000000000000000, -0.000000000000000000, -1.000000000000000000 ) ) ;
#4 = EDGE_CURVE ( 'NONE', #150, #259, #211, .T. ) ;
#5 = ORIENTED_EDGE ( 'NONE', *, *, #41, .F. ) ;
#6 = CARTESIAN_POINT ( 'NONE',  ( 7.200000000000001066, 0.000000000000000000, 6.999999999999999112 ) ) ;
#7 = CARTESIAN_POINT ( 'NONE',  ( -7.000000000000000888, 0.000000000000000000, 107.0000000000000142 ) ) ;
#8 = ORIENTED_EDGE ( 'NONE', *, *, #66, .T. ) ;
#9 = DIRECTION ( 'NONE',  ( -1.000000000000000000, 0.000000000000000000, 0.000000000000000000 ) ) ;
#10 = PLANE ( 'NONE',  #265 ) ;
#11 = ADVANCED_FACE ( 'NONE', ( #217 ), #10, .T. ) ;
#12 = SHAPE_DEFINITION_REPRESENTATION ( #42, #171 ) ;
#13 = LINE ( 'NONE', #136, #44 ) ;
#14 = APPLICATION_PROTOCOL_DEFINITION ( 'international standard', 'config_control_design', 1994, #130 ) ;
#15 = ORIENTED_EDGE ( 'NONE', *, *, #122, .F. ) ;
#16 = APPROVAL_DATE_TIME ( #67, #28 ) ;
#17 = DIRECTION ( 'NONE',  ( 1.000000000000000000, 0.000000000000000000, 0.000000000000000000 ) ) ;
#18 = DIRECTION ( 'NONE',  ( 1.000000000000000000, 0.000000000000000000, -0.000000000000000000 ) ) ;
#19 = SECURITY_CLASSIFICATION ( '', '', #117 ) ;
#20 = PERSON_AND_ORGANIZATION_ROLE ( 'creator' ) ;
#21 = ADVANCED_FACE ( 'NONE', ( #85, #37 ), #89, .T. ) ;
#22 = PERSON_AND_ORGANIZATION_ROLE ( 'design_owner' ) ;
#23 = DIRECTION ( 'NONE',  ( 1.000000000000000000, 0.000000000000000000, 0.000000000000000000 ) ) ;
#24 = ORIENTED_EDGE ( 'NONE', *, *, #306, .F. ) ;
#25 = DIRECTION ( 'NONE',  ( 0.000000000000000000, 0.000000000000000000, -1.000000000000000000 ) ) ;
#26 = CIRCLE ( 'NONE', #197, 7.200000000000001066 ) ;
#27 = CIRCLE ( 'NONE', #200, 7.000000000000000888 ) ;
#28 = APPROVAL ( #88, 'NEURÈENÝ' ) ;
#29 = CARTESIAN_POINT ( 'NONE',  ( 0.000000000000000000, 0.000000000000000000, 107.0000000000000142 ) ) ;
#30 = ORIENTED_EDGE ( 'NONE', *, *, #70, .F. ) ;
#31 = PERSON_AND_ORGANIZATION ( #157, #304 ) ;
#32 = DIRECTION ( 'NONE',  ( 0.000000000000000000, 0.000000000000000000, 1.000000000000000000 ) ) ;
#33 = CARTESIAN_POINT ( 'NONE',  ( 0.000000000000000000, 0.000000000000000000, 7.199999999999998401 ) ) ;
#34 = ORIENTED_EDGE ( 'NONE', *, *, #269, .T. ) ;
#35 = PERSON_AND_ORGANIZATION ( #157, #304 ) ;
#36 = CIRCLE ( 'NONE', #272, 7.000000000000000888 ) ;
#37 = FACE_OUTER_BOUND ( 'NONE', #216, .T. ) ;
#38 = COORDINATED_UNIVERSAL_TIME_OFFSET ( 1, 0, .AHEAD. ) ;
#39 = MANIFOLD_SOLID_BREP ( 'Zaoblit1', #61 ) ;
#40 = PRODUCT ( 'bf72', 'bf72', '', ( #194 ) ) ;
#41 = EDGE_CURVE ( 'NONE', #238, #187, #13, .T. ) ;
#42 = PRODUCT_DEFINITION_SHAPE ( 'NONE', 'NONE',  #140 ) ;
#43 = DATE_AND_TIME ( #86, #219 ) ;
#44 = VECTOR ( 'NONE', #221, 1000.000000000000000 ) ;
#45 = CYLINDRICAL_SURFACE ( 'NONE', #95, 11.00000000000000000 ) ;
#46 = DIRECTION ( 'NONE',  ( 0.000000000000000000, 0.000000000000000000, 1.000000000000000000 ) ) ;
#47 = CC_DESIGN_PERSON_AND_ORGANIZATION_ASSIGNMENT ( #271, #241, ( #19 ) ) ;
#48 = DIRECTION ( 'NONE',  ( -0.000000000000000000, -0.000000000000000000, -1.000000000000000000 ) ) ;
#49 = CIRCLE ( 'NONE', #280, 11.00000000000000000 ) ;
#50 = DIRECTION ( 'NONE',  ( 1.000000000000000000, 0.000000000000000000, 0.000000000000000000 ) ) ;
#51 = EDGE_CURVE ( 'NONE', #134, #267, #249, .T. ) ;
#52 = DIRECTION ( 'NONE',  ( -0.000000000000000000, -0.000000000000000000, -1.000000000000000000 ) ) ;
#53 = TOROIDAL_SURFACE ( 'NONE', #223, 7.200000000000001066, 0.2000000000000000111 ) ;
#54 = LINE ( 'NONE', #264, #69 ) ;
#55 = DIRECTION ( 'NONE',  ( -0.000000000000000000, -0.000000000000000000, -1.000000000000000000 ) ) ;
#56 = CARTESIAN_POINT ( 'NONE',  ( 0.000000000000000000, 0.000000000000000000, 107.0000000000000142 ) ) ;
#57 = ADVANCED_FACE ( 'NONE', ( #210 ), #301, .F. ) ;
#58 = EDGE_LOOP ( 'NONE', ( #156, #75 ) ) ;
#59 = DIRECTION ( 'NONE',  ( 0.000000000000000000, 0.000000000000000000, 1.000000000000000000 ) ) ;
#60 = LINE ( 'NONE', #73, #98 ) ;
#61 = CLOSED_SHELL ( 'NONE', ( #142, #169, #207, #242, #21, #57, #255, #11, #135 ) ) ;
#62 = DIRECTION ( 'NONE',  ( 1.000000000000000000, 0.000000000000000000, -0.000000000000000000 ) ) ;
#63 = DIRECTION ( 'NONE',  ( 0.000000000000000000, 0.000000000000000000, 1.000000000000000000 ) ) ;
#64 = DATE_TIME_ROLE ( 'creation_date' ) ;
#65 = EDGE_LOOP ( 'NONE', ( #5, #291, #8, #108 ) ) ;
#66 = EDGE_CURVE ( 'NONE', #172, #252, #262, .T. ) ;
#67 = DATE_AND_TIME ( #184, #275 ) ;
#68 = AXIS2_PLACEMENT_3D ( 'NONE', #56, #284, #83 ) ;
#69 = VECTOR ( 'NONE', #52, 1000.000000000000000 ) ;
#70 = EDGE_CURVE ( 'NONE', #252, #187, #27, .T. ) ;
#71 = DIRECTION ( 'NONE',  ( 1.000000000000000000, 0.000000000000000000, 0.000000000000000000 ) ) ;
#72 = DIRECTION ( 'NONE',  ( -0.000000000000000000, -0.000000000000000000, -1.000000000000000000 ) ) ;
#73 = CARTESIAN_POINT ( 'NONE',  ( -11.00000000000000000, 0.000000000000000000, 7.000000000000000000 ) ) ;
#74 = CARTESIAN_POINT ( 'NONE',  ( 0.000000000000000000, 0.000000000000000000, 7.199999999999998401 ) ) ;
#75 = ORIENTED_EDGE ( 'NONE', *, *, #122, .T. ) ;
#76 = CYLINDRICAL_SURFACE ( 'NONE', #162, 7.000000000000000888 ) ;
#77 = AXIS2_PLACEMENT_3D ( 'NONE', #198, #213, #173 ) ;
#78 = EDGE_CURVE ( 'NONE', #134, #259, #60, .T. ) ;
#79 = FACE_OUTER_BOUND ( 'NONE', #141, .T. ) ;
#80 = CARTESIAN_POINT ( 'NONE',  ( 0.000000000000000000, 0.000000000000000000, 7.000000000000000000 ) ) ;
#81 = ORIENTED_EDGE ( 'NONE', *, *, #78, .F. ) ;
#82 = CARTESIAN_POINT ( 'NONE',  ( -7.000000000000000888, 0.000000000000000000, 7.199999999999998401 ) ) ;
#83 = DIRECTION ( 'NONE',  ( 1.000000000000000000, 0.000000000000000000, 0.000000000000000000 ) ) ;
#84 = DIRECTION ( 'NONE',  ( 0.000000000000000000, 0.000000000000000000, 1.000000000000000000 ) ) ;
#85 = FACE_BOUND ( 'NONE', #58, .T. ) ;
#86 = CALENDAR_DATE ( 2022, 20, 6 ) ;
#87 = ORIENTED_EDGE ( 'NONE', *, *, #300, .F. ) ;
#88 = APPROVAL_STATUS ( 'not_yet_approved' ) ;
#89 = PLANE ( 'NONE',  #177 ) ;
#90 = PERSON_AND_ORGANIZATION ( #157, #304 ) ;
#91 = FACE_OUTER_BOUND ( 'NONE', #235, .T. ) ;
#92 = DIRECTION ( 'NONE',  ( 1.000000000000000000, 0.000000000000000000, 0.000000000000000000 ) ) ;
#93 = APPLICATION_CONTEXT ( 'configuration controlled 3d designs of mechanical parts and assemblies' ) ;
#94 = PERSON_AND_ORGANIZATION_ROLE ( 'creator' ) ;
#95 = AXIS2_PLACEMENT_3D ( 'NONE', #161, #286, #106 ) ;
#96 = CC_DESIGN_APPROVAL ( #28, ( #234 ) ) ;
#97 = APPROVAL_PERSON_ORGANIZATION ( #206, #227, #179 ) ;
#98 = VECTOR ( 'NONE', #120, 1000.000000000000000 ) ;
#99 = CC_DESIGN_DATE_AND_TIME_ASSIGNMENT ( #182, #239, ( #19 ) ) ;
#100 = CARTESIAN_POINT ( 'NONE',  ( -11.00000000000000000, 0.000000000000000000, 7.000000000000000000 ) ) ;
#101 = DIRECTION ( 'NONE',  ( 0.000000000000000000, 0.000000000000000000, 1.000000000000000000 ) ) ;
#102 = DIRECTION ( 'NONE',  ( 1.000000000000000000, 0.000000000000000000, 0.000000000000000000 ) ) ;
#103 = AXIS2_PLACEMENT_3D ( 'NONE', #132, #294, #92 ) ;
#104 = DIRECTION ( 'NONE',  ( 0.000000000000000000, 0.000000000000000000, 1.000000000000000000 ) ) ;
#105 = CC_DESIGN_DATE_AND_TIME_ASSIGNMENT ( #43, #64, ( #140 ) ) ;
#106 = DIRECTION ( 'NONE',  ( -1.000000000000000000, 0.000000000000000000, 0.000000000000000000 ) ) ;
#107 = TOROIDAL_SURFACE ( 'NONE', #158, 7.200000000000001066, 0.2000000000000000111 ) ;
#108 = ORIENTED_EDGE ( 'NONE', *, *, #70, .T. ) ;
#109 = CC_DESIGN_SECURITY_CLASSIFICATION ( #19, ( #234 ) ) ;
#110 = CARTESIAN_POINT ( 'NONE',  ( 0.000000000000000000, 0.000000000000000000, 107.0000000000000142 ) ) ;
#111 = APPROVAL_STATUS ( 'not_yet_approved' ) ;
#112 = ORIENTED_EDGE ( 'NONE', *, *, #41, .T. ) ;
#113 = EDGE_LOOP ( 'NONE', ( #24, #129 ) ) ;
#114 = COORDINATED_UNIVERSAL_TIME_OFFSET ( 1, 0, .AHEAD. ) ;
#115 = CARTESIAN_POINT ( 'NONE',  ( 0.000000000000000000, 0.000000000000000000, 107.0000000000000142 ) ) ;
#116 = DIRECTION ( 'NONE',  ( 0.000000000000000000, 0.000000000000000000, 1.000000000000000000 ) ) ;
#117 = SECURITY_CLASSIFICATION_LEVEL ( 'unclassified' ) ;
#118 = APPROVAL_DATE_TIME ( #268, #227 ) ;
#119 = LOCAL_TIME ( 11, 27, 28.00000000000000000, #114 ) ;
#120 = DIRECTION ( 'NONE',  ( -0.000000000000000000, -0.000000000000000000, -1.000000000000000000 ) ) ;
#121 = DIRECTION ( 'NONE',  ( 0.000000000000000000, -1.000000000000000000, 0.000000000000000000 ) ) ;
#122 = EDGE_CURVE ( 'NONE', #285, #224, #146, .T. ) ;
#123 = CARTESIAN_POINT ( 'NONE',  ( 0.000000000000000000, 0.000000000000000000, 7.199999999999998401 ) ) ;
#124 = DIRECTION ( 'NONE',  ( 1.000000000000000000, 0.000000000000000000, 0.000000000000000000 ) ) ;
#125 =( NAMED_UNIT ( * ) PLANE_ANGLE_UNIT ( ) SI_UNIT ( $, .RADIAN. ) );
#126 = AXIS2_PLACEMENT_3D ( 'NONE', #181, #116, #23 ) ;
#127 = ORIENTED_EDGE ( 'NONE', *, *, #274, .F. ) ;
#128 = DIRECTION ( 'NONE',  ( 1.000000000000000000, 0.000000000000000000, 0.000000000000000000 ) ) ;
#129 = ORIENTED_EDGE ( 'NONE', *, *, #4, .F. ) ;
#130 = APPLICATION_CONTEXT ( 'configuration controlled 3d designs of mechanical parts and assemblies' ) ;
#131 = EDGE_LOOP ( 'NONE', ( #240, #220 ) ) ;
#132 = CARTESIAN_POINT ( 'NONE',  ( 0.000000000000000000, 0.000000000000000000, 0.000000000000000000 ) ) ;
#133 = CC_DESIGN_APPROVAL ( #227, ( #19 ) ) ;
#134 = VERTEX_POINT ( 'NONE', #100 ) ;
#135 = ADVANCED_FACE ( 'NONE', ( #139 ), #53, .F. ) ;
#136 = CARTESIAN_POINT ( 'NONE',  ( 7.000000000000000888, 8.572527594031474176E-16, 107.0000000000000142 ) ) ;
#137 = COORDINATED_UNIVERSAL_TIME_OFFSET ( 1, 0, .AHEAD. ) ;
#138 = EDGE_CURVE ( 'NONE', #187, #224, #260, .T. ) ;
#139 = FACE_OUTER_BOUND ( 'NONE', #152, .T. ) ;
#140 = PRODUCT_DEFINITION ( 'NEZNÁMÝ', '', #234, #290 ) ;
#141 = EDGE_LOOP ( 'NONE', ( #87, #287, #1, #191 ) ) ;
#142 = ADVANCED_FACE ( 'NONE', ( #277 ), #107, .F. ) ;
#143 = CIRCLE ( 'NONE', #185, 11.00000000000000000 ) ;
#144 = ORIENTED_EDGE ( 'NONE', *, *, #189, .F. ) ;
#145 = DIRECTION ( 'NONE',  ( -0.000000000000000000, -0.000000000000000000, -1.000000000000000000 ) ) ;
#146 = CIRCLE ( 'NONE', #188, 7.200000000000001066 ) ;
#147 = CC_DESIGN_PERSON_AND_ORGANIZATION_ASSIGNMENT ( #246, #243, ( #234 ) ) ;
#148 = DIRECTION ( 'NONE',  ( -1.000000000000000000, 0.000000000000000000, 0.000000000000000000 ) ) ;
#149 = LOCAL_TIME ( 11, 27, 28.00000000000000000, #38 ) ;
#150 = VERTEX_POINT ( 'NONE', #209 ) ;
#151 = CARTESIAN_POINT ( 'NONE',  ( -11.00000000000000000, 0.000000000000000000, 0.000000000000000000 ) ) ;
#152 = EDGE_LOOP ( 'NONE', ( #127, #144, #2, #15 ) ) ;
#153 = COORDINATED_UNIVERSAL_TIME_OFFSET ( 1, 0, .AHEAD. ) ;
#154 = CC_DESIGN_PERSON_AND_ORGANIZATION_ASSIGNMENT ( #35, #94, ( #140 ) ) ;
#155 = COORDINATED_UNIVERSAL_TIME_OFFSET ( 1, 0, .AHEAD. ) ;
#156 = ORIENTED_EDGE ( 'NONE', *, *, #214, .T. ) ;
#157 = PERSON ( 'NEURÈENÝ', 'NEURÈENÝ', 'NEURÈENÝ', ('NEURÈENÝ'), ('NEURÈENÝ'), ('NEURÈENÝ') ) ;
#158 = AXIS2_PLACEMENT_3D ( 'NONE', #123, #101, #17 ) ;
#159 = CYLINDRICAL_SURFACE ( 'NONE', #180, 7.000000000000000888 ) ;
#160 = VECTOR ( 'NONE', #55, 1000.000000000000000 ) ;
#161 = CARTESIAN_POINT ( 'NONE',  ( 0.000000000000000000, 0.000000000000000000, 7.000000000000000000 ) ) ;
#162 = AXIS2_PLACEMENT_3D ( 'NONE', #29, #3, #148 ) ;
#163 = EDGE_LOOP ( 'NONE', ( #193, #112, #244, #297 ) ) ;
#164 = FACE_OUTER_BOUND ( 'NONE', #163, .T. ) ;
#165 = CIRCLE ( 'NONE', #208, 7.000000000000000888 ) ;
#166 = ORIENTED_EDGE ( 'NONE', *, *, #274, .T. ) ;
#167 = DIRECTION ( 'NONE',  ( 1.224646799147353207E-16, 1.000000000000000000, -0.000000000000000000 ) ) ;
#168 = CARTESIAN_POINT ( 'NONE',  ( 7.000000000000000888, 8.572527594031474176E-16, 107.0000000000000142 ) ) ;
#169 = ADVANCED_FACE ( 'NONE', ( #164 ), #159, .T. ) ;
#170 = CARTESIAN_POINT ( 'NONE',  ( 0.000000000000000000, 0.000000000000000000, 107.0000000000000142 ) ) ;
#171 = ADVANCED_BREP_SHAPE_REPRESENTATION ( 'bf72', ( #39, #77 ), #250 ) ;
#172 = VERTEX_POINT ( 'NONE', #276 ) ;
#173 = DIRECTION ( 'NONE',  ( 1.000000000000000000, 0.000000000000000000, 0.000000000000000000 ) ) ;
#174 = DIRECTION ( 'NONE',  ( 1.000000000000000000, 0.000000000000000000, 0.000000000000000000 ) ) ;
#175 = ORIENTED_EDGE ( 'NONE', *, *, #214, .F. ) ;
#176 = CALENDAR_DATE ( 2022, 20, 6 ) ;
#177 = AXIS2_PLACEMENT_3D ( 'NONE', #183, #63, #18 ) ;
#178 = DIRECTION ( 'NONE',  ( 0.000000000000000000, 0.000000000000000000, 1.000000000000000000 ) ) ;
#179 = APPROVAL_ROLE ( '' ) ;
#180 = AXIS2_PLACEMENT_3D ( 'NONE', #115, #72, #190 ) ;
#181 = CARTESIAN_POINT ( 'NONE',  ( 0.000000000000000000, 0.000000000000000000, 7.000000000000000000 ) ) ;
#182 = DATE_AND_TIME ( #222, #218 ) ;
#183 = CARTESIAN_POINT ( 'NONE',  ( 0.000000000000000000, 0.000000000000000000, 7.000000000000000000 ) ) ;
#184 = CALENDAR_DATE ( 2022, 20, 6 ) ;
#185 = AXIS2_PLACEMENT_3D ( 'NONE', #258, #104, #124 ) ;
#186 = APPROVAL_PERSON_ORGANIZATION ( #270, #28, #245 ) ;
#187 = VERTEX_POINT ( 'NONE', #248 ) ;
#188 = AXIS2_PLACEMENT_3D ( 'NONE', #303, #48, #307 ) ;
#189 = EDGE_CURVE ( 'NONE', #187, #252, #36, .T. ) ;
#190 = DIRECTION ( 'NONE',  ( -1.000000000000000000, 0.000000000000000000, 0.000000000000000000 ) ) ;
#191 = ORIENTED_EDGE ( 'NONE', *, *, #306, .T. ) ;
#192 =( NAMED_UNIT ( * ) SI_UNIT ( $, .STERADIAN. ) SOLID_ANGLE_UNIT ( ) );
#193 = ORIENTED_EDGE ( 'NONE', *, *, #283, .F. ) ;
#194 = MECHANICAL_CONTEXT ( 'NONE', #93, 'mechanical' ) ;
#195 = DIRECTION ( 'NONE',  ( -1.000000000000000000, 1.224646799147358384E-16, 0.000000000000000000 ) ) ;
#196 = CARTESIAN_POINT ( 'NONE',  ( -7.200000000000001066, 8.817456953860944275E-16, 7.199999999999998401 ) ) ;
#197 = AXIS2_PLACEMENT_3D ( 'NONE', #282, #281, #128 ) ;
#198 = CARTESIAN_POINT ( 'NONE',  ( 0.000000000000000000, 0.000000000000000000, 0.000000000000000000 ) ) ;
#199 = APPROVAL_ROLE ( '' ) ;
#200 = AXIS2_PLACEMENT_3D ( 'NONE', #33, #84, #174 ) ;
#201 = UNCERTAINTY_MEASURE_WITH_UNIT (LENGTH_MEASURE( 1.000000000000000082E-05 ), #231, 'distance_accuracy_value', 'NONE');
#202 = ORIENTED_EDGE ( 'NONE', *, *, #269, .F. ) ;
#203 = APPROVAL_STATUS ( 'not_yet_approved' ) ;
#204 = CC_DESIGN_PERSON_AND_ORGANIZATION_ASSIGNMENT ( #90, #20, ( #234 ) ) ;
#205 = DIRECTION ( 'NONE',  ( 0.000000000000000000, 0.000000000000000000, 1.000000000000000000 ) ) ;
#206 = PERSON_AND_ORGANIZATION ( #157, #304 ) ;
#207 = ADVANCED_FACE ( 'NONE', ( #91 ), #45, .T. ) ;
#208 = AXIS2_PLACEMENT_3D ( 'NONE', #170, #32, #102 ) ;
#209 = CARTESIAN_POINT ( 'NONE',  ( 11.00000000000000000, 1.347111479062088405E-15, 0.000000000000000000 ) ) ;
#210 = FACE_OUTER_BOUND ( 'NONE', #113, .T. ) ;
#211 = CIRCLE ( 'NONE', #103, 11.00000000000000000 ) ;
#212 = DIRECTION ( 'NONE',  ( 0.000000000000000000, 0.000000000000000000, 1.000000000000000000 ) ) ;
#213 = DIRECTION ( 'NONE',  ( 0.000000000000000000, 0.000000000000000000, 1.000000000000000000 ) ) ;
#214 = EDGE_CURVE ( 'NONE', #224, #285, #26, .T. ) ;
#215 = FACE_OUTER_BOUND ( 'NONE', #65, .T. ) ;
#216 = EDGE_LOOP ( 'NONE', ( #273, #34 ) ) ;
#217 = FACE_OUTER_BOUND ( 'NONE', #131, .T. ) ;
#218 = LOCAL_TIME ( 11, 27, 28.00000000000000000, #137 ) ;
#219 = LOCAL_TIME ( 11, 27, 28.00000000000000000, #155 ) ;
#220 = ORIENTED_EDGE ( 'NONE', *, *, #283, .T. ) ;
#221 = DIRECTION ( 'NONE',  ( -0.000000000000000000, -0.000000000000000000, -1.000000000000000000 ) ) ;
#222 = CALENDAR_DATE ( 2022, 20, 6 ) ;
#223 = AXIS2_PLACEMENT_3D ( 'NONE', #74, #46, #71 ) ;
#224 = VERTEX_POINT ( 'NONE', #6 ) ;
#225 = CC_DESIGN_APPROVAL ( #289, ( #140 ) ) ;
#226 = CARTESIAN_POINT ( 'NONE',  ( 7.200000000000001066, 0.000000000000000000, 7.199999999999998401 ) ) ;
#227 = APPROVAL ( #203, 'NEURÈENÝ' ) ;
#228 = CARTESIAN_POINT ( 'NONE',  ( 0.000000000000000000, 0.000000000000000000, 0.000000000000000000 ) ) ;
#229 = AXIS2_PLACEMENT_3D ( 'NONE', #80, #145, #9 ) ;
#230 = PRODUCT_RELATED_PRODUCT_CATEGORY ( 'detail', '', ( #40 ) ) ;
#231 =( LENGTH_UNIT ( ) NAMED_UNIT ( * ) SI_UNIT ( .MILLI., .METRE. ) );
#232 = ORIENTED_EDGE ( 'NONE', *, *, #300, .T. ) ;
#233 = CYLINDRICAL_SURFACE ( 'NONE', #229, 11.00000000000000000 ) ;
#234 = PRODUCT_DEFINITION_FORMATION_WITH_SPECIFIED_SOURCE ( 'LIBOVOLNÝ', '', #40, .NOT_KNOWN. ) ;
#235 = EDGE_LOOP ( 'NONE', ( #202, #232, #278, #81 ) ) ;
#236 = EDGE_LOOP ( 'NONE', ( #30, #166, #175, #263 ) ) ;
#237 = CARTESIAN_POINT ( 'NONE',  ( 11.00000000000000000, 1.347111479062088405E-15, 7.000000000000000000 ) ) ;
#238 = VERTEX_POINT ( 'NONE', #168 ) ;
#239 = DATE_TIME_ROLE ( 'classification_date' ) ;
#240 = ORIENTED_EDGE ( 'NONE', *, *, #247, .T. ) ;
#241 = PERSON_AND_ORGANIZATION_ROLE ( 'classification_officer' ) ;
#242 = ADVANCED_FACE ( 'NONE', ( #79 ), #233, .T. ) ;
#243 = PERSON_AND_ORGANIZATION_ROLE ( 'design_supplier' ) ;
#244 = ORIENTED_EDGE ( 'NONE', *, *, #189, .T. ) ;
#245 = APPROVAL_ROLE ( '' ) ;
#246 = PERSON_AND_ORGANIZATION ( #157, #304 ) ;
#247 = EDGE_CURVE ( 'NONE', #172, #238, #295, .T. ) ;
#248 = CARTESIAN_POINT ( 'NONE',  ( 7.000000000000000888, 8.572527594031474176E-16, 7.199999999999998401 ) ) ;
#249 = CIRCLE ( 'NONE', #126, 11.00000000000000000 ) ;
#250 =( GEOMETRIC_REPRESENTATION_CONTEXT ( 3 ) GLOBAL_UNCERTAINTY_ASSIGNED_CONTEXT ( ( #201 ) ) GLOBAL_UNIT_ASSIGNED_CONTEXT ( ( #231, #125, #192 ) ) REPRESENTATION_CONTEXT ( 'NONE', 'WORKASPACE' ) );
#251 = CC_DESIGN_PERSON_AND_ORGANIZATION_ASSIGNMENT ( #31, #22, ( #40 ) ) ;
#252 = VERTEX_POINT ( 'NONE', #82 ) ;
#253 = CARTESIAN_POINT ( 'NONE',  ( 0.000000000000000000, 0.000000000000000000, 7.199999999999998401 ) ) ;
#254 = CIRCLE ( 'NONE', #299, 0.1999999999999996503 ) ;
#255 = ADVANCED_FACE ( 'NONE', ( #215 ), #76, .T. ) ;
#256 = APPROVAL_PERSON_ORGANIZATION ( #293, #289, #199 ) ;
#257 = CARTESIAN_POINT ( 'NONE',  ( 0.000000000000000000, 0.000000000000000000, 0.000000000000000000 ) ) ;
#258 = CARTESIAN_POINT ( 'NONE',  ( 0.000000000000000000, 0.000000000000000000, 7.000000000000000000 ) ) ;
#259 = VERTEX_POINT ( 'NONE', #151 ) ;
#260 = CIRCLE ( 'NONE', #302, 0.1999999999999996503 ) ;
#261 = CARTESIAN_POINT ( 'NONE',  ( -7.200000000000001066, 8.817456953860944275E-16, 6.999999999999999112 ) ) ;
#262 = LINE ( 'NONE', #7, #160 ) ;
#263 = ORIENTED_EDGE ( 'NONE', *, *, #138, .F. ) ;
#264 = CARTESIAN_POINT ( 'NONE',  ( 11.00000000000000000, 1.347111479062088405E-15, 7.000000000000000000 ) ) ;
#265 = AXIS2_PLACEMENT_3D ( 'NONE', #110, #178, #62 ) ;
#266 = DATE_AND_TIME ( #176, #149 ) ;
#267 = VERTEX_POINT ( 'NONE', #237 ) ;
#268 = DATE_AND_TIME ( #288, #119 ) ;
#269 = EDGE_CURVE ( 'NONE', #267, #134, #143, .T. ) ;
#270 = PERSON_AND_ORGANIZATION ( #157, #304 ) ;
#271 = PERSON_AND_ORGANIZATION ( #157, #304 ) ;
#272 = AXIS2_PLACEMENT_3D ( 'NONE', #253, #205, #296 ) ;
#273 = ORIENTED_EDGE ( 'NONE', *, *, #51, .T. ) ;
#274 = EDGE_CURVE ( 'NONE', #252, #285, #254, .T. ) ;
#275 = LOCAL_TIME ( 11, 27, 28.00000000000000000, #153 ) ;
#276 = CARTESIAN_POINT ( 'NONE',  ( -7.000000000000000888, 0.000000000000000000, 107.0000000000000142 ) ) ;
#277 = FACE_OUTER_BOUND ( 'NONE', #236, .T. ) ;
#278 = ORIENTED_EDGE ( 'NONE', *, *, #4, .T. ) ;
#279 = APPLICATION_PROTOCOL_DEFINITION ( 'international standard', 'config_control_design', 1994, #93 ) ;
#280 = AXIS2_PLACEMENT_3D ( 'NONE', #257, #59, #50 ) ;
#281 = DIRECTION ( 'NONE',  ( -0.000000000000000000, -0.000000000000000000, -1.000000000000000000 ) ) ;
#282 = CARTESIAN_POINT ( 'NONE',  ( 0.000000000000000000, 0.000000000000000000, 7.000000000000000000 ) ) ;
#283 = EDGE_CURVE ( 'NONE', #238, #172, #165, .T. ) ;
#284 = DIRECTION ( 'NONE',  ( 0.000000000000000000, 0.000000000000000000, 1.000000000000000000 ) ) ;
#285 = VERTEX_POINT ( 'NONE', #261 ) ;
#286 = DIRECTION ( 'NONE',  ( -0.000000000000000000, -0.000000000000000000, -1.000000000000000000 ) ) ;
#287 = ORIENTED_EDGE ( 'NONE', *, *, #51, .F. ) ;
#288 = CALENDAR_DATE ( 2022, 20, 6 ) ;
#289 = APPROVAL ( #111, 'NEURÈENÝ' ) ;
#290 = DESIGN_CONTEXT ( 'detailed design', #130, 'design' ) ;
#291 = ORIENTED_EDGE ( 'NONE', *, *, #247, .F. ) ;
#292 = AXIS2_PLACEMENT_3D ( 'NONE', #228, #212, #305 ) ;
#293 = PERSON_AND_ORGANIZATION ( #157, #304 ) ;
#294 = DIRECTION ( 'NONE',  ( 0.000000000000000000, 0.000000000000000000, 1.000000000000000000 ) ) ;
#295 = CIRCLE ( 'NONE', #68, 7.000000000000000888 ) ;
#296 = DIRECTION ( 'NONE',  ( 1.000000000000000000, 0.000000000000000000, 0.000000000000000000 ) ) ;
#297 = ORIENTED_EDGE ( 'NONE', *, *, #66, .F. ) ;
#298 = APPROVAL_DATE_TIME ( #266, #289 ) ;
#299 = AXIS2_PLACEMENT_3D ( 'NONE', #196, #167, #195 ) ;
#300 = EDGE_CURVE ( 'NONE', #267, #150, #54, .T. ) ;
#301 = PLANE ( 'NONE',  #292 ) ;
#302 = AXIS2_PLACEMENT_3D ( 'NONE', #226, #121, #25 ) ;
#303 = CARTESIAN_POINT ( 'NONE',  ( 0.000000000000000000, 0.000000000000000000, 7.000000000000000000 ) ) ;
#304 = ORGANIZATION ( 'NEURÈENÝ', 'NEURÈENÝ', '' ) ;
#305 = DIRECTION ( 'NONE',  ( 1.000000000000000000, 0.000000000000000000, -0.000000000000000000 ) ) ;
#306 = EDGE_CURVE ( 'NONE', #259, #150, #49, .T. ) ;
#307 = DIRECTION ( 'NONE',  ( 1.000000000000000000, 0.000000000000000000, 0.000000000000000000 ) ) ;
ENDSEC;
END-ISO-10303-21;
