ISO-10303-21;
HEADER;
FILE_DESCRIPTION (( 'STEP AP203' ),
    '1' );
FILE_NAME ('3b8b.STEP',
    '2022-06-20T10:11:02',
    ( '' ),
    ( '' ),
    'SwSTEP 2.0',
    'SolidWorks 2019',
    '' );
FILE_SCHEMA (( 'CONFIG_CONTROL_DESIGN' ));
ENDSEC;

DATA;
#1 = ORIENTED_EDGE ( 'NONE', *, *, #10, .T. ) ;
#2 = DIRECTION ( 'NONE',  ( -1.000000000000000000, 1.224646799147354686E-16, 0.000000000000000000 ) ) ;
#3 = DIRECTION ( 'NONE',  ( -0.000000000000000000, -0.000000000000000000, -1.000000000000000000 ) ) ;
#4 = ADVANCED_FACE ( 'NONE', ( #263 ), #169, .F. ) ;
#5 = EDGE_LOOP ( 'NONE', ( #74, #214, #277, #181 ) ) ;
#6 = ORIENTED_EDGE ( 'NONE', *, *, #268, .T. ) ;
#7 = DIRECTION ( 'NONE',  ( -1.000000000000000000, 0.000000000000000000, 0.000000000000000000 ) ) ;
#8 = PRODUCT_DEFINITION_FORMATION_WITH_SPECIFIED_SOURCE ( 'LIBOVOLNÝ', '', #180, .NOT_KNOWN. ) ;
#9 = CYLINDRICAL_SURFACE ( 'NONE', #11, 1.750000000000000000 ) ;
#10 = EDGE_CURVE ( 'NONE', #43, #148, #219, .T. ) ;
#11 = AXIS2_PLACEMENT_3D ( 'NONE', #95, #221, #67 ) ;
#12 = DIRECTION ( 'NONE',  ( 1.000000000000000000, 0.000000000000000000, -0.000000000000000000 ) ) ;
#13 = PERSON_AND_ORGANIZATION ( #152, #299 ) ;
#14 = PRODUCT_RELATED_PRODUCT_CATEGORY ( 'detail', '', ( #180 ) ) ;
#15 = COORDINATED_UNIVERSAL_TIME_OFFSET ( 1, 0, .AHEAD. ) ;
#16 = APPROVAL_DATE_TIME ( #271, #131 ) ;
#17 = PLANE ( 'NONE',  #173 ) ;
#18 = CARTESIAN_POINT ( 'NONE',  ( 0.000000000000000000, 0.000000000000000000, 3.199999999999980638 ) ) ;
#19 = ORIENTED_EDGE ( 'NONE', *, *, #163, .T. ) ;
#20 = EDGE_CURVE ( 'NONE', #60, #209, #139, .T. ) ;
#21 = AXIS2_PLACEMENT_3D ( 'NONE', #136, #171, #12 ) ;
#22 = LOCAL_TIME ( 12, 11, 2.000000000000000000, #98 ) ;
#23 = AXIS2_PLACEMENT_3D ( 'NONE', #125, #99, #97 ) ;
#24 = FACE_OUTER_BOUND ( 'NONE', #253, .T. ) ;
#25 = CC_DESIGN_PERSON_AND_ORGANIZATION_ASSIGNMENT ( #106, #211, ( #157 ) ) ;
#26 = CARTESIAN_POINT ( 'NONE',  ( -1.750000000000000000, 0.000000000000000000, 3.199999999999980638 ) ) ;
#27 = CARTESIAN_POINT ( 'NONE',  ( -1.950000000000000178, 2.388061258337339136E-16, 3.199999999999980638 ) ) ;
#28 = ORIENTED_EDGE ( 'NONE', *, *, #286, .F. ) ;
#29 = TOROIDAL_SURFACE ( 'NONE', #68, 1.950000000000000178, 0.2000000000000000111 ) ;
#30 = EDGE_LOOP ( 'NONE', ( #135, #220, #57, #66 ) ) ;
#31 = CARTESIAN_POINT ( 'NONE',  ( 0.000000000000000000, 0.000000000000000000, 3.000000000000000000 ) ) ;
#32 = CARTESIAN_POINT ( 'NONE',  ( 0.000000000000000000, 0.000000000000000000, 3.000000000000000000 ) ) ;
#33 = CC_DESIGN_DATE_AND_TIME_ASSIGNMENT ( #270, #273, ( #46 ) ) ;
#34 = LOCAL_TIME ( 12, 11, 2.000000000000000000, #15 ) ;
#35 = APPROVAL_ROLE ( '' ) ;
#36 = APPROVAL_DATE_TIME ( #52, #186 ) ;
#37 = APPROVAL_PERSON_ORGANIZATION ( #202, #131, #229 ) ;
#38 = CARTESIAN_POINT ( 'NONE',  ( 1.750000000000000000, 2.143131898507868297E-16, 403.0000000000000000 ) ) ;
#39 = ORIENTED_EDGE ( 'NONE', *, *, #110, .F. ) ;
#40 = CARTESIAN_POINT ( 'NONE',  ( 0.000000000000000000, 0.000000000000000000, 403.0000000000000000 ) ) ;
#41 = VERTEX_POINT ( 'NONE', #238 ) ;
#42 = CARTESIAN_POINT ( 'NONE',  ( 3.500000000000000444, 4.286263797015737088E-16, 3.000000000000000000 ) ) ;
#43 = VERTEX_POINT ( 'NONE', #26 ) ;
#44 = DIRECTION ( 'NONE',  ( 1.000000000000000000, 0.000000000000000000, 0.000000000000000000 ) ) ;
#45 = PLANE ( 'NONE',  #21 ) ;
#46 = PRODUCT_DEFINITION ( 'NEZNÁMÝ', '', #8, #83 ) ;
#47 = CC_DESIGN_APPROVAL ( #215, ( #157 ) ) ;
#48 = ORIENTED_EDGE ( 'NONE', *, *, #115, .F. ) ;
#49 = DIRECTION ( 'NONE',  ( 1.000000000000000000, 0.000000000000000000, 0.000000000000000000 ) ) ;
#50 = DIRECTION ( 'NONE',  ( 1.000000000000000000, 0.000000000000000000, 0.000000000000000000 ) ) ;
#51 = CARTESIAN_POINT ( 'NONE',  ( 0.000000000000000000, 0.000000000000000000, 3.000000000000000000 ) ) ;
#52 = DATE_AND_TIME ( #227, #34 ) ;
#53 = DIRECTION ( 'NONE',  ( 0.000000000000000000, 0.000000000000000000, 1.000000000000000000 ) ) ;
#54 = EDGE_LOOP ( 'NONE', ( #82, #81 ) ) ;
#55 = DIRECTION ( 'NONE',  ( 1.000000000000000000, 0.000000000000000000, 0.000000000000000000 ) ) ;
#56 = APPLICATION_CONTEXT ( 'configuration controlled 3d designs of mechanical parts and assemblies' ) ;
#57 = ORIENTED_EDGE ( 'NONE', *, *, #110, .T. ) ;
#58 = CC_DESIGN_SECURITY_CLASSIFICATION ( #157, ( #8 ) ) ;
#59 = AXIS2_PLACEMENT_3D ( 'NONE', #282, #188, #216 ) ;
#60 = VERTEX_POINT ( 'NONE', #306 ) ;
#61 = CYLINDRICAL_SURFACE ( 'NONE', #77, 3.500000000000000444 ) ;
#62 = AXIS2_PLACEMENT_3D ( 'NONE', #18, #164, #243 ) ;
#63 = DIRECTION ( 'NONE',  ( -0.000000000000000000, -0.000000000000000000, -1.000000000000000000 ) ) ;
#64 = EDGE_LOOP ( 'NONE', ( #150, #160, #222, #39 ) ) ;
#65 = FACE_OUTER_BOUND ( 'NONE', #112, .T. ) ;
#66 = ORIENTED_EDGE ( 'NONE', *, *, #76, .F. ) ;
#67 = DIRECTION ( 'NONE',  ( -1.000000000000000000, 0.000000000000000000, 0.000000000000000000 ) ) ;
#68 = AXIS2_PLACEMENT_3D ( 'NONE', #257, #132, #84 ) ;
#69 = CYLINDRICAL_SURFACE ( 'NONE', #305, 1.750000000000000000 ) ;
#70 =( NAMED_UNIT ( * ) SI_UNIT ( $, .STERADIAN. ) SOLID_ANGLE_UNIT ( ) );
#71 = AXIS2_PLACEMENT_3D ( 'NONE', #241, #137, #44 ) ;
#72 = LINE ( 'NONE', #143, #119 ) ;
#73 = PERSON_AND_ORGANIZATION_ROLE ( 'creator' ) ;
#74 = ORIENTED_EDGE ( 'NONE', *, *, #248, .F. ) ;
#75 = COORDINATED_UNIVERSAL_TIME_OFFSET ( 1, 0, .AHEAD. ) ;
#76 = EDGE_CURVE ( 'NONE', #187, #240, #304, .T. ) ;
#77 = AXIS2_PLACEMENT_3D ( 'NONE', #111, #63, #109 ) ;
#78 = APPROVAL_PERSON_ORGANIZATION ( #185, #215, #280 ) ;
#79 = CIRCLE ( 'NONE', #289, 0.1999999999999998723 ) ;
#80 = CARTESIAN_POINT ( 'NONE',  ( 0.000000000000000000, 0.000000000000000000, 3.000000000000000000 ) ) ;
#81 = ORIENTED_EDGE ( 'NONE', *, *, #76, .T. ) ;
#82 = ORIENTED_EDGE ( 'NONE', *, *, #218, .T. ) ;
#83 = DESIGN_CONTEXT ( 'detailed design', #56, 'design' ) ;
#84 = DIRECTION ( 'NONE',  ( 1.000000000000000000, 0.000000000000000000, 0.000000000000000000 ) ) ;
#85 = CARTESIAN_POINT ( 'NONE',  ( 0.000000000000000000, 0.000000000000000000, 3.000000000000000000 ) ) ;
#86 = ADVANCED_FACE ( 'NONE', ( #193 ), #29, .F. ) ;
#87 = ORIENTED_EDGE ( 'NONE', *, *, #138, .F. ) ;
#88 = EDGE_LOOP ( 'NONE', ( #223, #272, #128, #123 ) ) ;
#89 = DIRECTION ( 'NONE',  ( 1.000000000000000000, 0.000000000000000000, -0.000000000000000000 ) ) ;
#90 = ORIENTED_EDGE ( 'NONE', *, *, #20, .F. ) ;
#91 = DIRECTION ( 'NONE',  ( 1.000000000000000000, 0.000000000000000000, 0.000000000000000000 ) ) ;
#92 = ADVANCED_FACE ( 'NONE', ( #24 ), #61, .T. ) ;
#93 = VECTOR ( 'NONE', #166, 1000.000000000000000 ) ;
#94 = APPROVAL_PERSON_ORGANIZATION ( #96, #186, #35 ) ;
#95 = CARTESIAN_POINT ( 'NONE',  ( 0.000000000000000000, 0.000000000000000000, 403.0000000000000000 ) ) ;
#96 = PERSON_AND_ORGANIZATION ( #152, #299 ) ;
#97 = DIRECTION ( 'NONE',  ( 1.000000000000000000, 0.000000000000000000, 0.000000000000000000 ) ) ;
#98 = COORDINATED_UNIVERSAL_TIME_OFFSET ( 1, 0, .AHEAD. ) ;
#99 = DIRECTION ( 'NONE',  ( 0.000000000000000000, 0.000000000000000000, 1.000000000000000000 ) ) ;
#100 = COORDINATED_UNIVERSAL_TIME_OFFSET ( 1, 0, .AHEAD. ) ;
#101 = APPLICATION_CONTEXT ( 'configuration controlled 3d designs of mechanical parts and assemblies' ) ;
#102 = CARTESIAN_POINT ( 'NONE',  ( -3.500000000000000444, 0.000000000000000000, 0.000000000000000000 ) ) ;
#103 = ORIENTED_EDGE ( 'NONE', *, *, #234, .T. ) ;
#104 = APPROVAL_DATE_TIME ( #296, #215 ) ;
#105 = LOCAL_TIME ( 12, 11, 2.000000000000000000, #149 ) ;
#106 = PERSON_AND_ORGANIZATION ( #152, #299 ) ;
#107 = AXIS2_PLACEMENT_3D ( 'NONE', #159, #190, #284 ) ;
#108 = CIRCLE ( 'NONE', #144, 3.500000000000000444 ) ;
#109 = DIRECTION ( 'NONE',  ( -1.000000000000000000, 0.000000000000000000, 0.000000000000000000 ) ) ;
#110 = EDGE_CURVE ( 'NONE', #148, #240, #200, .T. ) ;
#111 = CARTESIAN_POINT ( 'NONE',  ( 0.000000000000000000, 0.000000000000000000, 3.000000000000000000 ) ) ;
#112 = EDGE_LOOP ( 'NONE', ( #103, #204 ) ) ;
#113 = DIRECTION ( 'NONE',  ( 0.000000000000000000, 0.000000000000000000, 1.000000000000000000 ) ) ;
#114 = DIRECTION ( 'NONE',  ( 0.000000000000000000, 0.000000000000000000, 1.000000000000000000 ) ) ;
#115 = EDGE_CURVE ( 'NONE', #179, #60, #274, .T. ) ;
#116 = ORIENTED_EDGE ( 'NONE', *, *, #281, .F. ) ;
#117 = DIRECTION ( 'NONE',  ( 1.000000000000000000, 0.000000000000000000, 0.000000000000000000 ) ) ;
#118 = FACE_OUTER_BOUND ( 'NONE', #285, .T. ) ;
#119 = VECTOR ( 'NONE', #228, 1000.000000000000000 ) ;
#120 = ADVANCED_FACE ( 'NONE', ( #283 ), #45, .F. ) ;
#121 = DIRECTION ( 'NONE',  ( 1.000000000000000000, 0.000000000000000000, 0.000000000000000000 ) ) ;
#122 = MANIFOLD_SOLID_BREP ( 'Zaoblit1', #279 ) ;
#123 = ORIENTED_EDGE ( 'NONE', *, *, #286, .T. ) ;
#124 = CC_DESIGN_PERSON_AND_ORGANIZATION_ASSIGNMENT ( #255, #154, ( #8 ) ) ;
#125 = CARTESIAN_POINT ( 'NONE',  ( 0.000000000000000000, 0.000000000000000000, 0.000000000000000000 ) ) ;
#126 = DIRECTION ( 'NONE',  ( -0.000000000000000000, -0.000000000000000000, -1.000000000000000000 ) ) ;
#127 = CARTESIAN_POINT ( 'NONE',  ( -1.950000000000000178, 2.388061258337339136E-16, 2.999999999999990674 ) ) ;
#128 = ORIENTED_EDGE ( 'NONE', *, *, #20, .T. ) ;
#129 = UNCERTAINTY_MEASURE_WITH_UNIT (LENGTH_MEASURE( 1.000000000000000082E-05 ), #246, 'distance_accuracy_value', 'NONE');
#130 = CALENDAR_DATE ( 2022, 20, 6 ) ;
#131 = APPROVAL ( #269, 'NEURÈENÝ' ) ;
#132 = DIRECTION ( 'NONE',  ( 0.000000000000000000, 0.000000000000000000, 1.000000000000000000 ) ) ;
#133 = LOCAL_TIME ( 12, 11, 2.000000000000000000, #75 ) ;
#134 = AXIS2_PLACEMENT_3D ( 'NONE', #210, #233, #183 ) ;
#135 = ORIENTED_EDGE ( 'NONE', *, *, #276, .F. ) ;
#136 = CARTESIAN_POINT ( 'NONE',  ( 0.000000000000000000, 0.000000000000000000, 0.000000000000000000 ) ) ;
#137 = DIRECTION ( 'NONE',  ( 0.000000000000000000, 0.000000000000000000, 1.000000000000000000 ) ) ;
#138 = EDGE_CURVE ( 'NONE', #298, #148, #174, .T. ) ;
#139 = LINE ( 'NONE', #242, #194 ) ;
#140 = DIRECTION ( 'NONE',  ( 0.000000000000000000, 0.000000000000000000, 1.000000000000000000 ) ) ;
#141 = CARTESIAN_POINT ( 'NONE',  ( 0.000000000000000000, 0.000000000000000000, 0.000000000000000000 ) ) ;
#142 = APPROVAL_STATUS ( 'not_yet_approved' ) ;
#143 = CARTESIAN_POINT ( 'NONE',  ( -1.750000000000000000, 0.000000000000000000, 403.0000000000000000 ) ) ;
#144 = AXIS2_PLACEMENT_3D ( 'NONE', #198, #203, #121 ) ;
#145 = DIRECTION ( 'NONE',  ( 1.000000000000000000, 0.000000000000000000, 0.000000000000000000 ) ) ;
#146 = CIRCLE ( 'NONE', #237, 3.500000000000000444 ) ;
#147 = CARTESIAN_POINT ( 'NONE',  ( 1.750000000000000000, 2.143131898507868297E-16, 3.199999999999980638 ) ) ;
#148 = VERTEX_POINT ( 'NONE', #147 ) ;
#149 = COORDINATED_UNIVERSAL_TIME_OFFSET ( 1, 0, .AHEAD. ) ;
#150 = ORIENTED_EDGE ( 'NONE', *, *, #10, .F. ) ;
#151 = ADVANCED_FACE ( 'NONE', ( #251 ), #69, .T. ) ;
#152 = PERSON ( 'NEURÈENÝ', 'NEURÈENÝ', 'NEURÈENÝ', ('NEURÈENÝ'), ('NEURÈENÝ'), ('NEURÈENÝ') ) ;
#153 = DATE_TIME_ROLE ( 'classification_date' ) ;
#154 = PERSON_AND_ORGANIZATION_ROLE ( 'design_supplier' ) ;
#155 = ADVANCED_FACE ( 'NONE', ( #196, #288 ), #17, .T. ) ;
#156 = ORIENTED_EDGE ( 'NONE', *, *, #295, .T. ) ;
#157 = SECURITY_CLASSIFICATION ( '', '', #278 ) ;
#158 = CC_DESIGN_APPROVAL ( #131, ( #46 ) ) ;
#159 = CARTESIAN_POINT ( 'NONE',  ( 0.000000000000000000, 0.000000000000000000, 3.000000000000000000 ) ) ;
#160 = ORIENTED_EDGE ( 'NONE', *, *, #276, .T. ) ;
#161 = AXIS2_PLACEMENT_3D ( 'NONE', #31, #261, #91 ) ;
#162 = CARTESIAN_POINT ( 'NONE',  ( -1.750000000000000000, 0.000000000000000000, 403.0000000000000000 ) ) ;
#163 = EDGE_CURVE ( 'NONE', #60, #179, #245, .T. ) ;
#164 = DIRECTION ( 'NONE',  ( 0.000000000000000000, 0.000000000000000000, 1.000000000000000000 ) ) ;
#165 = CC_DESIGN_PERSON_AND_ORGANIZATION_ASSIGNMENT ( #205, #294, ( #46 ) ) ;
#166 = DIRECTION ( 'NONE',  ( -0.000000000000000000, -0.000000000000000000, -1.000000000000000000 ) ) ;
#167 = MECHANICAL_CONTEXT ( 'NONE', #101, 'mechanical' ) ;
#168 = PERSON_AND_ORGANIZATION_ROLE ( 'design_owner' ) ;
#169 = TOROIDAL_SURFACE ( 'NONE', #184, 1.950000000000000178, 0.2000000000000000111 ) ;
#170 = CALENDAR_DATE ( 2022, 20, 6 ) ;
#171 = DIRECTION ( 'NONE',  ( 0.000000000000000000, 0.000000000000000000, 1.000000000000000000 ) ) ;
#172 = APPLICATION_PROTOCOL_DEFINITION ( 'international standard', 'config_control_design', 1994, #56 ) ;
#173 = AXIS2_PLACEMENT_3D ( 'NONE', #80, #206, #178 ) ;
#174 = LINE ( 'NONE', #38, #93 ) ;
#175 = ORIENTED_EDGE ( 'NONE', *, *, #115, .T. ) ;
#176 = CC_DESIGN_APPROVAL ( #186, ( #8 ) ) ;
#177 = VECTOR ( 'NONE', #189, 1000.000000000000000 ) ;
#178 = DIRECTION ( 'NONE',  ( 1.000000000000000000, 0.000000000000000000, -0.000000000000000000 ) ) ;
#179 = VERTEX_POINT ( 'NONE', #42 ) ;
#180 = PRODUCT ( '3b8b', '3b8b', '', ( #167 ) ) ;
#181 = ORIENTED_EDGE ( 'NONE', *, *, #295, .F. ) ;
#182 = SHAPE_DEFINITION_REPRESENTATION ( #232, #224 ) ;
#183 = DIRECTION ( 'NONE',  ( 1.000000000000000000, 0.000000000000000000, 0.000000000000000000 ) ) ;
#184 = AXIS2_PLACEMENT_3D ( 'NONE', #264, #114, #50 ) ;
#185 = PERSON_AND_ORGANIZATION ( #152, #299 ) ;
#186 = APPROVAL ( #142, 'NEURÈENÝ' ) ;
#187 = VERTEX_POINT ( 'NONE', #127 ) ;
#188 = DIRECTION ( 'NONE',  ( 0.000000000000000000, -1.000000000000000000, 0.000000000000000000 ) ) ;
#189 = DIRECTION ( 'NONE',  ( -0.000000000000000000, -0.000000000000000000, -1.000000000000000000 ) ) ;
#190 = DIRECTION ( 'NONE',  ( 0.000000000000000000, 0.000000000000000000, 1.000000000000000000 ) ) ;
#191 = EDGE_LOOP ( 'NONE', ( #19, #175 ) ) ;
#192 = CARTESIAN_POINT ( 'NONE',  ( 1.950000000000000178, 0.000000000000000000, 2.999999999999990674 ) ) ;
#193 = FACE_OUTER_BOUND ( 'NONE', #30, .T. ) ;
#194 = VECTOR ( 'NONE', #3, 1000.000000000000000 ) ;
#195 = AXIS2_PLACEMENT_3D ( 'NONE', #51, #140, #55 ) ;
#196 = FACE_BOUND ( 'NONE', #54, .T. ) ;
#197 = LINE ( 'NONE', #239, #177 ) ;
#198 = CARTESIAN_POINT ( 'NONE',  ( 0.000000000000000000, 0.000000000000000000, 0.000000000000000000 ) ) ;
#199 = CALENDAR_DATE ( 2022, 20, 6 ) ;
#200 = CIRCLE ( 'NONE', #59, 0.2000000000000000944 ) ;
#201 = EDGE_CURVE ( 'NONE', #148, #43, #290, .T. ) ;
#202 = PERSON_AND_ORGANIZATION ( #152, #299 ) ;
#203 = DIRECTION ( 'NONE',  ( 0.000000000000000000, 0.000000000000000000, 1.000000000000000000 ) ) ;
#204 = ORIENTED_EDGE ( 'NONE', *, *, #248, .T. ) ;
#205 = PERSON_AND_ORGANIZATION ( #152, #299 ) ;
#206 = DIRECTION ( 'NONE',  ( 0.000000000000000000, 0.000000000000000000, 1.000000000000000000 ) ) ;
#207 =( GEOMETRIC_REPRESENTATION_CONTEXT ( 3 ) GLOBAL_UNCERTAINTY_ASSIGNED_CONTEXT ( ( #129 ) ) GLOBAL_UNIT_ASSIGNED_CONTEXT ( ( #246, #292, #70 ) ) REPRESENTATION_CONTEXT ( 'NONE', 'WORKASPACE' ) );
#208 = DIRECTION ( 'NONE',  ( -1.000000000000000000, 0.000000000000000000, 0.000000000000000000 ) ) ;
#209 = VERTEX_POINT ( 'NONE', #102 ) ;
#210 = CARTESIAN_POINT ( 'NONE',  ( 0.000000000000000000, 0.000000000000000000, 403.0000000000000000 ) ) ;
#211 = PERSON_AND_ORGANIZATION_ROLE ( 'classification_officer' ) ;
#212 = CALENDAR_DATE ( 2022, 20, 6 ) ;
#213 = CC_DESIGN_PERSON_AND_ORGANIZATION_ASSIGNMENT ( #13, #168, ( #180 ) ) ;
#214 = ORIENTED_EDGE ( 'NONE', *, *, #138, .T. ) ;
#215 = APPROVAL ( #254, 'NEURÈENÝ' ) ;
#216 = DIRECTION ( 'NONE',  ( 0.000000000000000000, 0.000000000000000000, -1.000000000000000000 ) ) ;
#217 = DIRECTION ( 'NONE',  ( 1.224646799147353207E-16, 1.000000000000000000, -0.000000000000000000 ) ) ;
#218 = EDGE_CURVE ( 'NONE', #240, #187, #297, .T. ) ;
#219 = CIRCLE ( 'NONE', #71, 1.750000000000000000 ) ;
#220 = ORIENTED_EDGE ( 'NONE', *, *, #201, .F. ) ;
#221 = DIRECTION ( 'NONE',  ( -0.000000000000000000, -0.000000000000000000, -1.000000000000000000 ) ) ;
#222 = ORIENTED_EDGE ( 'NONE', *, *, #218, .F. ) ;
#223 = ORIENTED_EDGE ( 'NONE', *, *, #268, .F. ) ;
#224 = ADVANCED_BREP_SHAPE_REPRESENTATION ( '3b8b', ( #122, #23 ), #207 ) ;
#225 = LOCAL_TIME ( 12, 11, 2.000000000000000000, #100 ) ;
#226 = CIRCLE ( 'NONE', #134, 1.750000000000000000 ) ;
#227 = CALENDAR_DATE ( 2022, 20, 6 ) ;
#228 = DIRECTION ( 'NONE',  ( -0.000000000000000000, -0.000000000000000000, -1.000000000000000000 ) ) ;
#229 = APPROVAL_ROLE ( '' ) ;
#230 = APPLICATION_PROTOCOL_DEFINITION ( 'international standard', 'config_control_design', 1994, #101 ) ;
#231 = ADVANCED_FACE ( 'NONE', ( #291 ), #307, .T. ) ;
#232 = PRODUCT_DEFINITION_SHAPE ( 'NONE', 'NONE',  #46 ) ;
#233 = DIRECTION ( 'NONE',  ( 0.000000000000000000, 0.000000000000000000, 1.000000000000000000 ) ) ;
#234 = EDGE_CURVE ( 'NONE', #247, #298, #226, .T. ) ;
#235 = AXIS2_PLACEMENT_3D ( 'NONE', #262, #113, #49 ) ;
#236 = ORIENTED_EDGE ( 'NONE', *, *, #281, .T. ) ;
#237 = AXIS2_PLACEMENT_3D ( 'NONE', #141, #53, #145 ) ;
#238 = CARTESIAN_POINT ( 'NONE',  ( 3.500000000000000444, 4.286263797015737088E-16, 0.000000000000000000 ) ) ;
#239 = CARTESIAN_POINT ( 'NONE',  ( 3.500000000000000444, 4.286263797015737088E-16, 3.000000000000000000 ) ) ;
#240 = VERTEX_POINT ( 'NONE', #192 ) ;
#241 = CARTESIAN_POINT ( 'NONE',  ( 0.000000000000000000, 0.000000000000000000, 3.199999999999980638 ) ) ;
#242 = CARTESIAN_POINT ( 'NONE',  ( -3.500000000000000444, 0.000000000000000000, 3.000000000000000000 ) ) ;
#243 = DIRECTION ( 'NONE',  ( 1.000000000000000000, 0.000000000000000000, 0.000000000000000000 ) ) ;
#244 = DIRECTION ( 'NONE',  ( 0.000000000000000000, 0.000000000000000000, 1.000000000000000000 ) ) ;
#245 = CIRCLE ( 'NONE', #195, 3.500000000000000444 ) ;
#246 =( LENGTH_UNIT ( ) NAMED_UNIT ( * ) SI_UNIT ( .MILLI., .METRE. ) );
#247 = VERTEX_POINT ( 'NONE', #162 ) ;
#248 = EDGE_CURVE ( 'NONE', #298, #247, #260, .T. ) ;
#249 = AXIS2_PLACEMENT_3D ( 'NONE', #32, #267, #117 ) ;
#250 = CARTESIAN_POINT ( 'NONE',  ( 1.750000000000000000, 2.143131898507868297E-16, 403.0000000000000000 ) ) ;
#251 = FACE_OUTER_BOUND ( 'NONE', #5, .T. ) ;
#252 = EDGE_LOOP ( 'NONE', ( #28, #116 ) ) ;
#253 = EDGE_LOOP ( 'NONE', ( #48, #6, #236, #90 ) ) ;
#254 = APPROVAL_STATUS ( 'not_yet_approved' ) ;
#255 = PERSON_AND_ORGANIZATION ( #152, #299 ) ;
#256 = ADVANCED_FACE ( 'NONE', ( #65 ), #287, .T. ) ;
#257 = CARTESIAN_POINT ( 'NONE',  ( 0.000000000000000000, 0.000000000000000000, 3.199999999999980638 ) ) ;
#258 = ORIENTED_EDGE ( 'NONE', *, *, #234, .F. ) ;
#259 = CARTESIAN_POINT ( 'NONE',  ( 0.000000000000000000, 0.000000000000000000, 403.0000000000000000 ) ) ;
#260 = CIRCLE ( 'NONE', #235, 1.750000000000000000 ) ;
#261 = DIRECTION ( 'NONE',  ( -0.000000000000000000, -0.000000000000000000, -1.000000000000000000 ) ) ;
#262 = CARTESIAN_POINT ( 'NONE',  ( 0.000000000000000000, 0.000000000000000000, 403.0000000000000000 ) ) ;
#263 = FACE_OUTER_BOUND ( 'NONE', #64, .T. ) ;
#264 = CARTESIAN_POINT ( 'NONE',  ( 0.000000000000000000, 0.000000000000000000, 3.199999999999980638 ) ) ;
#265 = AXIS2_PLACEMENT_3D ( 'NONE', #85, #303, #208 ) ;
#266 = ADVANCED_FACE ( 'NONE', ( #118 ), #9, .T. ) ;
#267 = DIRECTION ( 'NONE',  ( -0.000000000000000000, -0.000000000000000000, -1.000000000000000000 ) ) ;
#268 = EDGE_CURVE ( 'NONE', #179, #41, #197, .T. ) ;
#269 = APPROVAL_STATUS ( 'not_yet_approved' ) ;
#270 = DATE_AND_TIME ( #199, #133 ) ;
#271 = DATE_AND_TIME ( #170, #22 ) ;
#272 = ORIENTED_EDGE ( 'NONE', *, *, #163, .F. ) ;
#273 = DATE_TIME_ROLE ( 'creation_date' ) ;
#274 = CIRCLE ( 'NONE', #107, 3.500000000000000444 ) ;
#275 = AXIS2_PLACEMENT_3D ( 'NONE', #259, #244, #89 ) ;
#276 = EDGE_CURVE ( 'NONE', #43, #187, #79, .T. ) ;
#277 = ORIENTED_EDGE ( 'NONE', *, *, #201, .T. ) ;
#278 = SECURITY_CLASSIFICATION_LEVEL ( 'unclassified' ) ;
#279 = CLOSED_SHELL ( 'NONE', ( #4, #151, #92, #231, #155, #120, #266, #256, #86 ) ) ;
#280 = APPROVAL_ROLE ( '' ) ;
#281 = EDGE_CURVE ( 'NONE', #41, #209, #146, .T. ) ;
#282 = CARTESIAN_POINT ( 'NONE',  ( 1.950000000000000178, 0.000000000000000000, 3.199999999999980638 ) ) ;
#283 = FACE_OUTER_BOUND ( 'NONE', #252, .T. ) ;
#284 = DIRECTION ( 'NONE',  ( 1.000000000000000000, 0.000000000000000000, 0.000000000000000000 ) ) ;
#285 = EDGE_LOOP ( 'NONE', ( #87, #258, #156, #1 ) ) ;
#286 = EDGE_CURVE ( 'NONE', #209, #41, #108, .T. ) ;
#287 = PLANE ( 'NONE',  #275 ) ;
#288 = FACE_OUTER_BOUND ( 'NONE', #191, .T. ) ;
#289 = AXIS2_PLACEMENT_3D ( 'NONE', #27, #217, #2 ) ;
#290 = CIRCLE ( 'NONE', #62, 1.750000000000000000 ) ;
#291 = FACE_OUTER_BOUND ( 'NONE', #88, .T. ) ;
#292 =( NAMED_UNIT ( * ) PLANE_ANGLE_UNIT ( ) SI_UNIT ( $, .RADIAN. ) );
#293 = PERSON_AND_ORGANIZATION ( #152, #299 ) ;
#294 = PERSON_AND_ORGANIZATION_ROLE ( 'creator' ) ;
#295 = EDGE_CURVE ( 'NONE', #247, #43, #72, .T. ) ;
#296 = DATE_AND_TIME ( #212, #105 ) ;
#297 = CIRCLE ( 'NONE', #249, 1.950000000000000178 ) ;
#298 = VERTEX_POINT ( 'NONE', #250 ) ;
#299 = ORGANIZATION ( 'NEURÈENÝ', 'NEURÈENÝ', '' ) ;
#300 = DATE_AND_TIME ( #130, #225 ) ;
#301 = CC_DESIGN_PERSON_AND_ORGANIZATION_ASSIGNMENT ( #293, #73, ( #8 ) ) ;
#302 = CC_DESIGN_DATE_AND_TIME_ASSIGNMENT ( #300, #153, ( #157 ) ) ;
#303 = DIRECTION ( 'NONE',  ( -0.000000000000000000, -0.000000000000000000, -1.000000000000000000 ) ) ;
#304 = CIRCLE ( 'NONE', #161, 1.950000000000000178 ) ;
#305 = AXIS2_PLACEMENT_3D ( 'NONE', #40, #126, #7 ) ;
#306 = CARTESIAN_POINT ( 'NONE',  ( -3.500000000000000444, 0.000000000000000000, 3.000000000000000000 ) ) ;
#307 = CYLINDRICAL_SURFACE ( 'NONE', #265, 3.500000000000000444 ) ;
ENDSEC;
END-ISO-10303-21;
