ISO-10303-21;
HEADER;
FILE_DESCRIPTION (( 'STEP AP203' ),
    '1' );
FILE_NAME ('085d.STEP',
    '2022-06-20T09:28:07',
    ( '' ),
    ( '' ),
    'SwSTEP 2.0',
    'SolidWorks 2019',
    '' );
FILE_SCHEMA (( 'CONFIG_CONTROL_DESIGN' ));
ENDSEC;

DATA;
#1 = PERSON_AND_ORGANIZATION_ROLE ( 'creator' ) ;
#2 = ORIENTED_EDGE ( 'NONE', *, *, #146, .T. ) ;
#3 = APPROVAL ( #75, 'NEURÈENÝ' ) ;
#4 = EDGE_LOOP ( 'NONE', ( #266, #81, #52, #292 ) ) ;
#5 = CIRCLE ( 'NONE', #30, 0.1999999999999996503 ) ;
#6 = ORIENTED_EDGE ( 'NONE', *, *, #97, .F. ) ;
#7 = APPROVAL_DATE_TIME ( #47, #114 ) ;
#8 = EDGE_LOOP ( 'NONE', ( #6, #26, #185, #136 ) ) ;
#9 = ADVANCED_FACE ( 'NONE', ( #219 ), #272, .F. ) ;
#10 = CARTESIAN_POINT ( 'NONE',  ( 0.000000000000000000, 0.000000000000000000, 7.199999999999984190 ) ) ;
#11 = DIRECTION ( 'NONE',  ( 0.000000000000000000, 0.000000000000000000, 1.000000000000000000 ) ) ;
#12 = APPROVAL_PERSON_ORGANIZATION ( #45, #114, #128 ) ;
#13 = DIRECTION ( 'NONE',  ( -0.000000000000000000, -0.000000000000000000, -1.000000000000000000 ) ) ;
#14 = EDGE_CURVE ( 'NONE', #109, #259, #5, .T. ) ;
#15 = CYLINDRICAL_SURFACE ( 'NONE', #90, 9.000000000000000000 ) ;
#16 = DIRECTION ( 'NONE',  ( -0.000000000000000000, -0.000000000000000000, -1.000000000000000000 ) ) ;
#17 = APPLICATION_CONTEXT ( 'configuration controlled 3d designs of mechanical parts and assemblies' ) ;
#18 = CC_DESIGN_SECURITY_CLASSIFICATION ( #121, ( #302 ) ) ;
#19 = CARTESIAN_POINT ( 'NONE',  ( 6.250000000000000000, 7.654042494670957606E-16, 407.0000000000000000 ) ) ;
#20 = FACE_OUTER_BOUND ( 'NONE', #28, .T. ) ;
#21 = AXIS2_PLACEMENT_3D ( 'NONE', #65, #304, #173 ) ;
#22 = CARTESIAN_POINT ( 'NONE',  ( 0.000000000000000000, 0.000000000000000000, 0.000000000000000000 ) ) ;
#23 = APPLICATION_PROTOCOL_DEFINITION ( 'international standard', 'config_control_design', 1994, #17 ) ;
#24 = DATE_AND_TIME ( #150, #248 ) ;
#25 = EDGE_CURVE ( 'NONE', #33, #109, #178, .T. ) ;
#26 = ORIENTED_EDGE ( 'NONE', *, *, #305, .F. ) ;
#27 = APPROVAL_STATUS ( 'not_yet_approved' ) ;
#28 = EDGE_LOOP ( 'NONE', ( #84, #239 ) ) ;
#29 = EDGE_LOOP ( 'NONE', ( #243, #244 ) ) ;
#30 = AXIS2_PLACEMENT_3D ( 'NONE', #137, #48, #104 ) ;
#31 = APPROVAL_DATE_TIME ( #291, #3 ) ;
#32 = VECTOR ( 'NONE', #38, 1000.000000000000000 ) ;
#33 = VERTEX_POINT ( 'NONE', #19 ) ;
#34 = CARTESIAN_POINT ( 'NONE',  ( -6.250000000000000000, 0.000000000000000000, 407.0000000000000000 ) ) ;
#35 = CC_DESIGN_APPROVAL ( #129, ( #121 ) ) ;
#36 = CC_DESIGN_DATE_AND_TIME_ASSIGNMENT ( #240, #130, ( #87 ) ) ;
#37 = CALENDAR_DATE ( 2022, 20, 6 ) ;
#38 = DIRECTION ( 'NONE',  ( -0.000000000000000000, -0.000000000000000000, -1.000000000000000000 ) ) ;
#39 = FACE_OUTER_BOUND ( 'NONE', #218, .T. ) ;
#40 = DIRECTION ( 'NONE',  ( 0.000000000000000000, 0.000000000000000000, 1.000000000000000000 ) ) ;
#41 = DIRECTION ( 'NONE',  ( 1.000000000000000000, 0.000000000000000000, -0.000000000000000000 ) ) ;
#42 = CC_DESIGN_PERSON_AND_ORGANIZATION_ASSIGNMENT ( #198, #177, ( #121 ) ) ;
#43 = AXIS2_PLACEMENT_3D ( 'NONE', #270, #232, #204 ) ;
#44 = AXIS2_PLACEMENT_3D ( 'NONE', #89, #189, #163 ) ;
#45 = PERSON_AND_ORGANIZATION ( #242, #148 ) ;
#46 = CARTESIAN_POINT ( 'NONE',  ( 0.000000000000000000, 0.000000000000000000, 407.0000000000000000 ) ) ;
#47 = DATE_AND_TIME ( #184, #282 ) ;
#48 = DIRECTION ( 'NONE',  ( 0.000000000000000000, -1.000000000000000000, 0.000000000000000000 ) ) ;
#49 = AXIS2_PLACEMENT_3D ( 'NONE', #211, #193, #172 ) ;
#50 = PERSON_AND_ORGANIZATION ( #242, #148 ) ;
#51 = DIRECTION ( 'NONE',  ( -0.000000000000000000, -0.000000000000000000, -1.000000000000000000 ) ) ;
#52 = ORIENTED_EDGE ( 'NONE', *, *, #278, .F. ) ;
#53 = COORDINATED_UNIVERSAL_TIME_OFFSET ( 1, 0, .AHEAD. ) ;
#54 = ORIENTED_EDGE ( 'NONE', *, *, #274, .F. ) ;
#55 = ADVANCED_FACE ( 'NONE', ( #39 ), #15, .T. ) ;
#56 = PERSON_AND_ORGANIZATION ( #242, #148 ) ;
#57 = ORIENTED_EDGE ( 'NONE', *, *, #119, .F. ) ;
#58 = DIRECTION ( 'NONE',  ( -0.000000000000000000, -0.000000000000000000, -1.000000000000000000 ) ) ;
#59 = APPROVAL_DATE_TIME ( #245, #129 ) ;
#60 = CC_DESIGN_PERSON_AND_ORGANIZATION_ASSIGNMENT ( #56, #1, ( #302 ) ) ;
#61 = CARTESIAN_POINT ( 'NONE',  ( 9.000000000000000000, 1.102182119232617714E-15, 0.000000000000000000 ) ) ;
#62 = LINE ( 'NONE', #143, #167 ) ;
#63 = CARTESIAN_POINT ( 'NONE',  ( 0.000000000000000000, 0.000000000000000000, 7.000000000000000000 ) ) ;
#64 = DIRECTION ( 'NONE',  ( -1.000000000000000000, 0.000000000000000000, 0.000000000000000000 ) ) ;
#65 = CARTESIAN_POINT ( 'NONE',  ( 0.000000000000000000, 0.000000000000000000, 7.000000000000000000 ) ) ;
#66 = CIRCLE ( 'NONE', #288, 6.250000000000000000 ) ;
#67 = DIRECTION ( 'NONE',  ( 0.000000000000000000, 0.000000000000000000, 1.000000000000000000 ) ) ;
#68 = ADVANCED_FACE ( 'NONE', ( #247 ), #293, .F. ) ;
#69 =( NAMED_UNIT ( * ) PLANE_ANGLE_UNIT ( ) SI_UNIT ( $, .RADIAN. ) );
#70 = APPLICATION_PROTOCOL_DEFINITION ( 'international standard', 'config_control_design', 1994, #284 ) ;
#71 = CIRCLE ( 'NONE', #43, 0.1999999999999996503 ) ;
#72 = AXIS2_PLACEMENT_3D ( 'NONE', #46, #300, #276 ) ;
#73 = UNCERTAINTY_MEASURE_WITH_UNIT (LENGTH_MEASURE( 1.000000000000000082E-05 ), #195, 'distance_accuracy_value', 'NONE');
#74 = DIRECTION ( 'NONE',  ( 1.000000000000000000, 0.000000000000000000, 0.000000000000000000 ) ) ;
#75 = APPROVAL_STATUS ( 'not_yet_approved' ) ;
#76 = DIRECTION ( 'NONE',  ( 1.000000000000000000, 0.000000000000000000, 0.000000000000000000 ) ) ;
#77 = SECURITY_CLASSIFICATION_LEVEL ( 'unclassified' ) ;
#78 = ORIENTED_EDGE ( 'NONE', *, *, #274, .T. ) ;
#79 =( GEOMETRIC_REPRESENTATION_CONTEXT ( 3 ) GLOBAL_UNCERTAINTY_ASSIGNED_CONTEXT ( ( #73 ) ) GLOBAL_UNIT_ASSIGNED_CONTEXT ( ( #195, #69, #213 ) ) REPRESENTATION_CONTEXT ( 'NONE', 'WORKASPACE' ) );
#80 = COORDINATED_UNIVERSAL_TIME_OFFSET ( 1, 0, .AHEAD. ) ;
#81 = ORIENTED_EDGE ( 'NONE', *, *, #97, .T. ) ;
#82 = ADVANCED_FACE ( 'NONE', ( #230 ), #140, .T. ) ;
#83 = EDGE_LOOP ( 'NONE', ( #241, #289, #265, #287 ) ) ;
#84 = ORIENTED_EDGE ( 'NONE', *, *, #119, .T. ) ;
#85 = CIRCLE ( 'NONE', #261, 9.000000000000000000 ) ;
#86 = FACE_OUTER_BOUND ( 'NONE', #222, .T. ) ;
#87 = PRODUCT_DEFINITION ( 'NEZNÁMÝ', '', #302, #127 ) ;
#88 = LINE ( 'NONE', #34, #32 ) ;
#89 = CARTESIAN_POINT ( 'NONE',  ( 0.000000000000000000, 0.000000000000000000, 7.199999999999984190 ) ) ;
#90 = AXIS2_PLACEMENT_3D ( 'NONE', #63, #16, #228 ) ;
#91 = DIRECTION ( 'NONE',  ( 1.000000000000000000, 0.000000000000000000, 0.000000000000000000 ) ) ;
#92 = FACE_OUTER_BOUND ( 'NONE', #4, .T. ) ;
#93 = CC_DESIGN_PERSON_AND_ORGANIZATION_ASSIGNMENT ( #281, #98, ( #229 ) ) ;
#94 = PLANE ( 'NONE',  #72 ) ;
#95 = DIRECTION ( 'NONE',  ( 1.000000000000000000, 0.000000000000000000, 0.000000000000000000 ) ) ;
#96 = AXIS2_PLACEMENT_3D ( 'NONE', #249, #141, #117 ) ;
#97 = EDGE_CURVE ( 'NONE', #183, #105, #71, .T. ) ;
#98 = PERSON_AND_ORGANIZATION_ROLE ( 'design_owner' ) ;
#99 = CARTESIAN_POINT ( 'NONE',  ( -9.000000000000000000, 0.000000000000000000, 0.000000000000000000 ) ) ;
#100 = CARTESIAN_POINT ( 'NONE',  ( 0.000000000000000000, 0.000000000000000000, 7.199999999999984190 ) ) ;
#101 = AXIS2_PLACEMENT_3D ( 'NONE', #186, #58, #166 ) ;
#102 = PERSON_AND_ORGANIZATION_ROLE ( 'design_supplier' ) ;
#103 = DATE_TIME_ROLE ( 'classification_date' ) ;
#104 = DIRECTION ( 'NONE',  ( 0.000000000000000000, 0.000000000000000000, -1.000000000000000000 ) ) ;
#105 = VERTEX_POINT ( 'NONE', #275 ) ;
#106 = CIRCLE ( 'NONE', #235, 6.250000000000000000 ) ;
#107 = ADVANCED_FACE ( 'NONE', ( #86 ), #113, .T. ) ;
#108 = ORIENTED_EDGE ( 'NONE', *, *, #188, .F. ) ;
#109 = VERTEX_POINT ( 'NONE', #246 ) ;
#110 = DIRECTION ( 'NONE',  ( 0.000000000000000000, 0.000000000000000000, 1.000000000000000000 ) ) ;
#111 = CLOSED_SHELL ( 'NONE', ( #176, #107, #55, #207, #269, #68, #82, #234, #9 ) ) ;
#112 = AXIS2_PLACEMENT_3D ( 'NONE', #125, #67, #41 ) ;
#113 = CYLINDRICAL_SURFACE ( 'NONE', #101, 6.250000000000000000 ) ;
#114 = APPROVAL ( #149, 'NEURÈENÝ' ) ;
#115 = COORDINATED_UNIVERSAL_TIME_OFFSET ( 1, 0, .AHEAD. ) ;
#116 = CARTESIAN_POINT ( 'NONE',  ( 0.000000000000000000, 0.000000000000000000, 7.199999999999984190 ) ) ;
#117 = DIRECTION ( 'NONE',  ( 1.000000000000000000, 0.000000000000000000, 0.000000000000000000 ) ) ;
#118 = ADVANCED_BREP_SHAPE_REPRESENTATION ( '085d', ( #223, #152 ), #79 ) ;
#119 = EDGE_CURVE ( 'NONE', #131, #33, #294, .T. ) ;
#120 = LINE ( 'NONE', #253, #267 ) ;
#121 = SECURITY_CLASSIFICATION ( '', '', #77 ) ;
#122 = CARTESIAN_POINT ( 'NONE',  ( 0.000000000000000000, 0.000000000000000000, 7.000000000000000000 ) ) ;
#123 = MECHANICAL_CONTEXT ( 'NONE', #17, 'mechanical' ) ;
#124 = CC_DESIGN_PERSON_AND_ORGANIZATION_ASSIGNMENT ( #201, #263, ( #87 ) ) ;
#125 = CARTESIAN_POINT ( 'NONE',  ( 0.000000000000000000, 0.000000000000000000, 7.000000000000000000 ) ) ;
#126 = DIRECTION ( 'NONE',  ( 0.000000000000000000, 0.000000000000000000, 1.000000000000000000 ) ) ;
#127 = DESIGN_CONTEXT ( 'detailed design', #284, 'design' ) ;
#128 = APPROVAL_ROLE ( '' ) ;
#129 = APPROVAL ( #27, 'NEURÈENÝ' ) ;
#130 = DATE_TIME_ROLE ( 'creation_date' ) ;
#131 = VERTEX_POINT ( 'NONE', #268 ) ;
#132 = ORIENTED_EDGE ( 'NONE', *, *, #202, .T. ) ;
#133 = EDGE_CURVE ( 'NONE', #158, #264, #120, .T. ) ;
#134 = VERTEX_POINT ( 'NONE', #271 ) ;
#135 = CIRCLE ( 'NONE', #212, 9.000000000000000000 ) ;
#136 = ORIENTED_EDGE ( 'NONE', *, *, #225, .F. ) ;
#137 = CARTESIAN_POINT ( 'NONE',  ( 6.450000000000000178, 0.000000000000000000, 7.199999999999984190 ) ) ;
#138 = CARTESIAN_POINT ( 'NONE',  ( -9.000000000000000000, 0.000000000000000000, 7.000000000000000000 ) ) ;
#139 = LOCAL_TIME ( 11, 28, 7.000000000000000000, #80 ) ;
#140 = CYLINDRICAL_SURFACE ( 'NONE', #255, 6.250000000000000000 ) ;
#141 = DIRECTION ( 'NONE',  ( 0.000000000000000000, 0.000000000000000000, 1.000000000000000000 ) ) ;
#142 = EDGE_CURVE ( 'NONE', #134, #175, #62, .T. ) ;
#143 = CARTESIAN_POINT ( 'NONE',  ( 9.000000000000000000, 1.102182119232617714E-15, 7.000000000000000000 ) ) ;
#144 = CARTESIAN_POINT ( 'NONE',  ( 0.000000000000000000, 0.000000000000000000, 0.000000000000000000 ) ) ;
#145 = AXIS2_PLACEMENT_3D ( 'NONE', #122, #174, #283 ) ;
#146 = EDGE_CURVE ( 'NONE', #131, #183, #88, .T. ) ;
#147 = AXIS2_PLACEMENT_3D ( 'NONE', #10, #110, #76 ) ;
#148 = ORGANIZATION ( 'NEURÈENÝ', 'NEURÈENÝ', '' ) ;
#149 = APPROVAL_STATUS ( 'not_yet_approved' ) ;
#150 = CALENDAR_DATE ( 2022, 20, 6 ) ;
#151 = ORIENTED_EDGE ( 'NONE', *, *, #146, .F. ) ;
#152 = AXIS2_PLACEMENT_3D ( 'NONE', #22, #126, #256 ) ;
#153 = ORIENTED_EDGE ( 'NONE', *, *, #25, .F. ) ;
#154 = EDGE_LOOP ( 'NONE', ( #200, #132 ) ) ;
#155 = CALENDAR_DATE ( 2022, 20, 6 ) ;
#156 = ORIENTED_EDGE ( 'NONE', *, *, #25, .T. ) ;
#157 = LOCAL_TIME ( 11, 28, 7.000000000000000000, #115 ) ;
#158 = VERTEX_POINT ( 'NONE', #138 ) ;
#159 = PRODUCT_RELATED_PRODUCT_CATEGORY ( 'detail', '', ( #229 ) ) ;
#160 = DIRECTION ( 'NONE',  ( 0.000000000000000000, 0.000000000000000000, 1.000000000000000000 ) ) ;
#161 = DIRECTION ( 'NONE',  ( -0.000000000000000000, -0.000000000000000000, -1.000000000000000000 ) ) ;
#162 = CIRCLE ( 'NONE', #145, 6.450000000000000178 ) ;
#163 = DIRECTION ( 'NONE',  ( 1.000000000000000000, 0.000000000000000000, 0.000000000000000000 ) ) ;
#164 = CC_DESIGN_DATE_AND_TIME_ASSIGNMENT ( #24, #103, ( #121 ) ) ;
#165 = CYLINDRICAL_SURFACE ( 'NONE', #197, 9.000000000000000000 ) ;
#166 = DIRECTION ( 'NONE',  ( -1.000000000000000000, 0.000000000000000000, 0.000000000000000000 ) ) ;
#167 = VECTOR ( 'NONE', #295, 1000.000000000000000 ) ;
#168 = DIRECTION ( 'NONE',  ( 1.000000000000000000, 0.000000000000000000, 0.000000000000000000 ) ) ;
#169 = APPROVAL_PERSON_ORGANIZATION ( #260, #129, #227 ) ;
#170 = EDGE_CURVE ( 'NONE', #183, #109, #66, .T. ) ;
#171 = DIRECTION ( 'NONE',  ( 0.000000000000000000, 0.000000000000000000, 1.000000000000000000 ) ) ;
#172 = DIRECTION ( 'NONE',  ( 1.000000000000000000, 0.000000000000000000, 0.000000000000000000 ) ) ;
#173 = DIRECTION ( 'NONE',  ( 1.000000000000000000, 0.000000000000000000, 0.000000000000000000 ) ) ;
#174 = DIRECTION ( 'NONE',  ( -0.000000000000000000, -0.000000000000000000, -1.000000000000000000 ) ) ;
#175 = VERTEX_POINT ( 'NONE', #61 ) ;
#176 = ADVANCED_FACE ( 'NONE', ( #92 ), #209, .F. ) ;
#177 = PERSON_AND_ORGANIZATION_ROLE ( 'classification_officer' ) ;
#178 = LINE ( 'NONE', #262, #277 ) ;
#179 = CC_DESIGN_APPROVAL ( #3, ( #302 ) ) ;
#180 = LOCAL_TIME ( 11, 28, 7.000000000000000000, #53 ) ;
#181 = ORIENTED_EDGE ( 'NONE', *, *, #133, .F. ) ;
#182 = APPROVAL_ROLE ( '' ) ;
#183 = VERTEX_POINT ( 'NONE', #273 ) ;
#184 = CALENDAR_DATE ( 2022, 20, 6 ) ;
#185 = ORIENTED_EDGE ( 'NONE', *, *, #14, .T. ) ;
#186 = CARTESIAN_POINT ( 'NONE',  ( 0.000000000000000000, 0.000000000000000000, 407.0000000000000000 ) ) ;
#187 = DIRECTION ( 'NONE',  ( 1.000000000000000000, 0.000000000000000000, 0.000000000000000000 ) ) ;
#188 = EDGE_CURVE ( 'NONE', #33, #131, #220, .T. ) ;
#189 = DIRECTION ( 'NONE',  ( 0.000000000000000000, 0.000000000000000000, 1.000000000000000000 ) ) ;
#190 = AXIS2_PLACEMENT_3D ( 'NONE', #144, #40, #224 ) ;
#191 = FACE_OUTER_BOUND ( 'NONE', #83, .T. ) ;
#192 = FACE_OUTER_BOUND ( 'NONE', #154, .T. ) ;
#193 = DIRECTION ( 'NONE',  ( -0.000000000000000000, -0.000000000000000000, -1.000000000000000000 ) ) ;
#194 = AXIS2_PLACEMENT_3D ( 'NONE', #196, #280, #95 ) ;
#195 =( LENGTH_UNIT ( ) NAMED_UNIT ( * ) SI_UNIT ( .MILLI., .METRE. ) );
#196 = CARTESIAN_POINT ( 'NONE',  ( 0.000000000000000000, 0.000000000000000000, 0.000000000000000000 ) ) ;
#197 = AXIS2_PLACEMENT_3D ( 'NONE', #210, #214, #279 ) ;
#198 = PERSON_AND_ORGANIZATION ( #242, #148 ) ;
#199 = ORIENTED_EDGE ( 'NONE', *, *, #170, .T. ) ;
#200 = ORIENTED_EDGE ( 'NONE', *, *, #252, .T. ) ;
#201 = PERSON_AND_ORGANIZATION ( #242, #148 ) ;
#202 = EDGE_CURVE ( 'NONE', #134, #158, #85, .T. ) ;
#203 = ORIENTED_EDGE ( 'NONE', *, *, #202, .F. ) ;
#204 = DIRECTION ( 'NONE',  ( -1.000000000000000000, 1.224646799147353454E-16, 0.000000000000000000 ) ) ;
#205 = CIRCLE ( 'NONE', #21, 9.000000000000000000 ) ;
#206 = CARTESIAN_POINT ( 'NONE',  ( 0.000000000000000000, 0.000000000000000000, 407.0000000000000000 ) ) ;
#207 = ADVANCED_FACE ( 'NONE', ( #191 ), #165, .T. ) ;
#208 = CARTESIAN_POINT ( 'NONE',  ( 0.000000000000000000, 0.000000000000000000, 7.000000000000000000 ) ) ;
#209 = TOROIDAL_SURFACE ( 'NONE', #44, 6.450000000000000178, 0.2000000000000000111 ) ;
#210 = CARTESIAN_POINT ( 'NONE',  ( 0.000000000000000000, 0.000000000000000000, 7.000000000000000000 ) ) ;
#211 = CARTESIAN_POINT ( 'NONE',  ( 0.000000000000000000, 0.000000000000000000, 7.000000000000000000 ) ) ;
#212 = AXIS2_PLACEMENT_3D ( 'NONE', #215, #171, #74 ) ;
#213 =( NAMED_UNIT ( * ) SI_UNIT ( $, .STERADIAN. ) SOLID_ANGLE_UNIT ( ) );
#214 = DIRECTION ( 'NONE',  ( -0.000000000000000000, -0.000000000000000000, -1.000000000000000000 ) ) ;
#215 = CARTESIAN_POINT ( 'NONE',  ( 0.000000000000000000, 0.000000000000000000, 0.000000000000000000 ) ) ;
#216 = CALENDAR_DATE ( 2022, 20, 6 ) ;
#217 = ORIENTED_EDGE ( 'NONE', *, *, #305, .T. ) ;
#218 = EDGE_LOOP ( 'NONE', ( #203, #290, #78, #181 ) ) ;
#219 = FACE_OUTER_BOUND ( 'NONE', #8, .T. ) ;
#220 = CIRCLE ( 'NONE', #96, 6.250000000000000000 ) ;
#221 = ORIENTED_EDGE ( 'NONE', *, *, #257, .F. ) ;
#222 = EDGE_LOOP ( 'NONE', ( #108, #156, #217, #151 ) ) ;
#223 = MANIFOLD_SOLID_BREP ( 'Zaoblit1', #111 ) ;
#224 = DIRECTION ( 'NONE',  ( 1.000000000000000000, 0.000000000000000000, -0.000000000000000000 ) ) ;
#225 = EDGE_CURVE ( 'NONE', #105, #259, #162, .T. ) ;
#226 = CIRCLE ( 'NONE', #49, 6.450000000000000178 ) ;
#227 = APPROVAL_ROLE ( '' ) ;
#228 = DIRECTION ( 'NONE',  ( -1.000000000000000000, 0.000000000000000000, 0.000000000000000000 ) ) ;
#229 = PRODUCT ( '085d', '085d', '', ( #123 ) ) ;
#230 = FACE_OUTER_BOUND ( 'NONE', #238, .T. ) ;
#231 = AXIS2_PLACEMENT_3D ( 'NONE', #206, #160, #251 ) ;
#232 = DIRECTION ( 'NONE',  ( 1.224646799147353207E-16, 1.000000000000000000, -0.000000000000000000 ) ) ;
#233 = PLANE ( 'NONE',  #112 ) ;
#234 = ADVANCED_FACE ( 'NONE', ( #20 ), #94, .T. ) ;
#235 = AXIS2_PLACEMENT_3D ( 'NONE', #100, #254, #168 ) ;
#236 = FACE_BOUND ( 'NONE', #29, .T. ) ;
#237 = CIRCLE ( 'NONE', #194, 9.000000000000000000 ) ;
#238 = EDGE_LOOP ( 'NONE', ( #153, #57, #2, #199 ) ) ;
#239 = ORIENTED_EDGE ( 'NONE', *, *, #188, .T. ) ;
#240 = DATE_AND_TIME ( #216, #139 ) ;
#241 = ORIENTED_EDGE ( 'NONE', *, *, #142, .F. ) ;
#242 = PERSON ( 'NEURÈENÝ', 'NEURÈENÝ', 'NEURÈENÝ', ('NEURÈENÝ'), ('NEURÈENÝ'), ('NEURÈENÝ') ) ;
#243 = ORIENTED_EDGE ( 'NONE', *, *, #278, .T. ) ;
#244 = ORIENTED_EDGE ( 'NONE', *, *, #225, .T. ) ;
#245 = DATE_AND_TIME ( #37, #157 ) ;
#246 = CARTESIAN_POINT ( 'NONE',  ( 6.250000000000000000, 7.654042494670957606E-16, 7.199999999999984190 ) ) ;
#247 = FACE_OUTER_BOUND ( 'NONE', #285, .T. ) ;
#248 = LOCAL_TIME ( 11, 28, 7.000000000000000000, #258 ) ;
#249 = CARTESIAN_POINT ( 'NONE',  ( 0.000000000000000000, 0.000000000000000000, 407.0000000000000000 ) ) ;
#250 = PRODUCT_DEFINITION_SHAPE ( 'NONE', 'NONE',  #87 ) ;
#251 = DIRECTION ( 'NONE',  ( 1.000000000000000000, 0.000000000000000000, 0.000000000000000000 ) ) ;
#252 = EDGE_CURVE ( 'NONE', #158, #134, #205, .T. ) ;
#253 = CARTESIAN_POINT ( 'NONE',  ( -9.000000000000000000, 0.000000000000000000, 7.000000000000000000 ) ) ;
#254 = DIRECTION ( 'NONE',  ( 0.000000000000000000, 0.000000000000000000, 1.000000000000000000 ) ) ;
#255 = AXIS2_PLACEMENT_3D ( 'NONE', #298, #161, #64 ) ;
#256 = DIRECTION ( 'NONE',  ( 1.000000000000000000, 0.000000000000000000, 0.000000000000000000 ) ) ;
#257 = EDGE_CURVE ( 'NONE', #264, #175, #237, .T. ) ;
#258 = COORDINATED_UNIVERSAL_TIME_OFFSET ( 1, 0, .AHEAD. ) ;
#259 = VERTEX_POINT ( 'NONE', #299 ) ;
#260 = PERSON_AND_ORGANIZATION ( #242, #148 ) ;
#261 = AXIS2_PLACEMENT_3D ( 'NONE', #208, #297, #91 ) ;
#262 = CARTESIAN_POINT ( 'NONE',  ( 6.250000000000000000, 7.654042494670957606E-16, 407.0000000000000000 ) ) ;
#263 = PERSON_AND_ORGANIZATION_ROLE ( 'creator' ) ;
#264 = VERTEX_POINT ( 'NONE', #99 ) ;
#265 = ORIENTED_EDGE ( 'NONE', *, *, #133, .T. ) ;
#266 = ORIENTED_EDGE ( 'NONE', *, *, #170, .F. ) ;
#267 = VECTOR ( 'NONE', #13, 1000.000000000000000 ) ;
#268 = CARTESIAN_POINT ( 'NONE',  ( -6.250000000000000000, 0.000000000000000000, 407.0000000000000000 ) ) ;
#269 = ADVANCED_FACE ( 'NONE', ( #236, #192 ), #233, .T. ) ;
#270 = CARTESIAN_POINT ( 'NONE',  ( -6.450000000000000178, 7.898971854500428692E-16, 7.199999999999984190 ) ) ;
#271 = CARTESIAN_POINT ( 'NONE',  ( 9.000000000000000000, 1.102182119232617714E-15, 7.000000000000000000 ) ) ;
#272 = TOROIDAL_SURFACE ( 'NONE', #147, 6.450000000000000178, 0.2000000000000000111 ) ;
#273 = CARTESIAN_POINT ( 'NONE',  ( -6.250000000000000000, 0.000000000000000000, 7.199999999999984190 ) ) ;
#274 = EDGE_CURVE ( 'NONE', #175, #264, #135, .T. ) ;
#275 = CARTESIAN_POINT ( 'NONE',  ( -6.450000000000000178, 7.898971854500428692E-16, 6.999999999999992006 ) ) ;
#276 = DIRECTION ( 'NONE',  ( 1.000000000000000000, 0.000000000000000000, -0.000000000000000000 ) ) ;
#277 = VECTOR ( 'NONE', #51, 1000.000000000000000 ) ;
#278 = EDGE_CURVE ( 'NONE', #259, #105, #226, .T. ) ;
#279 = DIRECTION ( 'NONE',  ( -1.000000000000000000, 0.000000000000000000, 0.000000000000000000 ) ) ;
#280 = DIRECTION ( 'NONE',  ( 0.000000000000000000, 0.000000000000000000, 1.000000000000000000 ) ) ;
#281 = PERSON_AND_ORGANIZATION ( #242, #148 ) ;
#282 = LOCAL_TIME ( 11, 28, 7.000000000000000000, #306 ) ;
#283 = DIRECTION ( 'NONE',  ( 1.000000000000000000, 0.000000000000000000, 0.000000000000000000 ) ) ;
#284 = APPLICATION_CONTEXT ( 'configuration controlled 3d designs of mechanical parts and assemblies' ) ;
#285 = EDGE_LOOP ( 'NONE', ( #221, #54 ) ) ;
#286 = PERSON_AND_ORGANIZATION ( #242, #148 ) ;
#287 = ORIENTED_EDGE ( 'NONE', *, *, #257, .T. ) ;
#288 = AXIS2_PLACEMENT_3D ( 'NONE', #116, #11, #187 ) ;
#289 = ORIENTED_EDGE ( 'NONE', *, *, #252, .F. ) ;
#290 = ORIENTED_EDGE ( 'NONE', *, *, #142, .T. ) ;
#291 = DATE_AND_TIME ( #155, #180 ) ;
#292 = ORIENTED_EDGE ( 'NONE', *, *, #14, .F. ) ;
#293 = PLANE ( 'NONE',  #190 ) ;
#294 = CIRCLE ( 'NONE', #231, 6.250000000000000000 ) ;
#295 = DIRECTION ( 'NONE',  ( -0.000000000000000000, -0.000000000000000000, -1.000000000000000000 ) ) ;
#296 = CC_DESIGN_PERSON_AND_ORGANIZATION_ASSIGNMENT ( #50, #102, ( #302 ) ) ;
#297 = DIRECTION ( 'NONE',  ( 0.000000000000000000, 0.000000000000000000, 1.000000000000000000 ) ) ;
#298 = CARTESIAN_POINT ( 'NONE',  ( 0.000000000000000000, 0.000000000000000000, 407.0000000000000000 ) ) ;
#299 = CARTESIAN_POINT ( 'NONE',  ( 6.450000000000000178, 0.000000000000000000, 6.999999999999992006 ) ) ;
#300 = DIRECTION ( 'NONE',  ( 0.000000000000000000, 0.000000000000000000, 1.000000000000000000 ) ) ;
#301 = APPROVAL_PERSON_ORGANIZATION ( #286, #3, #182 ) ;
#302 = PRODUCT_DEFINITION_FORMATION_WITH_SPECIFIED_SOURCE ( 'LIBOVOLNÝ', '', #229, .NOT_KNOWN. ) ;
#303 = SHAPE_DEFINITION_REPRESENTATION ( #250, #118 ) ;
#304 = DIRECTION ( 'NONE',  ( 0.000000000000000000, 0.000000000000000000, 1.000000000000000000 ) ) ;
#305 = EDGE_CURVE ( 'NONE', #109, #183, #106, .T. ) ;
#306 = COORDINATED_UNIVERSAL_TIME_OFFSET ( 1, 0, .AHEAD. ) ;
#307 = CC_DESIGN_APPROVAL ( #114, ( #87 ) ) ;
ENDSEC;
END-ISO-10303-21;
