ISO-10303-21;
HEADER;
FILE_DESCRIPTION (( 'STEP AP203' ),
    '1' );
FILE_NAME ('7935.STEP',
    '2022-06-20T09:57:19',
    ( '' ),
    ( '' ),
    'SwSTEP 2.0',
    'SolidWorks 2019',
    '' );
FILE_SCHEMA (( 'CONFIG_CONTROL_DESIGN' ));
ENDSEC;

DATA;
#1 =( NAMED_UNIT ( * ) SI_UNIT ( $, .STERADIAN. ) SOLID_ANGLE_UNIT ( ) );
#2 = LOCAL_TIME ( 11, 57, 19.00000000000000000, #192 ) ;
#3 = CARTESIAN_POINT ( 'NONE',  ( -3.200000000000000622, 3.918869757271530953E-16, 4.999999999999991118 ) ) ;
#4 = CYLINDRICAL_SURFACE ( 'NONE', #33, 3.000000000000000444 ) ;
#5 = EDGE_CURVE ( 'NONE', #246, #13, #165, .T. ) ;
#6 = DIRECTION ( 'NONE',  ( 1.000000000000000000, 0.000000000000000000, 0.000000000000000000 ) ) ;
#7 = SECURITY_CLASSIFICATION ( '', '', #81 ) ;
#8 = CC_DESIGN_DATE_AND_TIME_ASSIGNMENT ( #198, #132, ( #7 ) ) ;
#9 = AXIS2_PLACEMENT_3D ( 'NONE', #278, #163, #77 ) ;
#10 = ORIENTED_EDGE ( 'NONE', *, *, #59, .F. ) ;
#11 = APPROVAL_STATUS ( 'not_yet_approved' ) ;
#12 = EDGE_LOOP ( 'NONE', ( #10, #15, #20, #70 ) ) ;
#13 = VERTEX_POINT ( 'NONE', #115 ) ;
#14 = PERSON_AND_ORGANIZATION ( #180, #184 ) ;
#15 = ORIENTED_EDGE ( 'NONE', *, *, #293, .F. ) ;
#16 = CIRCLE ( 'NONE', #277, 3.200000000000000622 ) ;
#17 = VERTEX_POINT ( 'NONE', #49 ) ;
#18 = EDGE_CURVE ( 'NONE', #246, #290, #225, .T. ) ;
#19 = CARTESIAN_POINT ( 'NONE',  ( 0.000000000000000000, 0.000000000000000000, 5.000000000000000000 ) ) ;
#20 = ORIENTED_EDGE ( 'NONE', *, *, #30, .T. ) ;
#21 = AXIS2_PLACEMENT_3D ( 'NONE', #186, #274, #75 ) ;
#22 = CIRCLE ( 'NONE', #92, 6.000000000000000888 ) ;
#23 = DIRECTION ( 'NONE',  ( 0.000000000000000000, 0.000000000000000000, 1.000000000000000000 ) ) ;
#24 = DIRECTION ( 'NONE',  ( 1.000000000000000000, 0.000000000000000000, 0.000000000000000000 ) ) ;
#25 = CARTESIAN_POINT ( 'NONE',  ( 0.000000000000000000, 0.000000000000000000, 5.000000000000000000 ) ) ;
#26 =( GEOMETRIC_REPRESENTATION_CONTEXT ( 3 ) GLOBAL_UNCERTAINTY_ASSIGNED_CONTEXT ( ( #183 ) ) GLOBAL_UNIT_ASSIGNED_CONTEXT ( ( #80, #122, #1 ) ) REPRESENTATION_CONTEXT ( 'NONE', 'WORKASPACE' ) );
#27 = LINE ( 'NONE', #210, #263 ) ;
#28 = DIRECTION ( 'NONE',  ( -0.000000000000000000, -0.000000000000000000, -1.000000000000000000 ) ) ;
#29 = DIRECTION ( 'NONE',  ( 1.000000000000000000, 0.000000000000000000, 0.000000000000000000 ) ) ;
#30 = EDGE_CURVE ( 'NONE', #196, #152, #239, .T. ) ;
#31 = DIRECTION ( 'NONE',  ( -0.000000000000000000, -0.000000000000000000, -1.000000000000000000 ) ) ;
#32 = FACE_OUTER_BOUND ( 'NONE', #242, .T. ) ;
#33 = AXIS2_PLACEMENT_3D ( 'NONE', #209, #124, #144 ) ;
#34 = CC_DESIGN_DATE_AND_TIME_ASSIGNMENT ( #292, #87, ( #223 ) ) ;
#35 = APPROVAL_ROLE ( '' ) ;
#36 = CALENDAR_DATE ( 2022, 20, 6 ) ;
#37 = ORIENTED_EDGE ( 'NONE', *, *, #211, .T. ) ;
#38 = PERSON_AND_ORGANIZATION ( #180, #184 ) ;
#39 = AXIS2_PLACEMENT_3D ( 'NONE', #19, #136, #137 ) ;
#40 = ORIENTED_EDGE ( 'NONE', *, *, #258, .T. ) ;
#41 = CALENDAR_DATE ( 2022, 20, 6 ) ;
#42 = ORIENTED_EDGE ( 'NONE', *, *, #211, .F. ) ;
#43 = DATE_AND_TIME ( #36, #101 ) ;
#44 = ORIENTED_EDGE ( 'NONE', *, *, #248, .T. ) ;
#45 = AXIS2_PLACEMENT_3D ( 'NONE', #272, #138, #95 ) ;
#46 = APPROVAL_PERSON_ORGANIZATION ( #294, #226, #35 ) ;
#47 = ADVANCED_FACE ( 'NONE', ( #204 ), #244, .F. ) ;
#48 = CARTESIAN_POINT ( 'NONE',  ( 3.200000000000000622, 0.000000000000000000, 4.999999999999991118 ) ) ;
#49 = CARTESIAN_POINT ( 'NONE',  ( 6.000000000000000888, 7.347880794884120722E-16, 0.000000000000000000 ) ) ;
#50 = DIRECTION ( 'NONE',  ( -1.000000000000000000, 0.000000000000000000, 0.000000000000000000 ) ) ;
#51 = DIRECTION ( 'NONE',  ( -0.000000000000000000, -0.000000000000000000, -1.000000000000000000 ) ) ;
#52 = FACE_OUTER_BOUND ( 'NONE', #194, .T. ) ;
#53 = FACE_OUTER_BOUND ( 'NONE', #157, .T. ) ;
#54 = CARTESIAN_POINT ( 'NONE',  ( -6.000000000000000888, 0.000000000000000000, 0.000000000000000000 ) ) ;
#55 = PRODUCT ( '7935', '7935', '', ( #151 ) ) ;
#56 = DIRECTION ( 'NONE',  ( 0.000000000000000000, 0.000000000000000000, 1.000000000000000000 ) ) ;
#57 = EDGE_CURVE ( 'NONE', #275, #196, #296, .T. ) ;
#58 = APPROVAL_PERSON_ORGANIZATION ( #90, #142, #197 ) ;
#59 = EDGE_CURVE ( 'NONE', #275, #222, #288, .T. ) ;
#60 = CIRCLE ( 'NONE', #200, 3.000000000000000444 ) ;
#61 = LOCAL_TIME ( 11, 57, 19.00000000000000000, #129 ) ;
#62 = PERSON_AND_ORGANIZATION ( #180, #184 ) ;
#63 = ORIENTED_EDGE ( 'NONE', *, *, #120, .T. ) ;
#64 = ORIENTED_EDGE ( 'NONE', *, *, #289, .F. ) ;
#65 = DATE_AND_TIME ( #83, #108 ) ;
#66 = CIRCLE ( 'NONE', #45, 3.000000000000000444 ) ;
#67 = COORDINATED_UNIVERSAL_TIME_OFFSET ( 1, 0, .AHEAD. ) ;
#68 = EDGE_CURVE ( 'NONE', #270, #94, #60, .T. ) ;
#69 = EDGE_LOOP ( 'NONE', ( #131, #172 ) ) ;
#70 = ORIENTED_EDGE ( 'NONE', *, *, #240, .F. ) ;
#71 = DIRECTION ( 'NONE',  ( 0.000000000000000000, 0.000000000000000000, -1.000000000000000000 ) ) ;
#72 = AXIS2_PLACEMENT_3D ( 'NONE', #273, #205, #304 ) ;
#73 = DESIGN_CONTEXT ( 'detailed design', #301, 'design' ) ;
#74 = ORIENTED_EDGE ( 'NONE', *, *, #231, .F. ) ;
#75 = DIRECTION ( 'NONE',  ( 1.000000000000000000, 0.000000000000000000, 0.000000000000000000 ) ) ;
#76 = PLANE ( 'NONE',  #9 ) ;
#77 = DIRECTION ( 'NONE',  ( 1.000000000000000000, 0.000000000000000000, -0.000000000000000000 ) ) ;
#78 = LINE ( 'NONE', #105, #127 ) ;
#79 = DIRECTION ( 'NONE',  ( -0.000000000000000000, -0.000000000000000000, -1.000000000000000000 ) ) ;
#80 =( LENGTH_UNIT ( ) NAMED_UNIT ( * ) SI_UNIT ( .MILLI., .METRE. ) );
#81 = SECURITY_CLASSIFICATION_LEVEL ( 'unclassified' ) ;
#82 = ADVANCED_FACE ( 'NONE', ( #227 ), #158, .T. ) ;
#83 = CALENDAR_DATE ( 2022, 20, 6 ) ;
#84 = CIRCLE ( 'NONE', #195, 6.000000000000000888 ) ;
#85 = TOROIDAL_SURFACE ( 'NONE', #178, 3.200000000000000622, 0.2000000000000000111 ) ;
#86 = ORIENTED_EDGE ( 'NONE', *, *, #5, .F. ) ;
#87 = DATE_TIME_ROLE ( 'creation_date' ) ;
#88 = COORDINATED_UNIVERSAL_TIME_OFFSET ( 1, 0, .AHEAD. ) ;
#89 = EDGE_LOOP ( 'NONE', ( #174, #266 ) ) ;
#90 = PERSON_AND_ORGANIZATION ( #180, #184 ) ;
#91 = ORIENTED_EDGE ( 'NONE', *, *, #18, .T. ) ;
#92 = AXIS2_PLACEMENT_3D ( 'NONE', #166, #236, #6 ) ;
#93 = ADVANCED_FACE ( 'NONE', ( #53 ), #140, .T. ) ;
#94 = VERTEX_POINT ( 'NONE', #185 ) ;
#95 = DIRECTION ( 'NONE',  ( 1.000000000000000000, 0.000000000000000000, 0.000000000000000000 ) ) ;
#96 = CARTESIAN_POINT ( 'NONE',  ( 0.000000000000000000, 0.000000000000000000, 5.000000000000000000 ) ) ;
#97 = AXIS2_PLACEMENT_3D ( 'NONE', #282, #235, #147 ) ;
#98 = DIRECTION ( 'NONE',  ( -0.000000000000000000, -0.000000000000000000, -1.000000000000000000 ) ) ;
#99 = ORIENTED_EDGE ( 'NONE', *, *, #258, .F. ) ;
#100 = DIRECTION ( 'NONE',  ( 1.000000000000000000, 0.000000000000000000, 0.000000000000000000 ) ) ;
#101 = LOCAL_TIME ( 11, 57, 19.00000000000000000, #88 ) ;
#102 = EDGE_CURVE ( 'NONE', #94, #270, #66, .T. ) ;
#103 = DIRECTION ( 'NONE',  ( 1.000000000000000000, 0.000000000000000000, 0.000000000000000000 ) ) ;
#104 = DIRECTION ( 'NONE',  ( -0.000000000000000000, -0.000000000000000000, -1.000000000000000000 ) ) ;
#105 = CARTESIAN_POINT ( 'NONE',  ( -3.000000000000000444, 0.000000000000000000, 1004.999999999999886 ) ) ;
#106 = CARTESIAN_POINT ( 'NONE',  ( -3.000000000000000444, 0.000000000000000000, 1004.999999999999886 ) ) ;
#107 = AXIS2_PLACEMENT_3D ( 'NONE', #25, #56, #145 ) ;
#108 = LOCAL_TIME ( 11, 57, 19.00000000000000000, #67 ) ;
#109 = ORIENTED_EDGE ( 'NONE', *, *, #68, .F. ) ;
#110 = ORIENTED_EDGE ( 'NONE', *, *, #293, .T. ) ;
#111 = PERSON_AND_ORGANIZATION ( #180, #184 ) ;
#112 = CARTESIAN_POINT ( 'NONE',  ( -3.000000000000000444, 0.000000000000000000, 5.199999999999982414 ) ) ;
#113 = ORIENTED_EDGE ( 'NONE', *, *, #57, .F. ) ;
#114 = CARTESIAN_POINT ( 'NONE',  ( 6.000000000000000888, 7.347880794884120722E-16, 5.000000000000000000 ) ) ;
#115 = CARTESIAN_POINT ( 'NONE',  ( 6.000000000000000888, 7.347880794884120722E-16, 5.000000000000000000 ) ) ;
#116 = CARTESIAN_POINT ( 'NONE',  ( -6.000000000000000888, 0.000000000000000000, 5.000000000000000000 ) ) ;
#117 = AXIS2_PLACEMENT_3D ( 'NONE', #253, #255, #24 ) ;
#118 = EDGE_LOOP ( 'NONE', ( #179, #109, #40, #218 ) ) ;
#119 = DIRECTION ( 'NONE',  ( -0.000000000000000000, -0.000000000000000000, -1.000000000000000000 ) ) ;
#120 = EDGE_CURVE ( 'NONE', #13, #246, #84, .T. ) ;
#121 = CC_DESIGN_SECURITY_CLASSIFICATION ( #7, ( #135 ) ) ;
#122 =( NAMED_UNIT ( * ) PLANE_ANGLE_UNIT ( ) SI_UNIT ( $, .RADIAN. ) );
#123 = CARTESIAN_POINT ( 'NONE',  ( 0.000000000000000000, 0.000000000000000000, 5.199999999999982414 ) ) ;
#124 = DIRECTION ( 'NONE',  ( -0.000000000000000000, -0.000000000000000000, -1.000000000000000000 ) ) ;
#125 = ADVANCED_FACE ( 'NONE', ( #182 ), #252, .F. ) ;
#126 = AXIS2_PLACEMENT_3D ( 'NONE', #206, #201, #71 ) ;
#127 = VECTOR ( 'NONE', #79, 1000.000000000000000 ) ;
#128 = APPROVAL_DATE_TIME ( #167, #226 ) ;
#129 = COORDINATED_UNIVERSAL_TIME_OFFSET ( 1, 0, .AHEAD. ) ;
#130 = APPROVAL_PERSON_ORGANIZATION ( #14, #305, #177 ) ;
#131 = ORIENTED_EDGE ( 'NONE', *, *, #289, .T. ) ;
#132 = DATE_TIME_ROLE ( 'classification_date' ) ;
#133 = PERSON_AND_ORGANIZATION ( #180, #184 ) ;
#134 = AXIS2_PLACEMENT_3D ( 'NONE', #300, #229, #202 ) ;
#135 = PRODUCT_DEFINITION_FORMATION_WITH_SPECIFIED_SOURCE ( 'LIBOVOLNÝ', '', #55, .NOT_KNOWN. ) ;
#136 = DIRECTION ( 'NONE',  ( 0.000000000000000000, 0.000000000000000000, 1.000000000000000000 ) ) ;
#137 = DIRECTION ( 'NONE',  ( 1.000000000000000000, 0.000000000000000000, 0.000000000000000000 ) ) ;
#138 = DIRECTION ( 'NONE',  ( 0.000000000000000000, 0.000000000000000000, 1.000000000000000000 ) ) ;
#139 = CARTESIAN_POINT ( 'NONE',  ( 0.000000000000000000, 0.000000000000000000, 5.000000000000000000 ) ) ;
#140 = CYLINDRICAL_SURFACE ( 'NONE', #170, 6.000000000000000888 ) ;
#141 = CC_DESIGN_PERSON_AND_ORGANIZATION_ASSIGNMENT ( #111, #153, ( #135 ) ) ;
#142 = APPROVAL ( #11, 'NEURÈENÝ' ) ;
#143 = LINE ( 'NONE', #114, #232 ) ;
#144 = DIRECTION ( 'NONE',  ( -1.000000000000000000, 0.000000000000000000, 0.000000000000000000 ) ) ;
#145 = DIRECTION ( 'NONE',  ( 1.000000000000000000, 0.000000000000000000, -0.000000000000000000 ) ) ;
#146 = DIRECTION ( 'NONE',  ( 1.000000000000000000, 0.000000000000000000, 0.000000000000000000 ) ) ;
#147 = DIRECTION ( 'NONE',  ( 1.000000000000000000, 0.000000000000000000, 0.000000000000000000 ) ) ;
#148 = CIRCLE ( 'NONE', #291, 3.000000000000000444 ) ;
#149 = CIRCLE ( 'NONE', #97, 6.000000000000000888 ) ;
#150 = ORIENTED_EDGE ( 'NONE', *, *, #5, .T. ) ;
#151 = MECHANICAL_CONTEXT ( 'NONE', #279, 'mechanical' ) ;
#152 = VERTEX_POINT ( 'NONE', #48 ) ;
#153 = PERSON_AND_ORGANIZATION_ROLE ( 'design_supplier' ) ;
#154 = CIRCLE ( 'NONE', #190, 3.200000000000000622 ) ;
#155 = ORIENTED_EDGE ( 'NONE', *, *, #120, .F. ) ;
#156 = APPLICATION_PROTOCOL_DEFINITION ( 'international standard', 'config_control_design', 1994, #279 ) ;
#157 = EDGE_LOOP ( 'NONE', ( #42, #86, #91, #268 ) ) ;
#158 = CYLINDRICAL_SURFACE ( 'NONE', #281, 3.000000000000000444 ) ;
#159 = CYLINDRICAL_SURFACE ( 'NONE', #297, 6.000000000000000888 ) ;
#160 = CARTESIAN_POINT ( 'NONE',  ( 0.000000000000000000, 0.000000000000000000, 1004.999999999999886 ) ) ;
#161 = ORIENTED_EDGE ( 'NONE', *, *, #102, .F. ) ;
#162 = CC_DESIGN_PERSON_AND_ORGANIZATION_ASSIGNMENT ( #264, #219, ( #135 ) ) ;
#163 = DIRECTION ( 'NONE',  ( 0.000000000000000000, 0.000000000000000000, 1.000000000000000000 ) ) ;
#164 = PLANE ( 'NONE',  #107 ) ;
#165 = CIRCLE ( 'NONE', #39, 6.000000000000000888 ) ;
#166 = CARTESIAN_POINT ( 'NONE',  ( 0.000000000000000000, 0.000000000000000000, 0.000000000000000000 ) ) ;
#167 = DATE_AND_TIME ( #285, #216 ) ;
#168 = PRODUCT_RELATED_PRODUCT_CATEGORY ( 'detail', '', ( #55 ) ) ;
#169 = ADVANCED_FACE ( 'NONE', ( #188 ), #76, .T. ) ;
#170 = AXIS2_PLACEMENT_3D ( 'NONE', #96, #119, #303 ) ;
#171 = APPROVAL_STATUS ( 'not_yet_approved' ) ;
#172 = ORIENTED_EDGE ( 'NONE', *, *, #240, .T. ) ;
#173 = PERSON_AND_ORGANIZATION_ROLE ( 'classification_officer' ) ;
#174 = ORIENTED_EDGE ( 'NONE', *, *, #68, .T. ) ;
#175 = CC_DESIGN_PERSON_AND_ORGANIZATION_ASSIGNMENT ( #62, #247, ( #223 ) ) ;
#176 = APPROVAL_DATE_TIME ( #43, #305 ) ;
#177 = APPROVAL_ROLE ( '' ) ;
#178 = AXIS2_PLACEMENT_3D ( 'NONE', #284, #260, #146 ) ;
#179 = ORIENTED_EDGE ( 'NONE', *, *, #248, .F. ) ;
#180 = PERSON ( 'NEURÈENÝ', 'NEURÈENÝ', 'NEURÈENÝ', ('NEURÈENÝ'), ('NEURÈENÝ'), ('NEURÈENÝ') ) ;
#181 = EDGE_LOOP ( 'NONE', ( #155, #37, #243, #199 ) ) ;
#182 = FACE_OUTER_BOUND ( 'NONE', #220, .T. ) ;
#183 = UNCERTAINTY_MEASURE_WITH_UNIT (LENGTH_MEASURE( 1.000000000000000082E-05 ), #80, 'distance_accuracy_value', 'NONE');
#184 = ORGANIZATION ( 'NEURÈENÝ', 'NEURÈENÝ', '' ) ;
#185 = CARTESIAN_POINT ( 'NONE',  ( 3.000000000000000444, 3.673940397442060361E-16, 1004.999999999999886 ) ) ;
#186 = CARTESIAN_POINT ( 'NONE',  ( 0.000000000000000000, 0.000000000000000000, 5.199999999999982414 ) ) ;
#187 = CC_DESIGN_PERSON_AND_ORGANIZATION_ASSIGNMENT ( #38, #286, ( #55 ) ) ;
#188 = FACE_OUTER_BOUND ( 'NONE', #89, .T. ) ;
#189 = DIRECTION ( 'NONE',  ( 1.000000000000000000, 0.000000000000000000, 0.000000000000000000 ) ) ;
#190 = AXIS2_PLACEMENT_3D ( 'NONE', #233, #280, #29 ) ;
#191 = DIRECTION ( 'NONE',  ( -1.000000000000000000, 0.000000000000000000, 0.000000000000000000 ) ) ;
#192 = COORDINATED_UNIVERSAL_TIME_OFFSET ( 1, 0, .AHEAD. ) ;
#193 = DIRECTION ( 'NONE',  ( 0.000000000000000000, 0.000000000000000000, 1.000000000000000000 ) ) ;
#194 = EDGE_LOOP ( 'NONE', ( #161, #44, #110, #99 ) ) ;
#195 = AXIS2_PLACEMENT_3D ( 'NONE', #228, #23, #100 ) ;
#196 = VERTEX_POINT ( 'NONE', #257 ) ;
#197 = APPROVAL_ROLE ( '' ) ;
#198 = DATE_AND_TIME ( #241, #2 ) ;
#199 = ORIENTED_EDGE ( 'NONE', *, *, #18, .F. ) ;
#200 = AXIS2_PLACEMENT_3D ( 'NONE', #160, #254, #189 ) ;
#201 = DIRECTION ( 'NONE',  ( 0.000000000000000000, -1.000000000000000000, 0.000000000000000000 ) ) ;
#202 = DIRECTION ( 'NONE',  ( -1.000000000000000000, 1.224646799147353207E-16, 0.000000000000000000 ) ) ;
#203 = VECTOR ( 'NONE', #98, 1000.000000000000000 ) ;
#204 = FACE_OUTER_BOUND ( 'NONE', #12, .T. ) ;
#205 = DIRECTION ( 'NONE',  ( 0.000000000000000000, 0.000000000000000000, 1.000000000000000000 ) ) ;
#206 = CARTESIAN_POINT ( 'NONE',  ( 3.200000000000000622, 0.000000000000000000, 5.199999999999982414 ) ) ;
#207 = CLOSED_SHELL ( 'NONE', ( #250, #298, #287, #93, #215, #125, #82, #169, #47 ) ) ;
#208 = CC_DESIGN_APPROVAL ( #142, ( #223 ) ) ;
#209 = CARTESIAN_POINT ( 'NONE',  ( 0.000000000000000000, 0.000000000000000000, 1004.999999999999886 ) ) ;
#210 = CARTESIAN_POINT ( 'NONE',  ( 3.000000000000000444, 3.673940397442060361E-16, 1004.999999999999886 ) ) ;
#211 = EDGE_CURVE ( 'NONE', #13, #17, #143, .T. ) ;
#212 = DIRECTION ( 'NONE',  ( 0.000000000000000000, 0.000000000000000000, 1.000000000000000000 ) ) ;
#213 = CARTESIAN_POINT ( 'NONE',  ( -6.000000000000000888, 0.000000000000000000, 5.000000000000000000 ) ) ;
#214 = FACE_BOUND ( 'NONE', #69, .T. ) ;
#215 = ADVANCED_FACE ( 'NONE', ( #214, #238 ), #164, .T. ) ;
#216 = LOCAL_TIME ( 11, 57, 19.00000000000000000, #269 ) ;
#217 = CARTESIAN_POINT ( 'NONE',  ( 0.000000000000000000, 0.000000000000000000, 0.000000000000000000 ) ) ;
#218 = ORIENTED_EDGE ( 'NONE', *, *, #57, .T. ) ;
#219 = PERSON_AND_ORGANIZATION_ROLE ( 'creator' ) ;
#220 = EDGE_LOOP ( 'NONE', ( #271, #74 ) ) ;
#221 = APPROVAL_STATUS ( 'not_yet_approved' ) ;
#222 = VERTEX_POINT ( 'NONE', #3 ) ;
#223 = PRODUCT_DEFINITION ( 'NEZNÁMÝ', '', #135, #73 ) ;
#224 = CC_DESIGN_APPROVAL ( #305, ( #135 ) ) ;
#225 = LINE ( 'NONE', #116, #203 ) ;
#226 = APPROVAL ( #221, 'NEURÈENÝ' ) ;
#227 = FACE_OUTER_BOUND ( 'NONE', #118, .T. ) ;
#228 = CARTESIAN_POINT ( 'NONE',  ( 0.000000000000000000, 0.000000000000000000, 5.000000000000000000 ) ) ;
#229 = DIRECTION ( 'NONE',  ( 1.224646799147353207E-16, 1.000000000000000000, -0.000000000000000000 ) ) ;
#230 = CARTESIAN_POINT ( 'NONE',  ( 0.000000000000000000, 0.000000000000000000, 5.000000000000000000 ) ) ;
#231 = EDGE_CURVE ( 'NONE', #17, #290, #149, .T. ) ;
#232 = VECTOR ( 'NONE', #31, 1000.000000000000000 ) ;
#233 = CARTESIAN_POINT ( 'NONE',  ( 0.000000000000000000, 0.000000000000000000, 5.000000000000000000 ) ) ;
#234 = PRODUCT_DEFINITION_SHAPE ( 'NONE', 'NONE',  #223 ) ;
#235 = DIRECTION ( 'NONE',  ( 0.000000000000000000, 0.000000000000000000, 1.000000000000000000 ) ) ;
#236 = DIRECTION ( 'NONE',  ( 0.000000000000000000, 0.000000000000000000, 1.000000000000000000 ) ) ;
#237 = DIRECTION ( 'NONE',  ( 1.000000000000000000, 0.000000000000000000, 0.000000000000000000 ) ) ;
#238 = FACE_OUTER_BOUND ( 'NONE', #302, .T. ) ;
#239 = CIRCLE ( 'NONE', #126, 0.1999999999999996503 ) ;
#240 = EDGE_CURVE ( 'NONE', #222, #152, #154, .T. ) ;
#241 = CALENDAR_DATE ( 2022, 20, 6 ) ;
#242 = EDGE_LOOP ( 'NONE', ( #113, #249, #64, #295 ) ) ;
#243 = ORIENTED_EDGE ( 'NONE', *, *, #231, .T. ) ;
#244 = TOROIDAL_SURFACE ( 'NONE', #21, 3.200000000000000622, 0.2000000000000000111 ) ;
#245 = APPROVAL_DATE_TIME ( #65, #142 ) ;
#246 = VERTEX_POINT ( 'NONE', #213 ) ;
#247 = PERSON_AND_ORGANIZATION_ROLE ( 'creator' ) ;
#248 = EDGE_CURVE ( 'NONE', #94, #196, #27, .T. ) ;
#249 = ORIENTED_EDGE ( 'NONE', *, *, #59, .T. ) ;
#250 = ADVANCED_FACE ( 'NONE', ( #32 ), #85, .F. ) ;
#251 = CC_DESIGN_APPROVAL ( #226, ( #7 ) ) ;
#252 = PLANE ( 'NONE',  #72 ) ;
#253 = CARTESIAN_POINT ( 'NONE',  ( 0.000000000000000000, 0.000000000000000000, 5.199999999999982414 ) ) ;
#254 = DIRECTION ( 'NONE',  ( 0.000000000000000000, 0.000000000000000000, 1.000000000000000000 ) ) ;
#255 = DIRECTION ( 'NONE',  ( 0.000000000000000000, 0.000000000000000000, 1.000000000000000000 ) ) ;
#256 = DIRECTION ( 'NONE',  ( -0.000000000000000000, -0.000000000000000000, -1.000000000000000000 ) ) ;
#257 = CARTESIAN_POINT ( 'NONE',  ( 3.000000000000000444, 3.673940397442060361E-16, 5.199999999999982414 ) ) ;
#258 = EDGE_CURVE ( 'NONE', #270, #275, #78, .T. ) ;
#259 = MANIFOLD_SOLID_BREP ( 'Zaoblit1', #207 ) ;
#260 = DIRECTION ( 'NONE',  ( 0.000000000000000000, 0.000000000000000000, 1.000000000000000000 ) ) ;
#261 = EDGE_CURVE ( 'NONE', #290, #17, #22, .T. ) ;
#262 = SHAPE_DEFINITION_REPRESENTATION ( #234, #306 ) ;
#263 = VECTOR ( 'NONE', #104, 1000.000000000000000 ) ;
#264 = PERSON_AND_ORGANIZATION ( #180, #184 ) ;
#265 = DIRECTION ( 'NONE',  ( 1.000000000000000000, 0.000000000000000000, 0.000000000000000000 ) ) ;
#266 = ORIENTED_EDGE ( 'NONE', *, *, #102, .T. ) ;
#267 = APPLICATION_PROTOCOL_DEFINITION ( 'international standard', 'config_control_design', 1994, #301 ) ;
#268 = ORIENTED_EDGE ( 'NONE', *, *, #261, .T. ) ;
#269 = COORDINATED_UNIVERSAL_TIME_OFFSET ( 1, 0, .AHEAD. ) ;
#270 = VERTEX_POINT ( 'NONE', #106 ) ;
#271 = ORIENTED_EDGE ( 'NONE', *, *, #261, .F. ) ;
#272 = CARTESIAN_POINT ( 'NONE',  ( 0.000000000000000000, 0.000000000000000000, 1004.999999999999886 ) ) ;
#273 = CARTESIAN_POINT ( 'NONE',  ( 0.000000000000000000, 0.000000000000000000, 0.000000000000000000 ) ) ;
#274 = DIRECTION ( 'NONE',  ( 0.000000000000000000, 0.000000000000000000, 1.000000000000000000 ) ) ;
#275 = VERTEX_POINT ( 'NONE', #112 ) ;
#276 = CC_DESIGN_PERSON_AND_ORGANIZATION_ASSIGNMENT ( #133, #173, ( #7 ) ) ;
#277 = AXIS2_PLACEMENT_3D ( 'NONE', #230, #256, #103 ) ;
#278 = CARTESIAN_POINT ( 'NONE',  ( 0.000000000000000000, 0.000000000000000000, 1004.999999999999886 ) ) ;
#279 = APPLICATION_CONTEXT ( 'configuration controlled 3d designs of mechanical parts and assemblies' ) ;
#280 = DIRECTION ( 'NONE',  ( -0.000000000000000000, -0.000000000000000000, -1.000000000000000000 ) ) ;
#281 = AXIS2_PLACEMENT_3D ( 'NONE', #307, #51, #50 ) ;
#282 = CARTESIAN_POINT ( 'NONE',  ( 0.000000000000000000, 0.000000000000000000, 0.000000000000000000 ) ) ;
#283 = AXIS2_PLACEMENT_3D ( 'NONE', #217, #193, #265 ) ;
#284 = CARTESIAN_POINT ( 'NONE',  ( 0.000000000000000000, 0.000000000000000000, 5.199999999999982414 ) ) ;
#285 = CALENDAR_DATE ( 2022, 20, 6 ) ;
#286 = PERSON_AND_ORGANIZATION_ROLE ( 'design_owner' ) ;
#287 = ADVANCED_FACE ( 'NONE', ( #299 ), #159, .T. ) ;
#288 = CIRCLE ( 'NONE', #134, 0.2000000000000000944 ) ;
#289 = EDGE_CURVE ( 'NONE', #152, #222, #16, .T. ) ;
#290 = VERTEX_POINT ( 'NONE', #54 ) ;
#291 = AXIS2_PLACEMENT_3D ( 'NONE', #123, #212, #237 ) ;
#292 = DATE_AND_TIME ( #41, #61 ) ;
#293 = EDGE_CURVE ( 'NONE', #196, #275, #148, .T. ) ;
#294 = PERSON_AND_ORGANIZATION ( #180, #184 ) ;
#295 = ORIENTED_EDGE ( 'NONE', *, *, #30, .F. ) ;
#296 = CIRCLE ( 'NONE', #117, 3.000000000000000444 ) ;
#297 = AXIS2_PLACEMENT_3D ( 'NONE', #139, #28, #191 ) ;
#298 = ADVANCED_FACE ( 'NONE', ( #52 ), #4, .T. ) ;
#299 = FACE_OUTER_BOUND ( 'NONE', #181, .T. ) ;
#300 = CARTESIAN_POINT ( 'NONE',  ( -3.200000000000000622, 3.918869757271530953E-16, 5.199999999999982414 ) ) ;
#301 = APPLICATION_CONTEXT ( 'configuration controlled 3d designs of mechanical parts and assemblies' ) ;
#302 = EDGE_LOOP ( 'NONE', ( #150, #63 ) ) ;
#303 = DIRECTION ( 'NONE',  ( -1.000000000000000000, 0.000000000000000000, 0.000000000000000000 ) ) ;
#304 = DIRECTION ( 'NONE',  ( 1.000000000000000000, 0.000000000000000000, -0.000000000000000000 ) ) ;
#305 = APPROVAL ( #171, 'NEURÈENÝ' ) ;
#306 = ADVANCED_BREP_SHAPE_REPRESENTATION ( '7935', ( #259, #283 ), #26 ) ;
#307 = CARTESIAN_POINT ( 'NONE',  ( 0.000000000000000000, 0.000000000000000000, 1004.999999999999886 ) ) ;
ENDSEC;
END-ISO-10303-21;
