ISO-10303-21;
HEADER;
FILE_DESCRIPTION (( 'STEP AP203' ),
    '1' );
FILE_NAME ('2e38.STEP',
    '2022-06-20T09:39:54',
    ( '' ),
    ( '' ),
    'SwSTEP 2.0',
    'SolidWorks 2019',
    '' );
FILE_SCHEMA (( 'CONFIG_CONTROL_DESIGN' ));
ENDSEC;

DATA;
#1 = AXIS2_PLACEMENT_3D ( 'NONE', #33, #253, #271 ) ;
#2 = DIRECTION ( 'NONE',  ( 0.000000000000000000, 0.000000000000000000, -1.000000000000000000 ) ) ;
#3 = EDGE_CURVE ( 'NONE', #304, #120, #43, .T. ) ;
#4 = ORIENTED_EDGE ( 'NONE', *, *, #267, .T. ) ;
#5 = FACE_OUTER_BOUND ( 'NONE', #258, .T. ) ;
#6 = CARTESIAN_POINT ( 'NONE',  ( 5.300000000000000711, 0.000000000000000000, 5.199999999999996625 ) ) ;
#7 = CARTESIAN_POINT ( 'NONE',  ( 5.300000000000000711, 0.000000000000000000, 4.999999999999998224 ) ) ;
#8 = LINE ( 'NONE', #196, #222 ) ;
#9 = CYLINDRICAL_SURFACE ( 'NONE', #30, 8.000000000000000000 ) ;
#10 = AXIS2_PLACEMENT_3D ( 'NONE', #161, #62, #38 ) ;
#11 = CC_DESIGN_DATE_AND_TIME_ASSIGNMENT ( #164, #45, ( #59 ) ) ;
#12 = CARTESIAN_POINT ( 'NONE',  ( -5.300000000000000711, 6.490628035480972910E-16, 5.199999999999996625 ) ) ;
#13 = DIRECTION ( 'NONE',  ( 1.000000000000000000, 0.000000000000000000, 0.000000000000000000 ) ) ;
#14 = AXIS2_PLACEMENT_3D ( 'NONE', #268, #269, #151 ) ;
#15 = SECURITY_CLASSIFICATION_LEVEL ( 'unclassified' ) ;
#16 = EDGE_CURVE ( 'NONE', #237, #280, #205, .T. ) ;
#17 = LOCAL_TIME ( 11, 39, 54.00000000000000000, #101 ) ;
#18 = ORIENTED_EDGE ( 'NONE', *, *, #135, .T. ) ;
#19 =( NAMED_UNIT ( * ) PLANE_ANGLE_UNIT ( ) SI_UNIT ( $, .RADIAN. ) );
#20 =( GEOMETRIC_REPRESENTATION_CONTEXT ( 3 ) GLOBAL_UNCERTAINTY_ASSIGNED_CONTEXT ( ( #297 ) ) GLOBAL_UNIT_ASSIGNED_CONTEXT ( ( #207, #19, #279 ) ) REPRESENTATION_CONTEXT ( 'NONE', 'WORKASPACE' ) );
#21 = DIRECTION ( 'NONE',  ( 1.000000000000000000, 0.000000000000000000, -0.000000000000000000 ) ) ;
#22 = ORIENTED_EDGE ( 'NONE', *, *, #267, .F. ) ;
#23 = LOCAL_TIME ( 11, 39, 54.00000000000000000, #285 ) ;
#24 = SHAPE_DEFINITION_REPRESENTATION ( #238, #162 ) ;
#25 = ORIENTED_EDGE ( 'NONE', *, *, #16, .T. ) ;
#26 = ORIENTED_EDGE ( 'NONE', *, *, #242, .F. ) ;
#27 = ORIENTED_EDGE ( 'NONE', *, *, #288, .F. ) ;
#28 = EDGE_CURVE ( 'NONE', #174, #304, #289, .T. ) ;
#29 = CARTESIAN_POINT ( 'NONE',  ( 0.000000000000000000, 0.000000000000000000, 5.000000000000000000 ) ) ;
#30 = AXIS2_PLACEMENT_3D ( 'NONE', #223, #109, #200 ) ;
#31 = CARTESIAN_POINT ( 'NONE',  ( 0.000000000000000000, 0.000000000000000000, 5.199999999999996625 ) ) ;
#32 = FACE_OUTER_BOUND ( 'NONE', #76, .T. ) ;
#33 = CARTESIAN_POINT ( 'NONE',  ( 0.000000000000000000, 0.000000000000000000, 5.199999999999996625 ) ) ;
#34 = LOCAL_TIME ( 11, 39, 54.00000000000000000, #167 ) ;
#35 = DIRECTION ( 'NONE',  ( -0.000000000000000000, -0.000000000000000000, -1.000000000000000000 ) ) ;
#36 = CARTESIAN_POINT ( 'NONE',  ( -8.000000000000000000, 0.000000000000000000, 5.000000000000000000 ) ) ;
#37 = EDGE_CURVE ( 'NONE', #304, #215, #108, .T. ) ;
#38 = DIRECTION ( 'NONE',  ( 1.000000000000000000, 0.000000000000000000, 0.000000000000000000 ) ) ;
#39 = AXIS2_PLACEMENT_3D ( 'NONE', #251, #179, #13 ) ;
#40 = CALENDAR_DATE ( 2022, 20, 6 ) ;
#41 = EDGE_LOOP ( 'NONE', ( #68, #26, #192, #185 ) ) ;
#42 = APPLICATION_PROTOCOL_DEFINITION ( 'international standard', 'config_control_design', 1994, #122 ) ;
#43 = CIRCLE ( 'NONE', #96, 0.1999999999999996503 ) ;
#44 = ORIENTED_EDGE ( 'NONE', *, *, #92, .F. ) ;
#45 = DATE_TIME_ROLE ( 'classification_date' ) ;
#46 = PERSON_AND_ORGANIZATION_ROLE ( 'design_supplier' ) ;
#47 = ORIENTED_EDGE ( 'NONE', *, *, #135, .F. ) ;
#48 = APPROVAL ( #150, 'NEURÈENÝ' ) ;
#49 = DIRECTION ( 'NONE',  ( 0.000000000000000000, 0.000000000000000000, 1.000000000000000000 ) ) ;
#50 = AXIS2_PLACEMENT_3D ( 'NONE', #125, #73, #213 ) ;
#51 = PLANE ( 'NONE',  #103 ) ;
#52 = DIRECTION ( 'NONE',  ( 1.000000000000000000, 0.000000000000000000, -0.000000000000000000 ) ) ;
#53 = DIRECTION ( 'NONE',  ( -1.000000000000000000, 0.000000000000000000, 0.000000000000000000 ) ) ;
#54 = CIRCLE ( 'NONE', #61, 5.300000000000000711 ) ;
#55 = CARTESIAN_POINT ( 'NONE',  ( 0.000000000000000000, 0.000000000000000000, 5.000000000000000000 ) ) ;
#56 = CARTESIAN_POINT ( 'NONE',  ( -5.100000000000001421, 0.000000000000000000, 5.199999999999996625 ) ) ;
#57 = DIRECTION ( 'NONE',  ( 0.000000000000000000, 0.000000000000000000, 1.000000000000000000 ) ) ;
#58 = CARTESIAN_POINT ( 'NONE',  ( 8.000000000000000000, 9.797174393178825657E-16, 0.000000000000000000 ) ) ;
#59 = SECURITY_CLASSIFICATION ( '', '', #15 ) ;
#60 = FACE_BOUND ( 'NONE', #263, .T. ) ;
#61 = AXIS2_PLACEMENT_3D ( 'NONE', #29, #130, #219 ) ;
#62 = DIRECTION ( 'NONE',  ( 0.000000000000000000, 0.000000000000000000, 1.000000000000000000 ) ) ;
#63 = VECTOR ( 'NONE', #100, 1000.000000000000000 ) ;
#64 = PERSON_AND_ORGANIZATION_ROLE ( 'classification_officer' ) ;
#65 = VECTOR ( 'NONE', #275, 1000.000000000000000 ) ;
#66 = EDGE_CURVE ( 'NONE', #280, #237, #188, .T. ) ;
#67 = PERSON_AND_ORGANIZATION ( #187, #117 ) ;
#68 = ORIENTED_EDGE ( 'NONE', *, *, #28, .F. ) ;
#69 = ORIENTED_EDGE ( 'NONE', *, *, #247, .F. ) ;
#70 = ADVANCED_FACE ( 'NONE', ( #171 ), #51, .F. ) ;
#71 = AXIS2_PLACEMENT_3D ( 'NONE', #12, #154, #80 ) ;
#72 = EDGE_LOOP ( 'NONE', ( #284, #25 ) ) ;
#73 = DIRECTION ( 'NONE',  ( 0.000000000000000000, 0.000000000000000000, 1.000000000000000000 ) ) ;
#74 = AXIS2_PLACEMENT_3D ( 'NONE', #149, #105, #217 ) ;
#75 = VECTOR ( 'NONE', #35, 1000.000000000000000 ) ;
#76 = EDGE_LOOP ( 'NONE', ( #234, #91 ) ) ;
#77 = AXIS2_PLACEMENT_3D ( 'NONE', #141, #235, #21 ) ;
#78 = CARTESIAN_POINT ( 'NONE',  ( 0.000000000000000000, 0.000000000000000000, 5.199999999999996625 ) ) ;
#79 = CARTESIAN_POINT ( 'NONE',  ( 5.100000000000001421, 6.245698675651502811E-16, 105.0000000000000142 ) ) ;
#80 = DIRECTION ( 'NONE',  ( -1.000000000000000000, 1.224646799147353454E-16, 0.000000000000000000 ) ) ;
#81 = APPROVAL_PERSON_ORGANIZATION ( #233, #210, #209 ) ;
#82 = CARTESIAN_POINT ( 'NONE',  ( 0.000000000000000000, 0.000000000000000000, 105.0000000000000142 ) ) ;
#83 = LINE ( 'NONE', #136, #65 ) ;
#84 = CARTESIAN_POINT ( 'NONE',  ( 0.000000000000000000, 0.000000000000000000, 5.000000000000000000 ) ) ;
#85 = CARTESIAN_POINT ( 'NONE',  ( 0.000000000000000000, 0.000000000000000000, 105.0000000000000142 ) ) ;
#86 = CC_DESIGN_APPROVAL ( #210, ( #270 ) ) ;
#87 = EDGE_CURVE ( 'NONE', #215, #304, #89, .T. ) ;
#88 = PERSON_AND_ORGANIZATION_ROLE ( 'design_owner' ) ;
#89 = CIRCLE ( 'NONE', #74, 5.100000000000001421 ) ;
#90 = PERSON_AND_ORGANIZATION_ROLE ( 'creator' ) ;
#91 = ORIENTED_EDGE ( 'NONE', *, *, #247, .T. ) ;
#92 = EDGE_CURVE ( 'NONE', #211, #120, #262, .T. ) ;
#93 = APPROVAL_DATE_TIME ( #138, #159 ) ;
#94 = DATE_TIME_ROLE ( 'creation_date' ) ;
#95 = DATE_AND_TIME ( #302, #157 ) ;
#96 = AXIS2_PLACEMENT_3D ( 'NONE', #6, #172, #2 ) ;
#97 = ORIENTED_EDGE ( 'NONE', *, *, #3, .F. ) ;
#98 = ADVANCED_FACE ( 'NONE', ( #5 ), #195, .T. ) ;
#99 = AXIS2_PLACEMENT_3D ( 'NONE', #84, #115, #299 ) ;
#100 = DIRECTION ( 'NONE',  ( -0.000000000000000000, -0.000000000000000000, -1.000000000000000000 ) ) ;
#101 = COORDINATED_UNIVERSAL_TIME_OFFSET ( 1, 0, .AHEAD. ) ;
#102 = ORIENTED_EDGE ( 'NONE', *, *, #3, .T. ) ;
#103 = AXIS2_PLACEMENT_3D ( 'NONE', #175, #148, #52 ) ;
#104 = EDGE_CURVE ( 'NONE', #120, #211, #54, .T. ) ;
#105 = DIRECTION ( 'NONE',  ( 0.000000000000000000, 0.000000000000000000, 1.000000000000000000 ) ) ;
#106 = EDGE_LOOP ( 'NONE', ( #47, #142, #290, #4 ) ) ;
#107 = PRODUCT_RELATED_PRODUCT_CATEGORY ( 'detail', '', ( #168 ) ) ;
#108 = CIRCLE ( 'NONE', #214, 5.100000000000001421 ) ;
#109 = DIRECTION ( 'NONE',  ( -0.000000000000000000, -0.000000000000000000, -1.000000000000000000 ) ) ;
#110 = DESIGN_CONTEXT ( 'detailed design', #295, 'design' ) ;
#111 = CIRCLE ( 'NONE', #273, 5.100000000000001421 ) ;
#112 = DIRECTION ( 'NONE',  ( 0.000000000000000000, 0.000000000000000000, 1.000000000000000000 ) ) ;
#113 = CARTESIAN_POINT ( 'NONE',  ( -5.100000000000001421, 0.000000000000000000, 105.0000000000000142 ) ) ;
#114 = CC_DESIGN_PERSON_AND_ORGANIZATION_ASSIGNMENT ( #184, #64, ( #59 ) ) ;
#115 = DIRECTION ( 'NONE',  ( 0.000000000000000000, 0.000000000000000000, 1.000000000000000000 ) ) ;
#116 = APPROVAL_DATE_TIME ( #204, #210 ) ;
#117 = ORGANIZATION ( 'NEURÈENÝ', 'NEURÈENÝ', '' ) ;
#118 = PERSON_AND_ORGANIZATION ( #187, #117 ) ;
#119 = CALENDAR_DATE ( 2022, 20, 6 ) ;
#120 = VERTEX_POINT ( 'NONE', #7 ) ;
#121 = APPLICATION_PROTOCOL_DEFINITION ( 'international standard', 'config_control_design', 1994, #295 ) ;
#122 = APPLICATION_CONTEXT ( 'configuration controlled 3d designs of mechanical parts and assemblies' ) ;
#123 = DATE_AND_TIME ( #193, #17 ) ;
#124 = VERTEX_POINT ( 'NONE', #190 ) ;
#125 = CARTESIAN_POINT ( 'NONE',  ( 0.000000000000000000, 0.000000000000000000, 5.000000000000000000 ) ) ;
#126 = ORIENTED_EDGE ( 'NONE', *, *, #180, .T. ) ;
#127 = ORIENTED_EDGE ( 'NONE', *, *, #288, .T. ) ;
#128 = APPROVAL_PERSON_ORGANIZATION ( #303, #159, #306 ) ;
#129 = EDGE_CURVE ( 'NONE', #280, #124, #298, .T. ) ;
#130 = DIRECTION ( 'NONE',  ( -0.000000000000000000, -0.000000000000000000, -1.000000000000000000 ) ) ;
#131 = DIRECTION ( 'NONE',  ( -0.000000000000000000, -0.000000000000000000, -1.000000000000000000 ) ) ;
#132 = CYLINDRICAL_SURFACE ( 'NONE', #212, 5.100000000000001421 ) ;
#133 = CIRCLE ( 'NONE', #272, 8.000000000000000000 ) ;
#134 = FACE_OUTER_BOUND ( 'NONE', #106, .T. ) ;
#135 = EDGE_CURVE ( 'NONE', #237, #261, #8, .T. ) ;
#136 = CARTESIAN_POINT ( 'NONE',  ( -5.100000000000001421, 0.000000000000000000, 105.0000000000000142 ) ) ;
#137 = CARTESIAN_POINT ( 'NONE',  ( -5.300000000000000711, 6.490628035480971924E-16, 4.999999999999998224 ) ) ;
#138 = DATE_AND_TIME ( #119, #256 ) ;
#139 = ADVANCED_FACE ( 'NONE', ( #294 ), #282, .F. ) ;
#140 = AXIS2_PLACEMENT_3D ( 'NONE', #82, #112, #182 ) ;
#141 = CARTESIAN_POINT ( 'NONE',  ( 0.000000000000000000, 0.000000000000000000, 105.0000000000000142 ) ) ;
#142 = ORIENTED_EDGE ( 'NONE', *, *, #66, .F. ) ;
#143 = MECHANICAL_CONTEXT ( 'NONE', #122, 'mechanical' ) ;
#144 = EDGE_LOOP ( 'NONE', ( #69, #231, #208, #291 ) ) ;
#145 = PERSON_AND_ORGANIZATION ( #187, #117 ) ;
#146 = AXIS2_PLACEMENT_3D ( 'NONE', #156, #131, #181 ) ;
#147 = DIRECTION ( 'NONE',  ( 1.000000000000000000, 0.000000000000000000, 0.000000000000000000 ) ) ;
#148 = DIRECTION ( 'NONE',  ( 0.000000000000000000, 0.000000000000000000, 1.000000000000000000 ) ) ;
#149 = CARTESIAN_POINT ( 'NONE',  ( 0.000000000000000000, 0.000000000000000000, 5.199999999999996625 ) ) ;
#150 = APPROVAL_STATUS ( 'not_yet_approved' ) ;
#151 = DIRECTION ( 'NONE',  ( 1.000000000000000000, 0.000000000000000000, 0.000000000000000000 ) ) ;
#152 = CC_DESIGN_APPROVAL ( #159, ( #198 ) ) ;
#153 = ADVANCED_FACE ( 'NONE', ( #248 ), #199, .T. ) ;
#154 = DIRECTION ( 'NONE',  ( 1.224646799147353207E-16, 1.000000000000000000, -0.000000000000000000 ) ) ;
#155 = DIRECTION ( 'NONE',  ( 1.000000000000000000, 0.000000000000000000, 0.000000000000000000 ) ) ;
#156 = CARTESIAN_POINT ( 'NONE',  ( 0.000000000000000000, 0.000000000000000000, 105.0000000000000142 ) ) ;
#157 = LOCAL_TIME ( 11, 39, 54.00000000000000000, #255 ) ;
#158 = DIRECTION ( 'NONE',  ( -0.000000000000000000, -0.000000000000000000, -1.000000000000000000 ) ) ;
#159 = APPROVAL ( #206, 'NEURÈENÝ' ) ;
#160 = APPROVAL_STATUS ( 'not_yet_approved' ) ;
#161 = CARTESIAN_POINT ( 'NONE',  ( 0.000000000000000000, 0.000000000000000000, 0.000000000000000000 ) ) ;
#162 = ADVANCED_BREP_SHAPE_REPRESENTATION ( '2e38', ( #201, #10 ), #20 ) ;
#163 = VERTEX_POINT ( 'NONE', #113 ) ;
#164 = DATE_AND_TIME ( #40, #23 ) ;
#165 = ORIENTED_EDGE ( 'NONE', *, *, #104, .T. ) ;
#166 = CC_DESIGN_PERSON_AND_ORGANIZATION_ASSIGNMENT ( #281, #90, ( #198 ) ) ;
#167 = COORDINATED_UNIVERSAL_TIME_OFFSET ( 1, 0, .AHEAD. ) ;
#168 = PRODUCT ( '2e38', '2e38', '', ( #143 ) ) ;
#169 = ORIENTED_EDGE ( 'NONE', *, *, #92, .T. ) ;
#170 = ADVANCED_FACE ( 'NONE', ( #227 ), #305, .F. ) ;
#171 = FACE_OUTER_BOUND ( 'NONE', #265, .T. ) ;
#172 = DIRECTION ( 'NONE',  ( 0.000000000000000000, -1.000000000000000000, 0.000000000000000000 ) ) ;
#173 = CC_DESIGN_APPROVAL ( #48, ( #59 ) ) ;
#174 = VERTEX_POINT ( 'NONE', #296 ) ;
#175 = CARTESIAN_POINT ( 'NONE',  ( 0.000000000000000000, 0.000000000000000000, 0.000000000000000000 ) ) ;
#176 = CC_DESIGN_PERSON_AND_ORGANIZATION_ASSIGNMENT ( #186, #46, ( #198 ) ) ;
#177 = DIRECTION ( 'NONE',  ( 1.000000000000000000, 0.000000000000000000, 0.000000000000000000 ) ) ;
#178 = CIRCLE ( 'NONE', #71, 0.1999999999999996503 ) ;
#179 = DIRECTION ( 'NONE',  ( 0.000000000000000000, 0.000000000000000000, 1.000000000000000000 ) ) ;
#180 = EDGE_CURVE ( 'NONE', #215, #211, #178, .T. ) ;
#181 = DIRECTION ( 'NONE',  ( -1.000000000000000000, 0.000000000000000000, 0.000000000000000000 ) ) ;
#182 = DIRECTION ( 'NONE',  ( 1.000000000000000000, 0.000000000000000000, 0.000000000000000000 ) ) ;
#183 = DIRECTION ( 'NONE',  ( -0.000000000000000000, -0.000000000000000000, -1.000000000000000000 ) ) ;
#184 = PERSON_AND_ORGANIZATION ( #187, #117 ) ;
#185 = ORIENTED_EDGE ( 'NONE', *, *, #87, .T. ) ;
#186 = PERSON_AND_ORGANIZATION ( #187, #117 ) ;
#187 = PERSON ( 'NEURÈENÝ', 'NEURÈENÝ', 'NEURÈENÝ', ('NEURÈENÝ'), ('NEURÈENÝ'), ('NEURÈENÝ') ) ;
#188 = CIRCLE ( 'NONE', #50, 8.000000000000000000 ) ;
#189 = ORIENTED_EDGE ( 'NONE', *, *, #180, .F. ) ;
#190 = CARTESIAN_POINT ( 'NONE',  ( -8.000000000000000000, 0.000000000000000000, 0.000000000000000000 ) ) ;
#191 = CC_DESIGN_PERSON_AND_ORGANIZATION_ASSIGNMENT ( #118, #257, ( #270 ) ) ;
#192 = ORIENTED_EDGE ( 'NONE', *, *, #216, .T. ) ;
#193 = CALENDAR_DATE ( 2022, 20, 6 ) ;
#194 = ORIENTED_EDGE ( 'NONE', *, *, #87, .F. ) ;
#195 = CYLINDRICAL_SURFACE ( 'NONE', #225, 8.000000000000000000 ) ;
#196 = CARTESIAN_POINT ( 'NONE',  ( 8.000000000000000000, 9.797174393178825657E-16, 5.000000000000000000 ) ) ;
#197 = CARTESIAN_POINT ( 'NONE',  ( 8.000000000000000000, 9.797174393178825657E-16, 5.000000000000000000 ) ) ;
#198 = PRODUCT_DEFINITION_FORMATION_WITH_SPECIFIED_SOURCE ( 'LIBOVOLNÝ', '', #168, .NOT_KNOWN. ) ;
#199 = CYLINDRICAL_SURFACE ( 'NONE', #146, 5.100000000000001421 ) ;
#200 = DIRECTION ( 'NONE',  ( -1.000000000000000000, 0.000000000000000000, 0.000000000000000000 ) ) ;
#201 = MANIFOLD_SOLID_BREP ( 'Zaoblit1', #243 ) ;
#202 = FACE_OUTER_BOUND ( 'NONE', #144, .T. ) ;
#203 = ADVANCED_FACE ( 'NONE', ( #134 ), #9, .T. ) ;
#204 = DATE_AND_TIME ( #230, #34 ) ;
#205 = CIRCLE ( 'NONE', #254, 8.000000000000000000 ) ;
#206 = APPROVAL_STATUS ( 'not_yet_approved' ) ;
#207 =( LENGTH_UNIT ( ) NAMED_UNIT ( * ) SI_UNIT ( .MILLI., .METRE. ) );
#208 = ORIENTED_EDGE ( 'NONE', *, *, #37, .T. ) ;
#209 = APPROVAL_ROLE ( '' ) ;
#210 = APPROVAL ( #160, 'NEURÈENÝ' ) ;
#211 = VERTEX_POINT ( 'NONE', #137 ) ;
#212 = AXIS2_PLACEMENT_3D ( 'NONE', #85, #158, #249 ) ;
#213 = DIRECTION ( 'NONE',  ( 1.000000000000000000, 0.000000000000000000, 0.000000000000000000 ) ) ;
#214 = AXIS2_PLACEMENT_3D ( 'NONE', #78, #49, #147 ) ;
#215 = VERTEX_POINT ( 'NONE', #56 ) ;
#216 = EDGE_CURVE ( 'NONE', #163, #215, #83, .T. ) ;
#217 = DIRECTION ( 'NONE',  ( 1.000000000000000000, 0.000000000000000000, 0.000000000000000000 ) ) ;
#218 = CIRCLE ( 'NONE', #39, 8.000000000000000000 ) ;
#219 = DIRECTION ( 'NONE',  ( 1.000000000000000000, 0.000000000000000000, 0.000000000000000000 ) ) ;
#220 = FACE_OUTER_BOUND ( 'NONE', #72, .T. ) ;
#221 = PLANE ( 'NONE',  #99 ) ;
#222 = VECTOR ( 'NONE', #183, 1000.000000000000000 ) ;
#223 = CARTESIAN_POINT ( 'NONE',  ( 0.000000000000000000, 0.000000000000000000, 5.000000000000000000 ) ) ;
#224 = DIRECTION ( 'NONE',  ( 1.000000000000000000, 0.000000000000000000, 0.000000000000000000 ) ) ;
#225 = AXIS2_PLACEMENT_3D ( 'NONE', #245, #292, #53 ) ;
#226 = CC_DESIGN_PERSON_AND_ORGANIZATION_ASSIGNMENT ( #67, #88, ( #168 ) ) ;
#227 = FACE_OUTER_BOUND ( 'NONE', #259, .T. ) ;
#228 = AXIS2_PLACEMENT_3D ( 'NONE', #31, #278, #177 ) ;
#229 = PLANE ( 'NONE',  #77 ) ;
#230 = CALENDAR_DATE ( 2022, 20, 6 ) ;
#231 = ORIENTED_EDGE ( 'NONE', *, *, #28, .T. ) ;
#232 = ADVANCED_FACE ( 'NONE', ( #60, #220 ), #221, .T. ) ;
#233 = PERSON_AND_ORGANIZATION ( #187, #117 ) ;
#234 = ORIENTED_EDGE ( 'NONE', *, *, #242, .T. ) ;
#235 = DIRECTION ( 'NONE',  ( 0.000000000000000000, 0.000000000000000000, 1.000000000000000000 ) ) ;
#236 = CC_DESIGN_SECURITY_CLASSIFICATION ( #59, ( #198 ) ) ;
#237 = VERTEX_POINT ( 'NONE', #197 ) ;
#238 = PRODUCT_DEFINITION_SHAPE ( 'NONE', 'NONE',  #270 ) ;
#239 = APPROVAL_DATE_TIME ( #123, #48 ) ;
#240 = ORIENTED_EDGE ( 'NONE', *, *, #16, .F. ) ;
#241 = ORIENTED_EDGE ( 'NONE', *, *, #129, .F. ) ;
#242 = EDGE_CURVE ( 'NONE', #163, #174, #246, .T. ) ;
#243 = CLOSED_SHELL ( 'NONE', ( #139, #277, #98, #203, #232, #70, #153, #301, #170 ) ) ;
#244 = DIRECTION ( 'NONE',  ( 0.000000000000000000, 0.000000000000000000, 1.000000000000000000 ) ) ;
#245 = CARTESIAN_POINT ( 'NONE',  ( 0.000000000000000000, 0.000000000000000000, 5.000000000000000000 ) ) ;
#246 = CIRCLE ( 'NONE', #140, 5.100000000000001421 ) ;
#247 = EDGE_CURVE ( 'NONE', #174, #163, #111, .T. ) ;
#248 = FACE_OUTER_BOUND ( 'NONE', #41, .T. ) ;
#249 = DIRECTION ( 'NONE',  ( -1.000000000000000000, 0.000000000000000000, 0.000000000000000000 ) ) ;
#250 = CARTESIAN_POINT ( 'NONE',  ( -8.000000000000000000, 0.000000000000000000, 5.000000000000000000 ) ) ;
#251 = CARTESIAN_POINT ( 'NONE',  ( 0.000000000000000000, 0.000000000000000000, 0.000000000000000000 ) ) ;
#252 = CC_DESIGN_DATE_AND_TIME_ASSIGNMENT ( #95, #94, ( #270 ) ) ;
#253 = DIRECTION ( 'NONE',  ( 0.000000000000000000, 0.000000000000000000, 1.000000000000000000 ) ) ;
#254 = AXIS2_PLACEMENT_3D ( 'NONE', #55, #244, #293 ) ;
#255 = COORDINATED_UNIVERSAL_TIME_OFFSET ( 1, 0, .AHEAD. ) ;
#256 = LOCAL_TIME ( 11, 39, 54.00000000000000000, #260 ) ;
#257 = PERSON_AND_ORGANIZATION_ROLE ( 'creator' ) ;
#258 = EDGE_LOOP ( 'NONE', ( #240, #18, #127, #241 ) ) ;
#259 = EDGE_LOOP ( 'NONE', ( #189, #286, #102, #44 ) ) ;
#260 = COORDINATED_UNIVERSAL_TIME_OFFSET ( 1, 0, .AHEAD. ) ;
#261 = VERTEX_POINT ( 'NONE', #58 ) ;
#262 = CIRCLE ( 'NONE', #14, 5.300000000000000711 ) ;
#263 = EDGE_LOOP ( 'NONE', ( #165, #169 ) ) ;
#264 = APPROVAL_ROLE ( '' ) ;
#265 = EDGE_LOOP ( 'NONE', ( #22, #27 ) ) ;
#266 = APPROVAL_PERSON_ORGANIZATION ( #145, #48, #264 ) ;
#267 = EDGE_CURVE ( 'NONE', #124, #261, #218, .T. ) ;
#268 = CARTESIAN_POINT ( 'NONE',  ( 0.000000000000000000, 0.000000000000000000, 5.000000000000000000 ) ) ;
#269 = DIRECTION ( 'NONE',  ( -0.000000000000000000, -0.000000000000000000, -1.000000000000000000 ) ) ;
#270 = PRODUCT_DEFINITION ( 'NEZNÁMÝ', '', #198, #110 ) ;
#271 = DIRECTION ( 'NONE',  ( 1.000000000000000000, 0.000000000000000000, 0.000000000000000000 ) ) ;
#272 = AXIS2_PLACEMENT_3D ( 'NONE', #274, #57, #155 ) ;
#273 = AXIS2_PLACEMENT_3D ( 'NONE', #276, #300, #224 ) ;
#274 = CARTESIAN_POINT ( 'NONE',  ( 0.000000000000000000, 0.000000000000000000, 0.000000000000000000 ) ) ;
#275 = DIRECTION ( 'NONE',  ( -0.000000000000000000, -0.000000000000000000, -1.000000000000000000 ) ) ;
#276 = CARTESIAN_POINT ( 'NONE',  ( 0.000000000000000000, 0.000000000000000000, 105.0000000000000142 ) ) ;
#277 = ADVANCED_FACE ( 'NONE', ( #202 ), #132, .T. ) ;
#278 = DIRECTION ( 'NONE',  ( 0.000000000000000000, 0.000000000000000000, 1.000000000000000000 ) ) ;
#279 =( NAMED_UNIT ( * ) SI_UNIT ( $, .STERADIAN. ) SOLID_ANGLE_UNIT ( ) );
#280 = VERTEX_POINT ( 'NONE', #36 ) ;
#281 = PERSON_AND_ORGANIZATION ( #187, #117 ) ;
#282 = TOROIDAL_SURFACE ( 'NONE', #228, 5.300000000000000711, 0.2000000000000000111 ) ;
#283 = CARTESIAN_POINT ( 'NONE',  ( 5.100000000000001421, 6.245698675651502811E-16, 5.199999999999996625 ) ) ;
#284 = ORIENTED_EDGE ( 'NONE', *, *, #66, .T. ) ;
#285 = COORDINATED_UNIVERSAL_TIME_OFFSET ( 1, 0, .AHEAD. ) ;
#286 = ORIENTED_EDGE ( 'NONE', *, *, #37, .F. ) ;
#287 = ORIENTED_EDGE ( 'NONE', *, *, #104, .F. ) ;
#288 = EDGE_CURVE ( 'NONE', #261, #124, #133, .T. ) ;
#289 = LINE ( 'NONE', #79, #63 ) ;
#290 = ORIENTED_EDGE ( 'NONE', *, *, #129, .T. ) ;
#291 = ORIENTED_EDGE ( 'NONE', *, *, #216, .F. ) ;
#292 = DIRECTION ( 'NONE',  ( -0.000000000000000000, -0.000000000000000000, -1.000000000000000000 ) ) ;
#293 = DIRECTION ( 'NONE',  ( 1.000000000000000000, 0.000000000000000000, 0.000000000000000000 ) ) ;
#294 = FACE_OUTER_BOUND ( 'NONE', #307, .T. ) ;
#295 = APPLICATION_CONTEXT ( 'configuration controlled 3d designs of mechanical parts and assemblies' ) ;
#296 = CARTESIAN_POINT ( 'NONE',  ( 5.100000000000001421, 6.245698675651502811E-16, 105.0000000000000142 ) ) ;
#297 = UNCERTAINTY_MEASURE_WITH_UNIT (LENGTH_MEASURE( 1.000000000000000082E-05 ), #207, 'distance_accuracy_value', 'NONE');
#298 = LINE ( 'NONE', #250, #75 ) ;
#299 = DIRECTION ( 'NONE',  ( 1.000000000000000000, 0.000000000000000000, -0.000000000000000000 ) ) ;
#300 = DIRECTION ( 'NONE',  ( 0.000000000000000000, 0.000000000000000000, 1.000000000000000000 ) ) ;
#301 = ADVANCED_FACE ( 'NONE', ( #32 ), #229, .T. ) ;
#302 = CALENDAR_DATE ( 2022, 20, 6 ) ;
#303 = PERSON_AND_ORGANIZATION ( #187, #117 ) ;
#304 = VERTEX_POINT ( 'NONE', #283 ) ;
#305 = TOROIDAL_SURFACE ( 'NONE', #1, 5.300000000000000711, 0.2000000000000000111 ) ;
#306 = APPROVAL_ROLE ( '' ) ;
#307 = EDGE_LOOP ( 'NONE', ( #194, #126, #287, #97 ) ) ;
ENDSEC;
END-ISO-10303-21;
