ISO-10303-21;
HEADER;
FILE_DESCRIPTION (( 'STEP AP203' ),
    '1' );
FILE_NAME ('556b.STEP',
    '2022-06-20T10:08:08',
    ( '' ),
    ( '' ),
    'SwSTEP 2.0',
    'SolidWorks 2019',
    '' );
FILE_SCHEMA (( 'CONFIG_CONTROL_DESIGN' ));
ENDSEC;

DATA;
#1 = AXIS2_PLACEMENT_3D ( 'NONE', #10, #203, #13 ) ;
#2 = CARTESIAN_POINT ( 'NONE',  ( 4.000000000000000000, 4.898587196589412829E-16, 0.000000000000000000 ) ) ;
#3 = CARTESIAN_POINT ( 'NONE',  ( -4.000000000000000000, 0.000000000000000000, 3.000000000000000000 ) ) ;
#4 = DATE_AND_TIME ( #177, #261 ) ;
#5 = CARTESIAN_POINT ( 'NONE',  ( 4.000000000000000000, 4.898587196589412829E-16, 3.000000000000000000 ) ) ;
#6 = DIRECTION ( 'NONE',  ( 1.000000000000000000, 0.000000000000000000, 0.000000000000000000 ) ) ;
#7 = LOCAL_TIME ( 12, 8, 8.000000000000000000, #281 ) ;
#8 = DIRECTION ( 'NONE',  ( -0.000000000000000000, -0.000000000000000000, -1.000000000000000000 ) ) ;
#9 = DIRECTION ( 'NONE',  ( -0.000000000000000000, -0.000000000000000000, -1.000000000000000000 ) ) ;
#10 = CARTESIAN_POINT ( 'NONE',  ( 0.000000000000000000, 0.000000000000000000, 0.000000000000000000 ) ) ;
#11 = AXIS2_PLACEMENT_3D ( 'NONE', #143, #151, #222 ) ;
#12 = CALENDAR_DATE ( 2022, 20, 6 ) ;
#13 = DIRECTION ( 'NONE',  ( 1.000000000000000000, 0.000000000000000000, 0.000000000000000000 ) ) ;
#14 = AXIS2_PLACEMENT_3D ( 'NONE', #61, #9, #70 ) ;
#15 = CARTESIAN_POINT ( 'NONE',  ( -2.100000000000000089, 0.000000000000000000, 3.200000000000008171 ) ) ;
#16 =( NAMED_UNIT ( * ) SI_UNIT ( $, .STERADIAN. ) SOLID_ANGLE_UNIT ( ) );
#17 = SHAPE_DEFINITION_REPRESENTATION ( #229, #132 ) ;
#18 = PLANE ( 'NONE',  #97 ) ;
#19 = AXIS2_PLACEMENT_3D ( 'NONE', #149, #80, #144 ) ;
#20 = EDGE_CURVE ( 'NONE', #283, #46, #290, .T. ) ;
#21 = DATE_AND_TIME ( #12, #7 ) ;
#22 = ORIENTED_EDGE ( 'NONE', *, *, #129, .F. ) ;
#23 = APPLICATION_PROTOCOL_DEFINITION ( 'international standard', 'config_control_design', 1994, #183 ) ;
#24 = ORIENTED_EDGE ( 'NONE', *, *, #86, .T. ) ;
#25 = ORIENTED_EDGE ( 'NONE', *, *, #223, .F. ) ;
#26 = EDGE_CURVE ( 'NONE', #115, #101, #135, .T. ) ;
#27 = AXIS2_PLACEMENT_3D ( 'NONE', #131, #8, #44 ) ;
#28 = ORIENTED_EDGE ( 'NONE', *, *, #279, .T. ) ;
#29 = ORIENTED_EDGE ( 'NONE', *, *, #223, .T. ) ;
#30 = CC_DESIGN_PERSON_AND_ORGANIZATION_ASSIGNMENT ( #246, #242, ( #138 ) ) ;
#31 = DIRECTION ( 'NONE',  ( 1.000000000000000000, 0.000000000000000000, 0.000000000000000000 ) ) ;
#32 = CIRCLE ( 'NONE', #208, 0.2000000000000000944 ) ;
#33 = CALENDAR_DATE ( 2022, 20, 6 ) ;
#34 = DIRECTION ( 'NONE',  ( 1.000000000000000000, 0.000000000000000000, 0.000000000000000000 ) ) ;
#35 = DIRECTION ( 'NONE',  ( 0.000000000000000000, 0.000000000000000000, 1.000000000000000000 ) ) ;
#36 = CALENDAR_DATE ( 2022, 20, 6 ) ;
#37 = LINE ( 'NONE', #169, #145 ) ;
#38 = ADVANCED_FACE ( 'NONE', ( #193 ), #57, .T. ) ;
#39 = PERSON_AND_ORGANIZATION_ROLE ( 'design_owner' ) ;
#40 = CARTESIAN_POINT ( 'NONE',  ( 0.000000000000000000, 0.000000000000000000, 3.000000000000000000 ) ) ;
#41 = CARTESIAN_POINT ( 'NONE',  ( 0.000000000000000000, 0.000000000000000000, 0.000000000000000000 ) ) ;
#42 = CC_DESIGN_PERSON_AND_ORGANIZATION_ASSIGNMENT ( #108, #196, ( #88 ) ) ;
#43 = DATE_TIME_ROLE ( 'classification_date' ) ;
#44 = DIRECTION ( 'NONE',  ( 1.000000000000000000, 0.000000000000000000, 0.000000000000000000 ) ) ;
#45 = CARTESIAN_POINT ( 'NONE',  ( 0.000000000000000000, 0.000000000000000000, 203.0000000000000000 ) ) ;
#46 = VERTEX_POINT ( 'NONE', #220 ) ;
#47 = CIRCLE ( 'NONE', #85, 4.000000000000000000 ) ;
#48 = DATE_AND_TIME ( #33, #142 ) ;
#49 = CYLINDRICAL_SURFACE ( 'NONE', #14, 4.000000000000000000 ) ;
#50 = ORIENTED_EDGE ( 'NONE', *, *, #167, .T. ) ;
#51 = CC_DESIGN_SECURITY_CLASSIFICATION ( #284, ( #88 ) ) ;
#52 = EDGE_LOOP ( 'NONE', ( #120, #165 ) ) ;
#53 = ORIENTED_EDGE ( 'NONE', *, *, #279, .F. ) ;
#54 = APPROVAL_PERSON_ORGANIZATION ( #224, #270, #219 ) ;
#55 = DIRECTION ( 'NONE',  ( -0.000000000000000000, -0.000000000000000000, -1.000000000000000000 ) ) ;
#56 = CC_DESIGN_DATE_AND_TIME_ASSIGNMENT ( #48, #43, ( #284 ) ) ;
#57 = PLANE ( 'NONE',  #228 ) ;
#58 = VECTOR ( 'NONE', #240, 1000.000000000000000 ) ;
#59 = DIRECTION ( 'NONE',  ( 1.000000000000000000, 0.000000000000000000, -0.000000000000000000 ) ) ;
#60 = DIRECTION ( 'NONE',  ( 1.000000000000000000, 0.000000000000000000, 0.000000000000000000 ) ) ;
#61 = CARTESIAN_POINT ( 'NONE',  ( 0.000000000000000000, 0.000000000000000000, 3.000000000000000000 ) ) ;
#62 = DIRECTION ( 'NONE',  ( -0.000000000000000000, -0.000000000000000000, -1.000000000000000000 ) ) ;
#63 = PRODUCT_RELATED_PRODUCT_CATEGORY ( 'detail', '', ( #157 ) ) ;
#64 = CALENDAR_DATE ( 2022, 20, 6 ) ;
#65 = DIRECTION ( 'NONE',  ( 0.000000000000000000, 0.000000000000000000, 1.000000000000000000 ) ) ;
#66 = CARTESIAN_POINT ( 'NONE',  ( 2.300000000000000266, 0.000000000000000000, 3.200000000000008171 ) ) ;
#67 = EDGE_CURVE ( 'NONE', #285, #46, #259, .T. ) ;
#68 = DIRECTION ( 'NONE',  ( 0.000000000000000000, 0.000000000000000000, 1.000000000000000000 ) ) ;
#69 = APPROVAL_ROLE ( '' ) ;
#70 = DIRECTION ( 'NONE',  ( -1.000000000000000000, 0.000000000000000000, 0.000000000000000000 ) ) ;
#71 = CIRCLE ( 'NONE', #218, 2.100000000000000089 ) ;
#72 = VERTEX_POINT ( 'NONE', #106 ) ;
#73 = TOROIDAL_SURFACE ( 'NONE', #113, 2.300000000000000266, 0.2000000000000000111 ) ;
#74 = ORIENTED_EDGE ( 'NONE', *, *, #26, .F. ) ;
#75 = EDGE_LOOP ( 'NONE', ( #254, #53 ) ) ;
#76 = EDGE_LOOP ( 'NONE', ( #95, #211 ) ) ;
#77 = ADVANCED_FACE ( 'NONE', ( #263 ), #118, .T. ) ;
#78 = CYLINDRICAL_SURFACE ( 'NONE', #153, 2.100000000000000089 ) ;
#79 = FACE_OUTER_BOUND ( 'NONE', #76, .T. ) ;
#80 = DIRECTION ( 'NONE',  ( 0.000000000000000000, 0.000000000000000000, 1.000000000000000000 ) ) ;
#81 = EDGE_CURVE ( 'NONE', #257, #285, #37, .T. ) ;
#82 = CARTESIAN_POINT ( 'NONE',  ( 0.000000000000000000, 0.000000000000000000, 203.0000000000000000 ) ) ;
#83 = DATE_AND_TIME ( #64, #301 ) ;
#84 = PERSON_AND_ORGANIZATION ( #306, #226 ) ;
#85 = AXIS2_PLACEMENT_3D ( 'NONE', #217, #35, #125 ) ;
#86 = EDGE_CURVE ( 'NONE', #46, #285, #112, .T. ) ;
#87 = DIRECTION ( 'NONE',  ( 1.000000000000000000, 0.000000000000000000, 0.000000000000000000 ) ) ;
#88 = PRODUCT_DEFINITION_FORMATION_WITH_SPECIFIED_SOURCE ( 'LIBOVOLNÝ', '', #157, .NOT_KNOWN. ) ;
#89 = COORDINATED_UNIVERSAL_TIME_OFFSET ( 1, 0, .AHEAD. ) ;
#90 = FACE_OUTER_BOUND ( 'NONE', #164, .T. ) ;
#91 = DIRECTION ( 'NONE',  ( 1.000000000000000000, 0.000000000000000000, 0.000000000000000000 ) ) ;
#92 = ADVANCED_FACE ( 'NONE', ( #293 ), #78, .T. ) ;
#93 = LOCAL_TIME ( 12, 8, 8.000000000000000000, #194 ) ;
#94 = ORIENTED_EDGE ( 'NONE', *, *, #81, .F. ) ;
#95 = ORIENTED_EDGE ( 'NONE', *, *, #129, .T. ) ;
#96 = ORIENTED_EDGE ( 'NONE', *, *, #167, .F. ) ;
#97 = AXIS2_PLACEMENT_3D ( 'NONE', #204, #251, #272 ) ;
#98 = ORIENTED_EDGE ( 'NONE', *, *, #67, .F. ) ;
#99 = DIRECTION ( 'NONE',  ( 0.000000000000000000, 0.000000000000000000, 1.000000000000000000 ) ) ;
#100 = LINE ( 'NONE', #176, #187 ) ;
#101 = VERTEX_POINT ( 'NONE', #3 ) ;
#102 = DESIGN_CONTEXT ( 'detailed design', #230, 'design' ) ;
#103 = CARTESIAN_POINT ( 'NONE',  ( 0.000000000000000000, 0.000000000000000000, 3.200000000000008171 ) ) ;
#104 = AXIS2_PLACEMENT_3D ( 'NONE', #156, #179, #180 ) ;
#105 = PERSON_AND_ORGANIZATION ( #306, #226 ) ;
#106 = CARTESIAN_POINT ( 'NONE',  ( -2.300000000000000266, 2.816687638038912549E-16, 3.000000000000004441 ) ) ;
#107 = ADVANCED_FACE ( 'NONE', ( #200, #79 ), #294, .T. ) ;
#108 = PERSON_AND_ORGANIZATION ( #306, #226 ) ;
#109 = CIRCLE ( 'NONE', #1, 4.000000000000000000 ) ;
#110 = CARTESIAN_POINT ( 'NONE',  ( 2.300000000000000266, 0.000000000000000000, 3.000000000000004441 ) ) ;
#111 = CC_DESIGN_PERSON_AND_ORGANIZATION_ASSIGNMENT ( #84, #39, ( #157 ) ) ;
#112 = CIRCLE ( 'NONE', #186, 2.100000000000000089 ) ;
#113 = AXIS2_PLACEMENT_3D ( 'NONE', #158, #247, #134 ) ;
#114 = ORIENTED_EDGE ( 'NONE', *, *, #198, .F. ) ;
#115 = VERTEX_POINT ( 'NONE', #5 ) ;
#116 = EDGE_LOOP ( 'NONE', ( #29, #141 ) ) ;
#117 = EDGE_CURVE ( 'NONE', #115, #140, #307, .T. ) ;
#118 = CYLINDRICAL_SURFACE ( 'NONE', #11, 4.000000000000000000 ) ;
#119 = VECTOR ( 'NONE', #62, 1000.000000000000000 ) ;
#120 = ORIENTED_EDGE ( 'NONE', *, *, #299, .T. ) ;
#121 = DIRECTION ( 'NONE',  ( 1.000000000000000000, 0.000000000000000000, 0.000000000000000000 ) ) ;
#122 = CARTESIAN_POINT ( 'NONE',  ( 0.000000000000000000, 0.000000000000000000, 203.0000000000000000 ) ) ;
#123 = EDGE_CURVE ( 'NONE', #287, #140, #233, .T. ) ;
#124 = APPROVAL_STATUS ( 'not_yet_approved' ) ;
#125 = DIRECTION ( 'NONE',  ( 1.000000000000000000, 0.000000000000000000, 0.000000000000000000 ) ) ;
#126 = AXIS2_PLACEMENT_3D ( 'NONE', #291, #99, #34 ) ;
#127 = DATE_AND_TIME ( #36, #93 ) ;
#128 = CARTESIAN_POINT ( 'NONE',  ( 0.000000000000000000, 0.000000000000000000, 3.200000000000008171 ) ) ;
#129 = EDGE_CURVE ( 'NONE', #101, #115, #47, .T. ) ;
#130 = PERSON_AND_ORGANIZATION ( #306, #226 ) ;
#131 = CARTESIAN_POINT ( 'NONE',  ( 0.000000000000000000, 0.000000000000000000, 3.000000000000000000 ) ) ;
#132 = ADVANCED_BREP_SHAPE_REPRESENTATION ( '556b', ( #171, #139 ), #280 ) ;
#133 = PERSON_AND_ORGANIZATION_ROLE ( 'creator' ) ;
#134 = DIRECTION ( 'NONE',  ( 1.000000000000000000, 0.000000000000000000, 0.000000000000000000 ) ) ;
#135 = CIRCLE ( 'NONE', #168, 4.000000000000000000 ) ;
#136 = FACE_OUTER_BOUND ( 'NONE', #166, .T. ) ;
#137 = ORIENTED_EDGE ( 'NONE', *, *, #20, .F. ) ;
#138 = PRODUCT_DEFINITION ( 'NEZNÁMÝ', '', #88, #102 ) ;
#139 = AXIS2_PLACEMENT_3D ( 'NONE', #41, #266, #121 ) ;
#140 = VERTEX_POINT ( 'NONE', #2 ) ;
#141 = ORIENTED_EDGE ( 'NONE', *, *, #198, .T. ) ;
#142 = LOCAL_TIME ( 12, 8, 8.000000000000000000, #89 ) ;
#143 = CARTESIAN_POINT ( 'NONE',  ( 0.000000000000000000, 0.000000000000000000, 3.000000000000000000 ) ) ;
#144 = DIRECTION ( 'NONE',  ( 1.000000000000000000, 0.000000000000000000, -0.000000000000000000 ) ) ;
#145 = VECTOR ( 'NONE', #267, 1000.000000000000000 ) ;
#146 = CARTESIAN_POINT ( 'NONE',  ( 0.000000000000000000, 0.000000000000000000, 0.000000000000000000 ) ) ;
#147 = TOROIDAL_SURFACE ( 'NONE', #207, 2.300000000000000266, 0.2000000000000000111 ) ;
#148 = AXIS2_PLACEMENT_3D ( 'NONE', #252, #154, #300 ) ;
#149 = CARTESIAN_POINT ( 'NONE',  ( 0.000000000000000000, 0.000000000000000000, 3.000000000000000000 ) ) ;
#150 = APPROVAL_ROLE ( '' ) ;
#151 = DIRECTION ( 'NONE',  ( -0.000000000000000000, -0.000000000000000000, -1.000000000000000000 ) ) ;
#152 = DIRECTION ( 'NONE',  ( -0.000000000000000000, -0.000000000000000000, -1.000000000000000000 ) ) ;
#153 = AXIS2_PLACEMENT_3D ( 'NONE', #82, #172, #268 ) ;
#154 = DIRECTION ( 'NONE',  ( 1.224646799147353207E-16, 1.000000000000000000, -0.000000000000000000 ) ) ;
#155 = APPLICATION_PROTOCOL_DEFINITION ( 'international standard', 'config_control_design', 1994, #230 ) ;
#156 = CARTESIAN_POINT ( 'NONE',  ( 0.000000000000000000, 0.000000000000000000, 203.0000000000000000 ) ) ;
#157 = PRODUCT ( '556b', '556b', '', ( #271 ) ) ;
#158 = CARTESIAN_POINT ( 'NONE',  ( 0.000000000000000000, 0.000000000000000000, 3.200000000000008171 ) ) ;
#159 = AXIS2_PLACEMENT_3D ( 'NONE', #45, #68, #253 ) ;
#160 =( NAMED_UNIT ( * ) PLANE_ANGLE_UNIT ( ) SI_UNIT ( $, .RADIAN. ) );
#161 = AXIS2_PLACEMENT_3D ( 'NONE', #40, #152, #87 ) ;
#162 = ADVANCED_FACE ( 'NONE', ( #296 ), #147, .F. ) ;
#163 = CARTESIAN_POINT ( 'NONE',  ( -4.000000000000000000, 0.000000000000000000, 0.000000000000000000 ) ) ;
#164 = EDGE_LOOP ( 'NONE', ( #114, #214, #24, #94 ) ) ;
#165 = ORIENTED_EDGE ( 'NONE', *, *, #265, .T. ) ;
#166 = EDGE_LOOP ( 'NONE', ( #189, #260, #209, #191 ) ) ;
#167 = EDGE_CURVE ( 'NONE', #101, #287, #100, .T. ) ;
#168 = AXIS2_PLACEMENT_3D ( 'NONE', #241, #195, #60 ) ;
#169 = CARTESIAN_POINT ( 'NONE',  ( -2.100000000000000089, 0.000000000000000000, 203.0000000000000000 ) ) ;
#170 = APPROVAL_PERSON_ORGANIZATION ( #234, #227, #69 ) ;
#171 = MANIFOLD_SOLID_BREP ( 'Zaoblit1', #255 ) ;
#172 = DIRECTION ( 'NONE',  ( -0.000000000000000000, -0.000000000000000000, -1.000000000000000000 ) ) ;
#173 = CARTESIAN_POINT ( 'NONE',  ( 4.000000000000000000, 4.898587196589412829E-16, 3.000000000000000000 ) ) ;
#174 = ORIENTED_EDGE ( 'NONE', *, *, #67, .T. ) ;
#175 = CIRCLE ( 'NONE', #159, 2.100000000000000089 ) ;
#176 = CARTESIAN_POINT ( 'NONE',  ( -4.000000000000000000, 0.000000000000000000, 3.000000000000000000 ) ) ;
#177 = CALENDAR_DATE ( 2022, 20, 6 ) ;
#178 = FACE_OUTER_BOUND ( 'NONE', #75, .T. ) ;
#179 = DIRECTION ( 'NONE',  ( -0.000000000000000000, -0.000000000000000000, -1.000000000000000000 ) ) ;
#180 = DIRECTION ( 'NONE',  ( -1.000000000000000000, 0.000000000000000000, 0.000000000000000000 ) ) ;
#181 = CC_DESIGN_APPROVAL ( #212, ( #138 ) ) ;
#182 = CC_DESIGN_PERSON_AND_ORGANIZATION_ASSIGNMENT ( #130, #133, ( #88 ) ) ;
#183 = APPLICATION_CONTEXT ( 'configuration controlled 3d designs of mechanical parts and assemblies' ) ;
#184 = ORIENTED_EDGE ( 'NONE', *, *, #299, .F. ) ;
#185 = ORIENTED_EDGE ( 'NONE', *, *, #81, .T. ) ;
#186 = AXIS2_PLACEMENT_3D ( 'NONE', #103, #262, #216 ) ;
#187 = VECTOR ( 'NONE', #55, 1000.000000000000000 ) ;
#188 = VERTEX_POINT ( 'NONE', #110 ) ;
#189 = ORIENTED_EDGE ( 'NONE', *, *, #248, .F. ) ;
#190 = ORIENTED_EDGE ( 'NONE', *, *, #117, .F. ) ;
#191 = ORIENTED_EDGE ( 'NONE', *, *, #265, .F. ) ;
#192 = ADVANCED_FACE ( 'NONE', ( #178 ), #18, .F. ) ;
#193 = FACE_OUTER_BOUND ( 'NONE', #116, .T. ) ;
#194 = COORDINATED_UNIVERSAL_TIME_OFFSET ( 1, 0, .AHEAD. ) ;
#195 = DIRECTION ( 'NONE',  ( 0.000000000000000000, 0.000000000000000000, 1.000000000000000000 ) ) ;
#196 = PERSON_AND_ORGANIZATION_ROLE ( 'design_supplier' ) ;
#197 = CIRCLE ( 'NONE', #148, 0.2000000000000000944 ) ;
#198 = EDGE_CURVE ( 'NONE', #283, #257, #175, .T. ) ;
#199 = APPROVAL_DATE_TIME ( #127, #212 ) ;
#200 = FACE_BOUND ( 'NONE', #52, .T. ) ;
#201 = SECURITY_CLASSIFICATION_LEVEL ( 'unclassified' ) ;
#202 = PERSON_AND_ORGANIZATION ( #306, #226 ) ;
#203 = DIRECTION ( 'NONE',  ( 0.000000000000000000, 0.000000000000000000, 1.000000000000000000 ) ) ;
#204 = CARTESIAN_POINT ( 'NONE',  ( 0.000000000000000000, 0.000000000000000000, 0.000000000000000000 ) ) ;
#205 = APPROVAL_DATE_TIME ( #21, #227 ) ;
#206 = CYLINDRICAL_SURFACE ( 'NONE', #104, 2.100000000000000089 ) ;
#207 = AXIS2_PLACEMENT_3D ( 'NONE', #128, #225, #6 ) ;
#208 = AXIS2_PLACEMENT_3D ( 'NONE', #66, #274, #250 ) ;
#209 = ORIENTED_EDGE ( 'NONE', *, *, #303, .T. ) ;
#210 = EDGE_LOOP ( 'NONE', ( #190, #22, #50, #236 ) ) ;
#211 = ORIENTED_EDGE ( 'NONE', *, *, #26, .T. ) ;
#212 = APPROVAL ( #124, 'NEURÈENÝ' ) ;
#213 = APPROVAL_PERSON_ORGANIZATION ( #105, #212, #150 ) ;
#214 = ORIENTED_EDGE ( 'NONE', *, *, #20, .T. ) ;
#215 = ADVANCED_FACE ( 'NONE', ( #90 ), #206, .T. ) ;
#216 = DIRECTION ( 'NONE',  ( 1.000000000000000000, 0.000000000000000000, 0.000000000000000000 ) ) ;
#217 = CARTESIAN_POINT ( 'NONE',  ( 0.000000000000000000, 0.000000000000000000, 3.000000000000000000 ) ) ;
#218 = AXIS2_PLACEMENT_3D ( 'NONE', #277, #65, #91 ) ;
#219 = APPROVAL_ROLE ( '' ) ;
#220 = CARTESIAN_POINT ( 'NONE',  ( 2.100000000000000089, 2.571758278209441957E-16, 3.200000000000008171 ) ) ;
#221 = COORDINATED_UNIVERSAL_TIME_OFFSET ( 1, 0, .AHEAD. ) ;
#222 = DIRECTION ( 'NONE',  ( -1.000000000000000000, 0.000000000000000000, 0.000000000000000000 ) ) ;
#223 = EDGE_CURVE ( 'NONE', #257, #283, #71, .T. ) ;
#224 = PERSON_AND_ORGANIZATION ( #306, #226 ) ;
#225 = DIRECTION ( 'NONE',  ( 0.000000000000000000, 0.000000000000000000, 1.000000000000000000 ) ) ;
#226 = ORGANIZATION ( 'NEURÈENÝ', 'NEURÈENÝ', '' ) ;
#227 = APPROVAL ( #298, 'NEURÈENÝ' ) ;
#228 = AXIS2_PLACEMENT_3D ( 'NONE', #122, #245, #59 ) ;
#229 = PRODUCT_DEFINITION_SHAPE ( 'NONE', 'NONE',  #138 ) ;
#230 = APPLICATION_CONTEXT ( 'configuration controlled 3d designs of mechanical parts and assemblies' ) ;
#231 = CARTESIAN_POINT ( 'NONE',  ( 2.100000000000000089, 2.571758278209441957E-16, 203.0000000000000000 ) ) ;
#232 = CC_DESIGN_DATE_AND_TIME_ASSIGNMENT ( #83, #292, ( #138 ) ) ;
#233 = CIRCLE ( 'NONE', #305, 4.000000000000000000 ) ;
#234 = PERSON_AND_ORGANIZATION ( #306, #226 ) ;
#235 = EDGE_LOOP ( 'NONE', ( #137, #25, #185, #174 ) ) ;
#236 = ORIENTED_EDGE ( 'NONE', *, *, #123, .T. ) ;
#237 = CC_DESIGN_APPROVAL ( #270, ( #88 ) ) ;
#238 = EDGE_LOOP ( 'NONE', ( #74, #302, #28, #96 ) ) ;
#239 = EDGE_LOOP ( 'NONE', ( #98, #304, #184, #286 ) ) ;
#240 = DIRECTION ( 'NONE',  ( -0.000000000000000000, -0.000000000000000000, -1.000000000000000000 ) ) ;
#241 = CARTESIAN_POINT ( 'NONE',  ( 0.000000000000000000, 0.000000000000000000, 3.000000000000000000 ) ) ;
#242 = PERSON_AND_ORGANIZATION_ROLE ( 'creator' ) ;
#243 = DIRECTION ( 'NONE',  ( 0.000000000000000000, 0.000000000000000000, 1.000000000000000000 ) ) ;
#244 = ADVANCED_FACE ( 'NONE', ( #136 ), #73, .F. ) ;
#245 = DIRECTION ( 'NONE',  ( 0.000000000000000000, 0.000000000000000000, 1.000000000000000000 ) ) ;
#246 = PERSON_AND_ORGANIZATION ( #306, #226 ) ;
#247 = DIRECTION ( 'NONE',  ( 0.000000000000000000, 0.000000000000000000, 1.000000000000000000 ) ) ;
#248 = EDGE_CURVE ( 'NONE', #285, #72, #197, .T. ) ;
#249 = COORDINATED_UNIVERSAL_TIME_OFFSET ( 1, 0, .AHEAD. ) ;
#250 = DIRECTION ( 'NONE',  ( 0.000000000000000000, 0.000000000000000000, -1.000000000000000000 ) ) ;
#251 = DIRECTION ( 'NONE',  ( 0.000000000000000000, 0.000000000000000000, 1.000000000000000000 ) ) ;
#252 = CARTESIAN_POINT ( 'NONE',  ( -2.300000000000000266, 2.816687638038912549E-16, 3.200000000000008171 ) ) ;
#253 = DIRECTION ( 'NONE',  ( 1.000000000000000000, 0.000000000000000000, 0.000000000000000000 ) ) ;
#254 = ORIENTED_EDGE ( 'NONE', *, *, #123, .F. ) ;
#255 = CLOSED_SHELL ( 'NONE', ( #162, #215, #288, #77, #107, #192, #92, #38, #244 ) ) ;
#256 = FACE_OUTER_BOUND ( 'NONE', #238, .T. ) ;
#257 = VERTEX_POINT ( 'NONE', #278 ) ;
#258 = UNCERTAINTY_MEASURE_WITH_UNIT (LENGTH_MEASURE( 1.000000000000000082E-05 ), #276, 'distance_accuracy_value', 'NONE');
#259 = CIRCLE ( 'NONE', #126, 2.100000000000000089 ) ;
#260 = ORIENTED_EDGE ( 'NONE', *, *, #86, .F. ) ;
#261 = LOCAL_TIME ( 12, 8, 8.000000000000000000, #221 ) ;
#262 = DIRECTION ( 'NONE',  ( 0.000000000000000000, 0.000000000000000000, 1.000000000000000000 ) ) ;
#263 = FACE_OUTER_BOUND ( 'NONE', #210, .T. ) ;
#264 = CARTESIAN_POINT ( 'NONE',  ( 2.100000000000000089, 2.571758278209441957E-16, 203.0000000000000000 ) ) ;
#265 = EDGE_CURVE ( 'NONE', #72, #188, #273, .T. ) ;
#266 = DIRECTION ( 'NONE',  ( 0.000000000000000000, 0.000000000000000000, 1.000000000000000000 ) ) ;
#267 = DIRECTION ( 'NONE',  ( -0.000000000000000000, -0.000000000000000000, -1.000000000000000000 ) ) ;
#268 = DIRECTION ( 'NONE',  ( -1.000000000000000000, 0.000000000000000000, 0.000000000000000000 ) ) ;
#269 = APPROVAL_DATE_TIME ( #4, #270 ) ;
#270 = APPROVAL ( #275, 'NEURÈENÝ' ) ;
#271 = MECHANICAL_CONTEXT ( 'NONE', #183, 'mechanical' ) ;
#272 = DIRECTION ( 'NONE',  ( 1.000000000000000000, 0.000000000000000000, -0.000000000000000000 ) ) ;
#273 = CIRCLE ( 'NONE', #27, 2.300000000000000266 ) ;
#274 = DIRECTION ( 'NONE',  ( 0.000000000000000000, -1.000000000000000000, 0.000000000000000000 ) ) ;
#275 = APPROVAL_STATUS ( 'not_yet_approved' ) ;
#276 =( LENGTH_UNIT ( ) NAMED_UNIT ( * ) SI_UNIT ( .MILLI., .METRE. ) );
#277 = CARTESIAN_POINT ( 'NONE',  ( 0.000000000000000000, 0.000000000000000000, 203.0000000000000000 ) ) ;
#278 = CARTESIAN_POINT ( 'NONE',  ( -2.100000000000000089, 0.000000000000000000, 203.0000000000000000 ) ) ;
#279 = EDGE_CURVE ( 'NONE', #140, #287, #109, .T. ) ;
#280 =( GEOMETRIC_REPRESENTATION_CONTEXT ( 3 ) GLOBAL_UNCERTAINTY_ASSIGNED_CONTEXT ( ( #258 ) ) GLOBAL_UNIT_ASSIGNED_CONTEXT ( ( #276, #160, #16 ) ) REPRESENTATION_CONTEXT ( 'NONE', 'WORKASPACE' ) );
#281 = COORDINATED_UNIVERSAL_TIME_OFFSET ( 1, 0, .AHEAD. ) ;
#282 = CC_DESIGN_PERSON_AND_ORGANIZATION_ASSIGNMENT ( #202, #297, ( #284 ) ) ;
#283 = VERTEX_POINT ( 'NONE', #231 ) ;
#284 = SECURITY_CLASSIFICATION ( '', '', #201 ) ;
#285 = VERTEX_POINT ( 'NONE', #15 ) ;
#286 = ORIENTED_EDGE ( 'NONE', *, *, #303, .F. ) ;
#287 = VERTEX_POINT ( 'NONE', #163 ) ;
#288 = ADVANCED_FACE ( 'NONE', ( #256 ), #49, .T. ) ;
#289 = CC_DESIGN_APPROVAL ( #227, ( #284 ) ) ;
#290 = LINE ( 'NONE', #264, #119 ) ;
#291 = CARTESIAN_POINT ( 'NONE',  ( 0.000000000000000000, 0.000000000000000000, 3.200000000000008171 ) ) ;
#292 = DATE_TIME_ROLE ( 'creation_date' ) ;
#293 = FACE_OUTER_BOUND ( 'NONE', #235, .T. ) ;
#294 = PLANE ( 'NONE',  #19 ) ;
#295 = CIRCLE ( 'NONE', #161, 2.300000000000000266 ) ;
#296 = FACE_OUTER_BOUND ( 'NONE', #239, .T. ) ;
#297 = PERSON_AND_ORGANIZATION_ROLE ( 'classification_officer' ) ;
#298 = APPROVAL_STATUS ( 'not_yet_approved' ) ;
#299 = EDGE_CURVE ( 'NONE', #188, #72, #295, .T. ) ;
#300 = DIRECTION ( 'NONE',  ( -1.000000000000000000, 1.224646799147353207E-16, 0.000000000000000000 ) ) ;
#301 = LOCAL_TIME ( 12, 8, 8.000000000000000000, #249 ) ;
#302 = ORIENTED_EDGE ( 'NONE', *, *, #117, .T. ) ;
#303 = EDGE_CURVE ( 'NONE', #46, #188, #32, .T. ) ;
#304 = ORIENTED_EDGE ( 'NONE', *, *, #248, .T. ) ;
#305 = AXIS2_PLACEMENT_3D ( 'NONE', #146, #243, #31 ) ;
#306 = PERSON ( 'NEURÈENÝ', 'NEURÈENÝ', 'NEURÈENÝ', ('NEURÈENÝ'), ('NEURÈENÝ'), ('NEURÈENÝ') ) ;
#307 = LINE ( 'NONE', #173, #58 ) ;
ENDSEC;
END-ISO-10303-21;
