ISO-10303-21;
HEADER;
FILE_DESCRIPTION (( 'STEP AP203' ),
    '1' );
FILE_NAME ('fb85.STEP',
    '2022-06-20T10:21:08',
    ( '' ),
    ( '' ),
    'SwSTEP 2.0',
    'SolidWorks 2019',
    '' );
FILE_SCHEMA (( 'CONFIG_CONTROL_DESIGN' ));
ENDSEC;

DATA;
#1 = LINE ( 'NONE', #188, #21 ) ;
#2 = VERTEX_POINT ( 'NONE', #98 ) ;
#3 = EDGE_CURVE ( 'NONE', #156, #63, #281, .T. ) ;
#4 = ORGANIZATION ( 'NEURÈENÝ', 'NEURÈENÝ', '' ) ;
#5 = DIRECTION ( 'NONE',  ( -1.000000000000000000, 1.224646799147351975E-16, 0.000000000000000000 ) ) ;
#6 = CC_DESIGN_PERSON_AND_ORGANIZATION_ASSIGNMENT ( #62, #182, ( #293 ) ) ;
#7 = APPLICATION_PROTOCOL_DEFINITION ( 'international standard', 'config_control_design', 1994, #147 ) ;
#8 = DIRECTION ( 'NONE',  ( -0.000000000000000000, -0.000000000000000000, -1.000000000000000000 ) ) ;
#9 = AXIS2_PLACEMENT_3D ( 'NONE', #103, #267, #105 ) ;
#10 = CARTESIAN_POINT ( 'NONE',  ( 0.000000000000000000, 0.000000000000000000, 1.500000000000000000 ) ) ;
#11 = COORDINATED_UNIVERSAL_TIME_OFFSET ( 1, 0, .AHEAD. ) ;
#12 = DATE_AND_TIME ( #223, #121 ) ;
#13 = CLOSED_SHELL ( 'NONE', ( #179, #131, #304, #81, #28, #87, #52, #165, #149 ) ) ;
#14 = DATE_TIME_ROLE ( 'creation_date' ) ;
#15 = CARTESIAN_POINT ( 'NONE',  ( 1.149999999999999911, 0.000000000000000000, 1.500000000000003553 ) ) ;
#16 = CALENDAR_DATE ( 2022, 20, 6 ) ;
#17 = CARTESIAN_POINT ( 'NONE',  ( 0.000000000000000000, 0.000000000000000000, 1.700000000000007061 ) ) ;
#18 = ORIENTED_EDGE ( 'NONE', *, *, #228, .T. ) ;
#19 = DATE_AND_TIME ( #16, #25 ) ;
#20 = FACE_OUTER_BOUND ( 'NONE', #301, .T. ) ;
#21 = VECTOR ( 'NONE', #202, 1000.000000000000000 ) ;
#22 = CARTESIAN_POINT ( 'NONE',  ( 0.000000000000000000, 0.000000000000000000, 0.000000000000000000 ) ) ;
#23 = ORIENTED_EDGE ( 'NONE', *, *, #3, .T. ) ;
#24 = EDGE_LOOP ( 'NONE', ( #244, #299, #208, #193 ) ) ;
#25 = LOCAL_TIME ( 12, 21, 8.000000000000000000, #279 ) ;
#26 = FACE_BOUND ( 'NONE', #264, .T. ) ;
#27 = ORIENTED_EDGE ( 'NONE', *, *, #85, .F. ) ;
#28 = ADVANCED_FACE ( 'NONE', ( #26, #266 ), #144, .T. ) ;
#29 = PERSON_AND_ORGANIZATION ( #160, #4 ) ;
#30 = DIRECTION ( 'NONE',  ( -0.000000000000000000, -0.000000000000000000, -1.000000000000000000 ) ) ;
#31 = DIRECTION ( 'NONE',  ( 1.000000000000000000, 0.000000000000000000, 0.000000000000000000 ) ) ;
#32 = CARTESIAN_POINT ( 'NONE',  ( 0.000000000000000000, 0.000000000000000000, 161.5000000000000000 ) ) ;
#33 = AXIS2_PLACEMENT_3D ( 'NONE', #150, #227, #245 ) ;
#34 = DIRECTION ( 'NONE',  ( -0.000000000000000000, -0.000000000000000000, -1.000000000000000000 ) ) ;
#35 = DIRECTION ( 'NONE',  ( 0.000000000000000000, 0.000000000000000000, 1.000000000000000000 ) ) ;
#36 = DATE_AND_TIME ( #176, #41 ) ;
#37 = LOCAL_TIME ( 12, 21, 8.000000000000000000, #247 ) ;
#38 = ADVANCED_BREP_SHAPE_REPRESENTATION ( 'fb85', ( #226, #124 ), #134 ) ;
#39 = ORIENTED_EDGE ( 'NONE', *, *, #101, .T. ) ;
#40 = DIRECTION ( 'NONE',  ( -1.000000000000000000, 0.000000000000000000, 0.000000000000000000 ) ) ;
#41 = LOCAL_TIME ( 12, 21, 8.000000000000000000, #197 ) ;
#42 = DIRECTION ( 'NONE',  ( 0.000000000000000000, 0.000000000000000000, 1.000000000000000000 ) ) ;
#43 = EDGE_CURVE ( 'NONE', #166, #232, #268, .T. ) ;
#44 = CARTESIAN_POINT ( 'NONE',  ( 0.000000000000000000, 0.000000000000000000, 0.000000000000000000 ) ) ;
#45 = EDGE_LOOP ( 'NONE', ( #256, #132, #49, #278 ) ) ;
#46 = AXIS2_PLACEMENT_3D ( 'NONE', #17, #108, #164 ) ;
#47 = ORIENTED_EDGE ( 'NONE', *, *, #194, .F. ) ;
#48 = DIRECTION ( 'NONE',  ( 1.000000000000000000, 0.000000000000000000, 0.000000000000000000 ) ) ;
#49 = ORIENTED_EDGE ( 'NONE', *, *, #204, .T. ) ;
#50 = VECTOR ( 'NONE', #8, 1000.000000000000000 ) ;
#51 = LOCAL_TIME ( 12, 21, 8.000000000000000000, #302 ) ;
#52 = ADVANCED_FACE ( 'NONE', ( #248 ), #104, .T. ) ;
#53 = DIRECTION ( 'NONE',  ( 1.000000000000000000, 0.000000000000000000, 0.000000000000000000 ) ) ;
#54 = ORIENTED_EDGE ( 'NONE', *, *, #109, .F. ) ;
#55 = EDGE_CURVE ( 'NONE', #96, #166, #196, .T. ) ;
#56 = CIRCLE ( 'NONE', #115, 1.149999999999999911 ) ;
#57 = APPROVAL_STATUS ( 'not_yet_approved' ) ;
#58 = APPROVAL ( #100, 'NEURÈENÝ' ) ;
#59 = AXIS2_PLACEMENT_3D ( 'NONE', #142, #92, #242 ) ;
#60 = DIRECTION ( 'NONE',  ( 0.000000000000000000, -1.000000000000000000, 0.000000000000000000 ) ) ;
#61 = VERTEX_POINT ( 'NONE', #126 ) ;
#62 = PERSON_AND_ORGANIZATION ( #160, #4 ) ;
#63 = VERTEX_POINT ( 'NONE', #151 ) ;
#64 = PERSON_AND_ORGANIZATION ( #160, #4 ) ;
#65 = CARTESIAN_POINT ( 'NONE',  ( 2.000000000000000000, 2.449293598294706414E-16, 1.500000000000000000 ) ) ;
#66 = VERTEX_POINT ( 'NONE', #15 ) ;
#67 = AXIS2_PLACEMENT_3D ( 'NONE', #22, #258, #168 ) ;
#68 = FACE_OUTER_BOUND ( 'NONE', #190, .T. ) ;
#69 = DIRECTION ( 'NONE',  ( 1.000000000000000000, 0.000000000000000000, -0.000000000000000000 ) ) ;
#70 = CIRCLE ( 'NONE', #46, 0.9499999999999999556 ) ;
#71 = CARTESIAN_POINT ( 'NONE',  ( 0.000000000000000000, 0.000000000000000000, 0.000000000000000000 ) ) ;
#72 = EDGE_LOOP ( 'NONE', ( #287, #159 ) ) ;
#73 = CARTESIAN_POINT ( 'NONE',  ( -1.149999999999999911, 1.408343819019456028E-16, 1.700000000000007061 ) ) ;
#74 = ORIENTED_EDGE ( 'NONE', *, *, #55, .T. ) ;
#75 = APPROVAL ( #57, 'NEURÈENÝ' ) ;
#76 = AXIS2_PLACEMENT_3D ( 'NONE', #274, #30, #123 ) ;
#77 = DIRECTION ( 'NONE',  ( 1.000000000000000000, 0.000000000000000000, 0.000000000000000000 ) ) ;
#78 = ORIENTED_EDGE ( 'NONE', *, *, #101, .F. ) ;
#79 = APPLICATION_CONTEXT ( 'configuration controlled 3d designs of mechanical parts and assemblies' ) ;
#80 = PERSON_AND_ORGANIZATION ( #160, #4 ) ;
#81 = ADVANCED_FACE ( 'NONE', ( #154 ), #203, .T. ) ;
#82 = APPROVAL_PERSON_ORGANIZATION ( #291, #58, #125 ) ;
#83 =( NAMED_UNIT ( * ) SI_UNIT ( $, .STERADIAN. ) SOLID_ANGLE_UNIT ( ) );
#84 = SHAPE_DEFINITION_REPRESENTATION ( #152, #38 ) ;
#85 = EDGE_CURVE ( 'NONE', #96, #61, #102, .T. ) ;
#86 = AXIS2_PLACEMENT_3D ( 'NONE', #234, #183, #69 ) ;
#87 = ADVANCED_FACE ( 'NONE', ( #231 ), #181, .F. ) ;
#88 = CARTESIAN_POINT ( 'NONE',  ( 0.9499999999999999556, 1.163414459189985682E-16, 161.5000000000000000 ) ) ;
#89 = CIRCLE ( 'NONE', #67, 2.000000000000000000 ) ;
#90 = ORIENTED_EDGE ( 'NONE', *, *, #235, .T. ) ;
#91 = ORIENTED_EDGE ( 'NONE', *, *, #295, .F. ) ;
#92 = DIRECTION ( 'NONE',  ( 0.000000000000000000, 0.000000000000000000, 1.000000000000000000 ) ) ;
#93 = ORIENTED_EDGE ( 'NONE', *, *, #210, .T. ) ;
#94 = DESIGN_CONTEXT ( 'detailed design', #147, 'design' ) ;
#95 = EDGE_CURVE ( 'NONE', #117, #2, #224, .T. ) ;
#96 = VERTEX_POINT ( 'NONE', #65 ) ;
#97 = LINE ( 'NONE', #261, #246 ) ;
#98 = CARTESIAN_POINT ( 'NONE',  ( -0.9499999999999999556, 0.000000000000000000, 161.5000000000000000 ) ) ;
#99 = CIRCLE ( 'NONE', #250, 0.2000000000000000944 ) ;
#100 = APPROVAL_STATUS ( 'not_yet_approved' ) ;
#101 = EDGE_CURVE ( 'NONE', #156, #66, #99, .T. ) ;
#102 = LINE ( 'NONE', #207, #146 ) ;
#103 = CARTESIAN_POINT ( 'NONE',  ( 0.000000000000000000, 0.000000000000000000, 1.500000000000000000 ) ) ;
#104 = CYLINDRICAL_SURFACE ( 'NONE', #167, 0.9499999999999999556 ) ;
#105 = DIRECTION ( 'NONE',  ( -1.000000000000000000, 0.000000000000000000, 0.000000000000000000 ) ) ;
#106 = APPROVAL_DATE_TIME ( #12, #75 ) ;
#107 = MECHANICAL_CONTEXT ( 'NONE', #79, 'mechanical' ) ;
#108 = DIRECTION ( 'NONE',  ( 0.000000000000000000, 0.000000000000000000, 1.000000000000000000 ) ) ;
#109 = EDGE_CURVE ( 'NONE', #215, #66, #56, .T. ) ;
#110 = AXIS2_PLACEMENT_3D ( 'NONE', #73, #122, #5 ) ;
#111 = PERSON_AND_ORGANIZATION_ROLE ( 'creator' ) ;
#112 = CARTESIAN_POINT ( 'NONE',  ( 0.000000000000000000, 0.000000000000000000, 1.700000000000007061 ) ) ;
#113 = DIRECTION ( 'NONE',  ( 1.000000000000000000, 0.000000000000000000, 0.000000000000000000 ) ) ;
#114 = ORIENTED_EDGE ( 'NONE', *, *, #3, .F. ) ;
#115 = AXIS2_PLACEMENT_3D ( 'NONE', #187, #155, #252 ) ;
#116 = EDGE_CURVE ( 'NONE', #63, #156, #70, .T. ) ;
#117 = VERTEX_POINT ( 'NONE', #88 ) ;
#118 = CARTESIAN_POINT ( 'NONE',  ( 0.000000000000000000, 0.000000000000000000, 1.500000000000000000 ) ) ;
#119 = ORIENTED_EDGE ( 'NONE', *, *, #95, .F. ) ;
#120 = PRODUCT_RELATED_PRODUCT_CATEGORY ( 'detail', '', ( #130 ) ) ;
#121 = LOCAL_TIME ( 12, 21, 8.000000000000000000, #11 ) ;
#122 = DIRECTION ( 'NONE',  ( 1.224646799147353207E-16, 1.000000000000000000, -0.000000000000000000 ) ) ;
#123 = DIRECTION ( 'NONE',  ( -1.000000000000000000, 0.000000000000000000, 0.000000000000000000 ) ) ;
#124 = AXIS2_PLACEMENT_3D ( 'NONE', #173, #35, #31 ) ;
#125 = APPROVAL_ROLE ( '' ) ;
#126 = CARTESIAN_POINT ( 'NONE',  ( 2.000000000000000000, 2.449293598294706414E-16, 0.000000000000000000 ) ) ;
#127 = APPROVAL_ROLE ( '' ) ;
#128 = CC_DESIGN_PERSON_AND_ORGANIZATION_ASSIGNMENT ( #29, #218, ( #130 ) ) ;
#129 = AXIS2_PLACEMENT_3D ( 'NONE', #44, #185, #236 ) ;
#130 = PRODUCT ( 'fb85', 'fb85', '', ( #107 ) ) ;
#131 = ADVANCED_FACE ( 'NONE', ( #20 ), #300, .T. ) ;
#132 = ORIENTED_EDGE ( 'NONE', *, *, #85, .T. ) ;
#133 = FACE_OUTER_BOUND ( 'NONE', #163, .T. ) ;
#134 =( GEOMETRIC_REPRESENTATION_CONTEXT ( 3 ) GLOBAL_UNCERTAINTY_ASSIGNED_CONTEXT ( ( #139 ) ) GLOBAL_UNIT_ASSIGNED_CONTEXT ( ( #220, #249, #83 ) ) REPRESENTATION_CONTEXT ( 'NONE', 'WORKASPACE' ) );
#135 = CARTESIAN_POINT ( 'NONE',  ( 1.149999999999999911, 0.000000000000000000, 1.700000000000007061 ) ) ;
#136 = PLANE ( 'NONE',  #86 ) ;
#137 = EDGE_LOOP ( 'NONE', ( #27, #263, #171, #217 ) ) ;
#138 = AXIS2_PLACEMENT_3D ( 'NONE', #269, #243, #77 ) ;
#139 = UNCERTAINTY_MEASURE_WITH_UNIT (LENGTH_MEASURE( 1.000000000000000082E-05 ), #220, 'distance_accuracy_value', 'NONE');
#140 = ORIENTED_EDGE ( 'NONE', *, *, #109, .T. ) ;
#141 = CARTESIAN_POINT ( 'NONE',  ( 0.000000000000000000, 0.000000000000000000, 1.700000000000007061 ) ) ;
#142 = CARTESIAN_POINT ( 'NONE',  ( 0.000000000000000000, 0.000000000000000000, 1.700000000000007061 ) ) ;
#143 = ORIENTED_EDGE ( 'NONE', *, *, #295, .T. ) ;
#144 = PLANE ( 'NONE',  #33 ) ;
#145 = CC_DESIGN_DATE_AND_TIME_ASSIGNMENT ( #19, #157, ( #293 ) ) ;
#146 = VECTOR ( 'NONE', #306, 1000.000000000000000 ) ;
#147 = APPLICATION_CONTEXT ( 'configuration controlled 3d designs of mechanical parts and assemblies' ) ;
#148 = PERSON_AND_ORGANIZATION ( #160, #4 ) ;
#149 = ADVANCED_FACE ( 'NONE', ( #133 ), #262, .F. ) ;
#150 = CARTESIAN_POINT ( 'NONE',  ( 0.000000000000000000, 0.000000000000000000, 1.500000000000000000 ) ) ;
#151 = CARTESIAN_POINT ( 'NONE',  ( -0.9499999999999999556, 0.000000000000000000, 1.700000000000007061 ) ) ;
#152 = PRODUCT_DEFINITION_SHAPE ( 'NONE', 'NONE',  #260 ) ;
#153 = APPROVAL_STATUS ( 'not_yet_approved' ) ;
#154 = FACE_OUTER_BOUND ( 'NONE', #137, .T. ) ;
#155 = DIRECTION ( 'NONE',  ( -0.000000000000000000, -0.000000000000000000, -1.000000000000000000 ) ) ;
#156 = VERTEX_POINT ( 'NONE', #229 ) ;
#157 = DATE_TIME_ROLE ( 'classification_date' ) ;
#158 = DIRECTION ( 'NONE',  ( 0.000000000000000000, 0.000000000000000000, -1.000000000000000000 ) ) ;
#159 = ORIENTED_EDGE ( 'NONE', *, *, #204, .F. ) ;
#160 = PERSON ( 'NEURÈENÝ', 'NEURÈENÝ', 'NEURÈENÝ', ('NEURÈENÝ'), ('NEURÈENÝ'), ('NEURÈENÝ') ) ;
#161 = PERSON_AND_ORGANIZATION_ROLE ( 'design_supplier' ) ;
#162 = AXIS2_PLACEMENT_3D ( 'NONE', #297, #177, #272 ) ;
#163 = EDGE_LOOP ( 'NONE', ( #240, #114, #39, #54 ) ) ;
#164 = DIRECTION ( 'NONE',  ( 1.000000000000000000, 0.000000000000000000, 0.000000000000000000 ) ) ;
#165 = ADVANCED_FACE ( 'NONE', ( #68 ), #136, .T. ) ;
#166 = VERTEX_POINT ( 'NONE', #237 ) ;
#167 = AXIS2_PLACEMENT_3D ( 'NONE', #32, #290, #292 ) ;
#168 = DIRECTION ( 'NONE',  ( 1.000000000000000000, 0.000000000000000000, 0.000000000000000000 ) ) ;
#169 = CIRCLE ( 'NONE', #110, 0.2000000000000000944 ) ;
#170 = CC_DESIGN_APPROVAL ( #199, ( #293 ) ) ;
#171 = ORIENTED_EDGE ( 'NONE', *, *, #43, .T. ) ;
#172 = CC_DESIGN_PERSON_AND_ORGANIZATION_ASSIGNMENT ( #277, #161, ( #216 ) ) ;
#173 = CARTESIAN_POINT ( 'NONE',  ( 0.000000000000000000, 0.000000000000000000, 0.000000000000000000 ) ) ;
#174 = CC_DESIGN_APPROVAL ( #58, ( #260 ) ) ;
#175 = FACE_OUTER_BOUND ( 'NONE', #45, .T. ) ;
#176 = CALENDAR_DATE ( 2022, 20, 6 ) ;
#177 = DIRECTION ( 'NONE',  ( 0.000000000000000000, 0.000000000000000000, 1.000000000000000000 ) ) ;
#178 = PERSON_AND_ORGANIZATION ( #160, #4 ) ;
#179 = ADVANCED_FACE ( 'NONE', ( #251 ), #265, .F. ) ;
#180 = ORIENTED_EDGE ( 'NONE', *, *, #95, .T. ) ;
#181 = PLANE ( 'NONE',  #129 ) ;
#182 = PERSON_AND_ORGANIZATION_ROLE ( 'classification_officer' ) ;
#183 = DIRECTION ( 'NONE',  ( 0.000000000000000000, 0.000000000000000000, 1.000000000000000000 ) ) ;
#184 = EDGE_CURVE ( 'NONE', #232, #61, #89, .T. ) ;
#185 = DIRECTION ( 'NONE',  ( 0.000000000000000000, 0.000000000000000000, 1.000000000000000000 ) ) ;
#186 = AXIS2_PLACEMENT_3D ( 'NONE', #141, #288, #241 ) ;
#187 = CARTESIAN_POINT ( 'NONE',  ( 0.000000000000000000, 0.000000000000000000, 1.500000000000000000 ) ) ;
#188 = CARTESIAN_POINT ( 'NONE',  ( 0.9499999999999999556, 1.163414459189985682E-16, 161.5000000000000000 ) ) ;
#189 = CC_DESIGN_PERSON_AND_ORGANIZATION_ASSIGNMENT ( #148, #296, ( #260 ) ) ;
#190 = EDGE_LOOP ( 'NONE', ( #280, #180 ) ) ;
#191 = AXIS2_PLACEMENT_3D ( 'NONE', #205, #42, #113 ) ;
#192 = DIRECTION ( 'NONE',  ( 0.000000000000000000, 0.000000000000000000, 1.000000000000000000 ) ) ;
#193 = ORIENTED_EDGE ( 'NONE', *, *, #116, .T. ) ;
#194 = EDGE_CURVE ( 'NONE', #2, #63, #97, .T. ) ;
#195 = CARTESIAN_POINT ( 'NONE',  ( -2.000000000000000000, 0.000000000000000000, 0.000000000000000000 ) ) ;
#196 = CIRCLE ( 'NONE', #162, 2.000000000000000000 ) ;
#197 = COORDINATED_UNIVERSAL_TIME_OFFSET ( 1, 0, .AHEAD. ) ;
#198 = CALENDAR_DATE ( 2022, 20, 6 ) ;
#199 = APPROVAL ( #153, 'NEURÈENÝ' ) ;
#200 = APPLICATION_PROTOCOL_DEFINITION ( 'international standard', 'config_control_design', 1994, #79 ) ;
#201 = CIRCLE ( 'NONE', #219, 2.000000000000000000 ) ;
#202 = DIRECTION ( 'NONE',  ( -0.000000000000000000, -0.000000000000000000, -1.000000000000000000 ) ) ;
#203 = CYLINDRICAL_SURFACE ( 'NONE', #76, 2.000000000000000000 ) ;
#204 = EDGE_CURVE ( 'NONE', #61, #232, #201, .T. ) ;
#205 = CARTESIAN_POINT ( 'NONE',  ( 0.000000000000000000, 0.000000000000000000, 161.5000000000000000 ) ) ;
#206 = AXIS2_PLACEMENT_3D ( 'NONE', #112, #282, #303 ) ;
#207 = CARTESIAN_POINT ( 'NONE',  ( 2.000000000000000000, 2.449293598294706414E-16, 1.500000000000000000 ) ) ;
#208 = ORIENTED_EDGE ( 'NONE', *, *, #194, .T. ) ;
#209 = SECURITY_CLASSIFICATION_LEVEL ( 'unclassified' ) ;
#210 = EDGE_CURVE ( 'NONE', #166, #96, #305, .T. ) ;
#211 = CC_DESIGN_APPROVAL ( #75, ( #216 ) ) ;
#212 = DIRECTION ( 'NONE',  ( 0.000000000000000000, 0.000000000000000000, 1.000000000000000000 ) ) ;
#213 = EDGE_LOOP ( 'NONE', ( #259, #18, #91, #78 ) ) ;
#214 = DIRECTION ( 'NONE',  ( 1.000000000000000000, 0.000000000000000000, 0.000000000000000000 ) ) ;
#215 = VERTEX_POINT ( 'NONE', #286 ) ;
#216 = PRODUCT_DEFINITION_FORMATION_WITH_SPECIFIED_SOURCE ( 'LIBOVOLNÝ', '', #130, .NOT_KNOWN. ) ;
#217 = ORIENTED_EDGE ( 'NONE', *, *, #184, .T. ) ;
#218 = PERSON_AND_ORGANIZATION_ROLE ( 'design_owner' ) ;
#219 = AXIS2_PLACEMENT_3D ( 'NONE', #71, #212, #48 ) ;
#220 =( LENGTH_UNIT ( ) NAMED_UNIT ( * ) SI_UNIT ( .MILLI., .METRE. ) );
#221 = CARTESIAN_POINT ( 'NONE',  ( -2.000000000000000000, 0.000000000000000000, 1.500000000000000000 ) ) ;
#222 = APPROVAL_DATE_TIME ( #270, #58 ) ;
#223 = CALENDAR_DATE ( 2022, 20, 6 ) ;
#224 = CIRCLE ( 'NONE', #191, 0.9499999999999999556 ) ;
#225 = CC_DESIGN_SECURITY_CLASSIFICATION ( #293, ( #216 ) ) ;
#226 = MANIFOLD_SOLID_BREP ( 'Zaoblit1', #13 ) ;
#227 = DIRECTION ( 'NONE',  ( 0.000000000000000000, 0.000000000000000000, 1.000000000000000000 ) ) ;
#228 = EDGE_CURVE ( 'NONE', #63, #215, #169, .T. ) ;
#229 = CARTESIAN_POINT ( 'NONE',  ( 0.9499999999999999556, 1.163414459189985682E-16, 1.700000000000007061 ) ) ;
#230 = APPROVAL_DATE_TIME ( #276, #199 ) ;
#231 = FACE_OUTER_BOUND ( 'NONE', #72, .T. ) ;
#232 = VERTEX_POINT ( 'NONE', #195 ) ;
#233 = AXIS2_PLACEMENT_3D ( 'NONE', #10, #34, #53 ) ;
#234 = CARTESIAN_POINT ( 'NONE',  ( 0.000000000000000000, 0.000000000000000000, 161.5000000000000000 ) ) ;
#235 = EDGE_CURVE ( 'NONE', #117, #156, #1, .T. ) ;
#236 = DIRECTION ( 'NONE',  ( 1.000000000000000000, 0.000000000000000000, -0.000000000000000000 ) ) ;
#237 = CARTESIAN_POINT ( 'NONE',  ( -2.000000000000000000, 0.000000000000000000, 1.500000000000000000 ) ) ;
#238 = DIRECTION ( 'NONE',  ( -0.000000000000000000, -0.000000000000000000, -1.000000000000000000 ) ) ;
#239 = CIRCLE ( 'NONE', #138, 0.9499999999999999556 ) ;
#240 = ORIENTED_EDGE ( 'NONE', *, *, #228, .F. ) ;
#241 = DIRECTION ( 'NONE',  ( 1.000000000000000000, 0.000000000000000000, 0.000000000000000000 ) ) ;
#242 = DIRECTION ( 'NONE',  ( 1.000000000000000000, 0.000000000000000000, 0.000000000000000000 ) ) ;
#243 = DIRECTION ( 'NONE',  ( 0.000000000000000000, 0.000000000000000000, 1.000000000000000000 ) ) ;
#244 = ORIENTED_EDGE ( 'NONE', *, *, #235, .F. ) ;
#245 = DIRECTION ( 'NONE',  ( 1.000000000000000000, 0.000000000000000000, -0.000000000000000000 ) ) ;
#246 = VECTOR ( 'NONE', #238, 1000.000000000000000 ) ;
#247 = COORDINATED_UNIVERSAL_TIME_OFFSET ( 1, 0, .AHEAD. ) ;
#248 = FACE_OUTER_BOUND ( 'NONE', #24, .T. ) ;
#249 =( NAMED_UNIT ( * ) PLANE_ANGLE_UNIT ( ) SI_UNIT ( $, .RADIAN. ) );
#250 = AXIS2_PLACEMENT_3D ( 'NONE', #135, #60, #158 ) ;
#251 = FACE_OUTER_BOUND ( 'NONE', #213, .T. ) ;
#252 = DIRECTION ( 'NONE',  ( 1.000000000000000000, 0.000000000000000000, 0.000000000000000000 ) ) ;
#253 = CC_DESIGN_PERSON_AND_ORGANIZATION_ASSIGNMENT ( #178, #111, ( #216 ) ) ;
#254 = CARTESIAN_POINT ( 'NONE',  ( 0.000000000000000000, 0.000000000000000000, 161.5000000000000000 ) ) ;
#255 = APPROVAL_PERSON_ORGANIZATION ( #80, #75, #127 ) ;
#256 = ORIENTED_EDGE ( 'NONE', *, *, #55, .F. ) ;
#257 = DIRECTION ( 'NONE',  ( -0.000000000000000000, -0.000000000000000000, -1.000000000000000000 ) ) ;
#258 = DIRECTION ( 'NONE',  ( 0.000000000000000000, 0.000000000000000000, 1.000000000000000000 ) ) ;
#259 = ORIENTED_EDGE ( 'NONE', *, *, #116, .F. ) ;
#260 = PRODUCT_DEFINITION ( 'NEZNÁMÝ', '', #216, #94 ) ;
#261 = CARTESIAN_POINT ( 'NONE',  ( -0.9499999999999999556, 0.000000000000000000, 161.5000000000000000 ) ) ;
#262 = TOROIDAL_SURFACE ( 'NONE', #206, 1.149999999999999911, 0.2000000000000000111 ) ;
#263 = ORIENTED_EDGE ( 'NONE', *, *, #210, .F. ) ;
#264 = EDGE_LOOP ( 'NONE', ( #143, #140 ) ) ;
#265 = TOROIDAL_SURFACE ( 'NONE', #59, 1.149999999999999911, 0.2000000000000000111 ) ;
#266 = FACE_OUTER_BOUND ( 'NONE', #307, .T. ) ;
#267 = DIRECTION ( 'NONE',  ( -0.000000000000000000, -0.000000000000000000, -1.000000000000000000 ) ) ;
#268 = LINE ( 'NONE', #221, #50 ) ;
#269 = CARTESIAN_POINT ( 'NONE',  ( 0.000000000000000000, 0.000000000000000000, 161.5000000000000000 ) ) ;
#270 = DATE_AND_TIME ( #198, #37 ) ;
#271 = CYLINDRICAL_SURFACE ( 'NONE', #9, 2.000000000000000000 ) ;
#272 = DIRECTION ( 'NONE',  ( 1.000000000000000000, 0.000000000000000000, 0.000000000000000000 ) ) ;
#273 = CALENDAR_DATE ( 2022, 20, 6 ) ;
#274 = CARTESIAN_POINT ( 'NONE',  ( 0.000000000000000000, 0.000000000000000000, 1.500000000000000000 ) ) ;
#275 = AXIS2_PLACEMENT_3D ( 'NONE', #118, #192, #214 ) ;
#276 = DATE_AND_TIME ( #273, #51 ) ;
#277 = PERSON_AND_ORGANIZATION ( #160, #4 ) ;
#278 = ORIENTED_EDGE ( 'NONE', *, *, #43, .F. ) ;
#279 = COORDINATED_UNIVERSAL_TIME_OFFSET ( 1, 0, .AHEAD. ) ;
#280 = ORIENTED_EDGE ( 'NONE', *, *, #285, .T. ) ;
#281 = CIRCLE ( 'NONE', #186, 0.9499999999999999556 ) ;
#282 = DIRECTION ( 'NONE',  ( 0.000000000000000000, 0.000000000000000000, 1.000000000000000000 ) ) ;
#283 = CC_DESIGN_DATE_AND_TIME_ASSIGNMENT ( #36, #14, ( #260 ) ) ;
#284 = CIRCLE ( 'NONE', #233, 1.149999999999999911 ) ;
#285 = EDGE_CURVE ( 'NONE', #2, #117, #239, .T. ) ;
#286 = CARTESIAN_POINT ( 'NONE',  ( -1.149999999999999911, 1.408343819019456028E-16, 1.500000000000003553 ) ) ;
#287 = ORIENTED_EDGE ( 'NONE', *, *, #184, .F. ) ;
#288 = DIRECTION ( 'NONE',  ( 0.000000000000000000, 0.000000000000000000, 1.000000000000000000 ) ) ;
#289 = AXIS2_PLACEMENT_3D ( 'NONE', #254, #257, #40 ) ;
#290 = DIRECTION ( 'NONE',  ( -0.000000000000000000, -0.000000000000000000, -1.000000000000000000 ) ) ;
#291 = PERSON_AND_ORGANIZATION ( #160, #4 ) ;
#292 = DIRECTION ( 'NONE',  ( -1.000000000000000000, 0.000000000000000000, 0.000000000000000000 ) ) ;
#293 = SECURITY_CLASSIFICATION ( '', '', #209 ) ;
#294 = APPROVAL_PERSON_ORGANIZATION ( #64, #199, #298 ) ;
#295 = EDGE_CURVE ( 'NONE', #66, #215, #284, .T. ) ;
#296 = PERSON_AND_ORGANIZATION_ROLE ( 'creator' ) ;
#297 = CARTESIAN_POINT ( 'NONE',  ( 0.000000000000000000, 0.000000000000000000, 1.500000000000000000 ) ) ;
#298 = APPROVAL_ROLE ( '' ) ;
#299 = ORIENTED_EDGE ( 'NONE', *, *, #285, .F. ) ;
#300 = CYLINDRICAL_SURFACE ( 'NONE', #289, 0.9499999999999999556 ) ;
#301 = EDGE_LOOP ( 'NONE', ( #119, #90, #23, #47 ) ) ;
#302 = COORDINATED_UNIVERSAL_TIME_OFFSET ( 1, 0, .AHEAD. ) ;
#303 = DIRECTION ( 'NONE',  ( 1.000000000000000000, 0.000000000000000000, 0.000000000000000000 ) ) ;
#304 = ADVANCED_FACE ( 'NONE', ( #175 ), #271, .T. ) ;
#305 = CIRCLE ( 'NONE', #275, 2.000000000000000000 ) ;
#306 = DIRECTION ( 'NONE',  ( -0.000000000000000000, -0.000000000000000000, -1.000000000000000000 ) ) ;
#307 = EDGE_LOOP ( 'NONE', ( #93, #74 ) ) ;
ENDSEC;
END-ISO-10303-21;
