ISO-10303-21;
HEADER;
FILE_DESCRIPTION (( 'STEP AP203' ),
    '1' );
FILE_NAME ('1571.STEP',
    '2022-06-20T10:19:46',
    ( '' ),
    ( '' ),
    'SwSTEP 2.0',
    'SolidWorks 2019',
    '' );
FILE_SCHEMA (( 'CONFIG_CONTROL_DESIGN' ));
ENDSEC;

DATA;
#1 = DIRECTION ( 'NONE',  ( 0.000000000000000000, 0.000000000000000000, 1.000000000000000000 ) ) ;
#2 = FACE_BOUND ( 'NONE', #270, .T. ) ;
#3 = CIRCLE ( 'NONE', #292, 1.000000000000000000 ) ;
#4 = CC_DESIGN_APPROVAL ( #87, ( #261 ) ) ;
#5 = AXIS2_PLACEMENT_3D ( 'NONE', #150, #111, #299 ) ;
#6 = DIRECTION ( 'NONE',  ( -1.000000000000000000, 0.000000000000000000, 0.000000000000000000 ) ) ;
#7 = ADVANCED_FACE ( 'NONE', ( #2, #103 ), #60, .T. ) ;
#8 = ORIENTED_EDGE ( 'NONE', *, *, #90, .T. ) ;
#9 = PERSON_AND_ORGANIZATION_ROLE ( 'design_owner' ) ;
#10 = DIRECTION ( 'NONE',  ( -0.000000000000000000, -0.000000000000000000, -1.000000000000000000 ) ) ;
#11 = AXIS2_PLACEMENT_3D ( 'NONE', #294, #250, #296 ) ;
#12 = COORDINATED_UNIVERSAL_TIME_OFFSET ( 1, 0, .AHEAD. ) ;
#13 = AXIS2_PLACEMENT_3D ( 'NONE', #242, #127, #6 ) ;
#14 = EDGE_CURVE ( 'NONE', #64, #188, #280, .T. ) ;
#15 = DATE_AND_TIME ( #135, #160 ) ;
#16 = APPROVAL_ROLE ( '' ) ;
#17 = DIRECTION ( 'NONE',  ( -1.000000000000000000, 0.000000000000000000, 0.000000000000000000 ) ) ;
#18 = DIRECTION ( 'NONE',  ( 0.000000000000000000, -1.000000000000000000, 0.000000000000000000 ) ) ;
#19 = PRODUCT_DEFINITION_SHAPE ( 'NONE', 'NONE',  #261 ) ;
#20 = PERSON_AND_ORGANIZATION_ROLE ( 'creator' ) ;
#21 = AXIS2_PLACEMENT_3D ( 'NONE', #85, #1, #218 ) ;
#22 = APPROVAL_DATE_TIME ( #79, #31 ) ;
#23 = CARTESIAN_POINT ( 'NONE',  ( 0.000000000000000000, 0.000000000000000000, 402.0000000000000000 ) ) ;
#24 = APPROVAL_ROLE ( '' ) ;
#25 = CC_DESIGN_PERSON_AND_ORGANIZATION_ASSIGNMENT ( #91, #271, ( #261 ) ) ;
#26 = CARTESIAN_POINT ( 'NONE',  ( 0.000000000000000000, 0.000000000000000000, 2.000000000000000000 ) ) ;
#27 = EDGE_LOOP ( 'NONE', ( #67, #29, #173, #149 ) ) ;
#28 = MANIFOLD_SOLID_BREP ( 'Zaoblit1', #110 ) ;
#29 = ORIENTED_EDGE ( 'NONE', *, *, #275, .T. ) ;
#30 = DIRECTION ( 'NONE',  ( -0.000000000000000000, -0.000000000000000000, -1.000000000000000000 ) ) ;
#31 = APPROVAL ( #74, 'NEURÈENÝ' ) ;
#32 = CARTESIAN_POINT ( 'NONE',  ( 0.000000000000000000, 0.000000000000000000, 2.000000000000000000 ) ) ;
#33 = DIRECTION ( 'NONE',  ( 0.000000000000000000, 0.000000000000000000, 1.000000000000000000 ) ) ;
#34 = EDGE_LOOP ( 'NONE', ( #77, #216 ) ) ;
#35 = EDGE_CURVE ( 'NONE', #212, #194, #151, .T. ) ;
#36 = VERTEX_POINT ( 'NONE', #206 ) ;
#37 = APPLICATION_CONTEXT ( 'configuration controlled 3d designs of mechanical parts and assemblies' ) ;
#38 = AXIS2_PLACEMENT_3D ( 'NONE', #234, #141, #257 ) ;
#39 = PERSON_AND_ORGANIZATION ( #166, #226 ) ;
#40 = DIRECTION ( 'NONE',  ( 0.000000000000000000, 0.000000000000000000, -1.000000000000000000 ) ) ;
#41 = APPLICATION_PROTOCOL_DEFINITION ( 'international standard', 'config_control_design', 1994, #37 ) ;
#42 = LINE ( 'NONE', #136, #96 ) ;
#43 = AXIS2_PLACEMENT_3D ( 'NONE', #306, #259, #57 ) ;
#44 = AXIS2_PLACEMENT_3D ( 'NONE', #56, #190, #81 ) ;
#45 = PRODUCT ( '1571', '1571', '', ( #134 ) ) ;
#46 = COORDINATED_UNIVERSAL_TIME_OFFSET ( 1, 0, .AHEAD. ) ;
#47 = AXIS2_PLACEMENT_3D ( 'NONE', #26, #75, #193 ) ;
#48 = CARTESIAN_POINT ( 'NONE',  ( 0.000000000000000000, 0.000000000000000000, 402.0000000000000000 ) ) ;
#49 = CC_DESIGN_APPROVAL ( #131, ( #181 ) ) ;
#50 = DIRECTION ( 'NONE',  ( 0.000000000000000000, 0.000000000000000000, 1.000000000000000000 ) ) ;
#51 = DIRECTION ( 'NONE',  ( -0.000000000000000000, -0.000000000000000000, -1.000000000000000000 ) ) ;
#52 = APPLICATION_CONTEXT ( 'configuration controlled 3d designs of mechanical parts and assemblies' ) ;
#53 = DIRECTION ( 'NONE',  ( 1.000000000000000000, 0.000000000000000000, -0.000000000000000000 ) ) ;
#54 = CC_DESIGN_PERSON_AND_ORGANIZATION_ASSIGNMENT ( #39, #9, ( #45 ) ) ;
#55 = PERSON_AND_ORGANIZATION ( #166, #226 ) ;
#56 = CARTESIAN_POINT ( 'NONE',  ( 0.000000000000000000, 0.000000000000000000, 2.199999999999979750 ) ) ;
#57 = DIRECTION ( 'NONE',  ( 1.000000000000000000, 0.000000000000000000, -0.000000000000000000 ) ) ;
#58 = LOCAL_TIME ( 12, 19, 46.00000000000000000, #109 ) ;
#59 = EDGE_CURVE ( 'NONE', #105, #260, #88, .T. ) ;
#60 = PLANE ( 'NONE',  #70 ) ;
#61 = CARTESIAN_POINT ( 'NONE',  ( 1.000000000000000000, 1.224646799147353207E-16, 402.0000000000000000 ) ) ;
#62 = AXIS2_PLACEMENT_3D ( 'NONE', #130, #176, #107 ) ;
#63 = APPROVAL_PERSON_ORGANIZATION ( #92, #131, #273 ) ;
#64 = VERTEX_POINT ( 'NONE', #272 ) ;
#65 = EDGE_CURVE ( 'NONE', #188, #219, #66, .T. ) ;
#66 = CIRCLE ( 'NONE', #252, 0.2000000000000000944 ) ;
#67 = ORIENTED_EDGE ( 'NONE', *, *, #14, .F. ) ;
#68 = CIRCLE ( 'NONE', #101, 0.2000000000000000944 ) ;
#69 = FACE_OUTER_BOUND ( 'NONE', #84, .T. ) ;
#70 = AXIS2_PLACEMENT_3D ( 'NONE', #32, #33, #129 ) ;
#71 = DIRECTION ( 'NONE',  ( 1.000000000000000000, 0.000000000000000000, 0.000000000000000000 ) ) ;
#72 = LOCAL_TIME ( 12, 19, 46.00000000000000000, #12 ) ;
#73 = EDGE_CURVE ( 'NONE', #194, #212, #147, .T. ) ;
#74 = APPROVAL_STATUS ( 'not_yet_approved' ) ;
#75 = DIRECTION ( 'NONE',  ( 0.000000000000000000, 0.000000000000000000, 1.000000000000000000 ) ) ;
#76 = ORIENTED_EDGE ( 'NONE', *, *, #137, .F. ) ;
#77 = ORIENTED_EDGE ( 'NONE', *, *, #170, .T. ) ;
#78 = ADVANCED_FACE ( 'NONE', ( #228 ), #246, .T. ) ;
#79 = DATE_AND_TIME ( #256, #289 ) ;
#80 = LINE ( 'NONE', #171, #211 ) ;
#81 = DIRECTION ( 'NONE',  ( 1.000000000000000000, 0.000000000000000000, 0.000000000000000000 ) ) ;
#82 = FACE_OUTER_BOUND ( 'NONE', #200, .T. ) ;
#83 = LINE ( 'NONE', #201, #97 ) ;
#84 = EDGE_LOOP ( 'NONE', ( #99, #197, #142, #89 ) ) ;
#85 = CARTESIAN_POINT ( 'NONE',  ( 0.000000000000000000, 0.000000000000000000, 2.199999999999979750 ) ) ;
#86 = ORIENTED_EDGE ( 'NONE', *, *, #35, .T. ) ;
#87 = APPROVAL ( #161, 'NEURÈENÝ' ) ;
#88 = CIRCLE ( 'NONE', #287, 1.000000000000000000 ) ;
#89 = ORIENTED_EDGE ( 'NONE', *, *, #251, .F. ) ;
#90 = EDGE_CURVE ( 'NONE', #178, #212, #42, .T. ) ;
#91 = PERSON_AND_ORGANIZATION ( #166, #226 ) ;
#92 = PERSON_AND_ORGANIZATION ( #166, #226 ) ;
#93 = ADVANCED_FACE ( 'NONE', ( #192 ), #266, .F. ) ;
#94 = PERSON_AND_ORGANIZATION ( #166, #226 ) ;
#95 = ORIENTED_EDGE ( 'NONE', *, *, #183, .T. ) ;
#96 = VECTOR ( 'NONE', #51, 1000.000000000000000 ) ;
#97 = VECTOR ( 'NONE', #30, 1000.000000000000000 ) ;
#98 = CARTESIAN_POINT ( 'NONE',  ( -2.000000000000000000, 0.000000000000000000, 0.000000000000000000 ) ) ;
#99 = ORIENTED_EDGE ( 'NONE', *, *, #183, .F. ) ;
#100 = CC_DESIGN_PERSON_AND_ORGANIZATION_ASSIGNMENT ( #278, #167, ( #114 ) ) ;
#101 = AXIS2_PLACEMENT_3D ( 'NONE', #104, #227, #222 ) ;
#102 = LOCAL_TIME ( 12, 19, 46.00000000000000000, #232 ) ;
#103 = FACE_OUTER_BOUND ( 'NONE', #34, .T. ) ;
#104 = CARTESIAN_POINT ( 'NONE',  ( -1.200000000000000178, 1.469576158976823799E-16, 2.199999999999979750 ) ) ;
#105 = VERTEX_POINT ( 'NONE', #143 ) ;
#106 = ORIENTED_EDGE ( 'NONE', *, *, #90, .F. ) ;
#107 = DIRECTION ( 'NONE',  ( 1.000000000000000000, 0.000000000000000000, 0.000000000000000000 ) ) ;
#108 = ORIENTED_EDGE ( 'NONE', *, *, #59, .F. ) ;
#109 = COORDINATED_UNIVERSAL_TIME_OFFSET ( 1, 0, .AHEAD. ) ;
#110 = CLOSED_SHELL ( 'NONE', ( #240, #305, #297, #213, #7, #186, #78, #128, #93 ) ) ;
#111 = DIRECTION ( 'NONE',  ( 0.000000000000000000, 0.000000000000000000, 1.000000000000000000 ) ) ;
#112 = CALENDAR_DATE ( 2022, 20, 6 ) ;
#113 = DIRECTION ( 'NONE',  ( -1.000000000000000000, 0.000000000000000000, 0.000000000000000000 ) ) ;
#114 = SECURITY_CLASSIFICATION ( '', '', #230 ) ;
#115 = APPROVAL_DATE_TIME ( #15, #131 ) ;
#116 = FACE_OUTER_BOUND ( 'NONE', #263, .T. ) ;
#117 = CC_DESIGN_DATE_AND_TIME_ASSIGNMENT ( #187, #140, ( #114 ) ) ;
#118 = AXIS2_PLACEMENT_3D ( 'NONE', #265, #238, #262 ) ;
#119 = COORDINATED_UNIVERSAL_TIME_OFFSET ( 1, 0, .AHEAD. ) ;
#120 = EDGE_CURVE ( 'NONE', #260, #188, #80, .T. ) ;
#121 = DIRECTION ( 'NONE',  ( -0.000000000000000000, -0.000000000000000000, -1.000000000000000000 ) ) ;
#122 = CARTESIAN_POINT ( 'NONE',  ( 2.000000000000000000, 2.449293598294706414E-16, 2.000000000000000000 ) ) ;
#123 = DIRECTION ( 'NONE',  ( -0.000000000000000000, -0.000000000000000000, -1.000000000000000000 ) ) ;
#124 = ORIENTED_EDGE ( 'NONE', *, *, #73, .T. ) ;
#125 = UNCERTAINTY_MEASURE_WITH_UNIT (LENGTH_MEASURE( 1.000000000000000082E-05 ), #179, 'distance_accuracy_value', 'NONE');
#126 = ORIENTED_EDGE ( 'NONE', *, *, #65, .T. ) ;
#127 = DIRECTION ( 'NONE',  ( -0.000000000000000000, -0.000000000000000000, -1.000000000000000000 ) ) ;
#128 = ADVANCED_FACE ( 'NONE', ( #82 ), #303, .T. ) ;
#129 = DIRECTION ( 'NONE',  ( 1.000000000000000000, 0.000000000000000000, -0.000000000000000000 ) ) ;
#130 = CARTESIAN_POINT ( 'NONE',  ( 0.000000000000000000, 0.000000000000000000, 2.000000000000000000 ) ) ;
#131 = APPROVAL ( #182, 'NEURÈENÝ' ) ;
#132 = CYLINDRICAL_SURFACE ( 'NONE', #180, 2.000000000000000000 ) ;
#133 = CARTESIAN_POINT ( 'NONE',  ( 0.000000000000000000, 0.000000000000000000, 402.0000000000000000 ) ) ;
#134 = MECHANICAL_CONTEXT ( 'NONE', #37, 'mechanical' ) ;
#135 = CALENDAR_DATE ( 2022, 20, 6 ) ;
#136 = CARTESIAN_POINT ( 'NONE',  ( -2.000000000000000000, 0.000000000000000000, 2.000000000000000000 ) ) ;
#137 = EDGE_CURVE ( 'NONE', #174, #194, #236, .T. ) ;
#138 = DIRECTION ( 'NONE',  ( -1.000000000000000000, 0.000000000000000000, 0.000000000000000000 ) ) ;
#139 = ORIENTED_EDGE ( 'NONE', *, *, #145, .F. ) ;
#140 = DATE_TIME_ROLE ( 'classification_date' ) ;
#141 = DIRECTION ( 'NONE',  ( -0.000000000000000000, -0.000000000000000000, -1.000000000000000000 ) ) ;
#142 = ORIENTED_EDGE ( 'NONE', *, *, #269, .T. ) ;
#143 = CARTESIAN_POINT ( 'NONE',  ( -1.000000000000000000, 0.000000000000000000, 402.0000000000000000 ) ) ;
#144 = PERSON_AND_ORGANIZATION_ROLE ( 'design_supplier' ) ;
#145 = EDGE_CURVE ( 'NONE', #36, #219, #172, .T. ) ;
#146 = DIRECTION ( 'NONE',  ( -0.000000000000000000, -0.000000000000000000, -1.000000000000000000 ) ) ;
#147 = CIRCLE ( 'NONE', #11, 2.000000000000000000 ) ;
#148 = AXIS2_PLACEMENT_3D ( 'NONE', #231, #121, #189 ) ;
#149 = ORIENTED_EDGE ( 'NONE', *, *, #65, .F. ) ;
#150 = CARTESIAN_POINT ( 'NONE',  ( 0.000000000000000000, 0.000000000000000000, 2.199999999999979750 ) ) ;
#151 = CIRCLE ( 'NONE', #175, 2.000000000000000000 ) ;
#152 = FACE_OUTER_BOUND ( 'NONE', #285, .T. ) ;
#153 = ORIENTED_EDGE ( 'NONE', *, *, #137, .T. ) ;
#154 = CC_DESIGN_PERSON_AND_ORGANIZATION_ASSIGNMENT ( #55, #144, ( #181 ) ) ;
#155 = CIRCLE ( 'NONE', #21, 1.000000000000000000 ) ;
#156 = ORIENTED_EDGE ( 'NONE', *, *, #35, .F. ) ;
#157 = DIRECTION ( 'NONE',  ( -0.000000000000000000, -0.000000000000000000, -1.000000000000000000 ) ) ;
#158 = AXIS2_PLACEMENT_3D ( 'NONE', #133, #10, #113 ) ;
#159 = DIRECTION ( 'NONE',  ( 1.000000000000000000, 0.000000000000000000, 0.000000000000000000 ) ) ;
#160 = LOCAL_TIME ( 12, 19, 46.00000000000000000, #46 ) ;
#161 = APPROVAL_STATUS ( 'not_yet_approved' ) ;
#162 = CARTESIAN_POINT ( 'NONE',  ( 1.200000000000000178, 0.000000000000000000, 2.199999999999979750 ) ) ;
#163 = DIRECTION ( 'NONE',  ( 1.000000000000000000, 0.000000000000000000, 0.000000000000000000 ) ) ;
#164 = CARTESIAN_POINT ( 'NONE',  ( 0.000000000000000000, 0.000000000000000000, 0.000000000000000000 ) ) ;
#165 = EDGE_LOOP ( 'NONE', ( #221, #108, #290, #237 ) ) ;
#166 = PERSON ( 'NEURÈENÝ', 'NEURÈENÝ', 'NEURÈENÝ', ('NEURÈENÝ'), ('NEURÈENÝ'), ('NEURÈENÝ') ) ;
#167 = PERSON_AND_ORGANIZATION_ROLE ( 'classification_officer' ) ;
#168 = CARTESIAN_POINT ( 'NONE',  ( 2.000000000000000000, 2.449293598294706414E-16, 2.000000000000000000 ) ) ;
#169 = PERSON_AND_ORGANIZATION ( #166, #226 ) ;
#170 = EDGE_CURVE ( 'NONE', #178, #174, #207, .T. ) ;
#171 = CARTESIAN_POINT ( 'NONE',  ( 1.000000000000000000, 1.224646799147353207E-16, 402.0000000000000000 ) ) ;
#172 = CIRCLE ( 'NONE', #38, 1.200000000000000178 ) ;
#173 = ORIENTED_EDGE ( 'NONE', *, *, #191, .F. ) ;
#174 = VERTEX_POINT ( 'NONE', #122 ) ;
#175 = AXIS2_PLACEMENT_3D ( 'NONE', #185, #224, #159 ) ;
#176 = DIRECTION ( 'NONE',  ( 0.000000000000000000, 0.000000000000000000, 1.000000000000000000 ) ) ;
#177 =( NAMED_UNIT ( * ) PLANE_ANGLE_UNIT ( ) SI_UNIT ( $, .RADIAN. ) );
#178 = VERTEX_POINT ( 'NONE', #284 ) ;
#179 =( LENGTH_UNIT ( ) NAMED_UNIT ( * ) SI_UNIT ( .MILLI., .METRE. ) );
#180 = AXIS2_PLACEMENT_3D ( 'NONE', #298, #157, #138 ) ;
#181 = PRODUCT_DEFINITION_FORMATION_WITH_SPECIFIED_SOURCE ( 'LIBOVOLNÝ', '', #45, .NOT_KNOWN. ) ;
#182 = APPROVAL_STATUS ( 'not_yet_approved' ) ;
#183 = EDGE_CURVE ( 'NONE', #260, #105, #3, .T. ) ;
#184 = PERSON_AND_ORGANIZATION ( #166, #226 ) ;
#185 = CARTESIAN_POINT ( 'NONE',  ( 0.000000000000000000, 0.000000000000000000, 0.000000000000000000 ) ) ;
#186 = ADVANCED_FACE ( 'NONE', ( #209 ), #301, .F. ) ;
#187 = DATE_AND_TIME ( #283, #102 ) ;
#188 = VERTEX_POINT ( 'NONE', #233 ) ;
#189 = DIRECTION ( 'NONE',  ( 1.000000000000000000, 0.000000000000000000, 0.000000000000000000 ) ) ;
#190 = DIRECTION ( 'NONE',  ( 0.000000000000000000, 0.000000000000000000, 1.000000000000000000 ) ) ;
#191 = EDGE_CURVE ( 'NONE', #219, #36, #282, .T. ) ;
#192 = FACE_OUTER_BOUND ( 'NONE', #214, .T. ) ;
#193 = DIRECTION ( 'NONE',  ( 1.000000000000000000, 0.000000000000000000, 0.000000000000000000 ) ) ;
#194 = VERTEX_POINT ( 'NONE', #210 ) ;
#195 = APPROVAL_PERSON_ORGANIZATION ( #184, #87, #16 ) ;
#196 = CARTESIAN_POINT ( 'NONE',  ( 1.200000000000000178, 0.000000000000000000, 1.999999999999989564 ) ) ;
#197 = ORIENTED_EDGE ( 'NONE', *, *, #120, .T. ) ;
#198 = VECTOR ( 'NONE', #146, 1000.000000000000000 ) ;
#199 = FACE_OUTER_BOUND ( 'NONE', #27, .T. ) ;
#200 = EDGE_LOOP ( 'NONE', ( #288, #95 ) ) ;
#201 = CARTESIAN_POINT ( 'NONE',  ( -1.000000000000000000, 0.000000000000000000, 402.0000000000000000 ) ) ;
#202 = DATE_AND_TIME ( #205, #58 ) ;
#203 = DATE_AND_TIME ( #112, #72 ) ;
#204 =( GEOMETRIC_REPRESENTATION_CONTEXT ( 3 ) GLOBAL_UNCERTAINTY_ASSIGNED_CONTEXT ( ( #125 ) ) GLOBAL_UNIT_ASSIGNED_CONTEXT ( ( #179, #177, #247 ) ) REPRESENTATION_CONTEXT ( 'NONE', 'WORKASPACE' ) );
#205 = CALENDAR_DATE ( 2022, 20, 6 ) ;
#206 = CARTESIAN_POINT ( 'NONE',  ( -1.200000000000000178, 1.469576158976823799E-16, 1.999999999999989564 ) ) ;
#207 = CIRCLE ( 'NONE', #47, 2.000000000000000000 ) ;
#208 = CC_DESIGN_DATE_AND_TIME_ASSIGNMENT ( #203, #293, ( #261 ) ) ;
#209 = FACE_OUTER_BOUND ( 'NONE', #258, .T. ) ;
#210 = CARTESIAN_POINT ( 'NONE',  ( 2.000000000000000000, 2.449293598294706414E-16, 0.000000000000000000 ) ) ;
#211 = VECTOR ( 'NONE', #123, 1000.000000000000000 ) ;
#212 = VERTEX_POINT ( 'NONE', #98 ) ;
#213 = ADVANCED_FACE ( 'NONE', ( #152 ), #215, .T. ) ;
#214 = EDGE_LOOP ( 'NONE', ( #241, #267, #126, #139 ) ) ;
#215 = CYLINDRICAL_SURFACE ( 'NONE', #13, 2.000000000000000000 ) ;
#216 = ORIENTED_EDGE ( 'NONE', *, *, #220, .T. ) ;
#217 = AXIS2_PLACEMENT_3D ( 'NONE', #48, #295, #17 ) ;
#218 = DIRECTION ( 'NONE',  ( 1.000000000000000000, 0.000000000000000000, 0.000000000000000000 ) ) ;
#219 = VERTEX_POINT ( 'NONE', #196 ) ;
#220 = EDGE_CURVE ( 'NONE', #174, #178, #249, .T. ) ;
#221 = ORIENTED_EDGE ( 'NONE', *, *, #120, .F. ) ;
#222 = DIRECTION ( 'NONE',  ( -1.000000000000000000, 1.224646799147351975E-16, 0.000000000000000000 ) ) ;
#223 = ADVANCED_BREP_SHAPE_REPRESENTATION ( '1571', ( #28, #300 ), #204 ) ;
#224 = DIRECTION ( 'NONE',  ( 0.000000000000000000, 0.000000000000000000, 1.000000000000000000 ) ) ;
#225 = AXIS2_PLACEMENT_3D ( 'NONE', #164, #254, #53 ) ;
#226 = ORGANIZATION ( 'NEURÈENÝ', 'NEURÈENÝ', '' ) ;
#227 = DIRECTION ( 'NONE',  ( 1.224646799147353207E-16, 1.000000000000000000, -0.000000000000000000 ) ) ;
#228 = FACE_OUTER_BOUND ( 'NONE', #165, .T. ) ;
#229 = DIRECTION ( 'NONE',  ( 1.000000000000000000, 0.000000000000000000, 0.000000000000000000 ) ) ;
#230 = SECURITY_CLASSIFICATION_LEVEL ( 'unclassified' ) ;
#231 = CARTESIAN_POINT ( 'NONE',  ( 0.000000000000000000, 0.000000000000000000, 2.000000000000000000 ) ) ;
#232 = COORDINATED_UNIVERSAL_TIME_OFFSET ( 1, 0, .AHEAD. ) ;
#233 = CARTESIAN_POINT ( 'NONE',  ( 1.000000000000000000, 1.224646799147353207E-16, 2.199999999999979750 ) ) ;
#234 = CARTESIAN_POINT ( 'NONE',  ( 0.000000000000000000, 0.000000000000000000, 2.000000000000000000 ) ) ;
#235 = CC_DESIGN_SECURITY_CLASSIFICATION ( #114, ( #181 ) ) ;
#236 = LINE ( 'NONE', #168, #198 ) ;
#237 = ORIENTED_EDGE ( 'NONE', *, *, #14, .T. ) ;
#238 = DIRECTION ( 'NONE',  ( 0.000000000000000000, 0.000000000000000000, 1.000000000000000000 ) ) ;
#239 = ORIENTED_EDGE ( 'NONE', *, *, #191, .T. ) ;
#240 = ADVANCED_FACE ( 'NONE', ( #199 ), #243, .F. ) ;
#241 = ORIENTED_EDGE ( 'NONE', *, *, #275, .F. ) ;
#242 = CARTESIAN_POINT ( 'NONE',  ( 0.000000000000000000, 0.000000000000000000, 2.000000000000000000 ) ) ;
#243 = TOROIDAL_SURFACE ( 'NONE', #118, 1.200000000000000178, 0.2000000000000000111 ) ;
#244 = ORIENTED_EDGE ( 'NONE', *, *, #220, .F. ) ;
#245 = CC_DESIGN_PERSON_AND_ORGANIZATION_ASSIGNMENT ( #94, #20, ( #181 ) ) ;
#246 = CYLINDRICAL_SURFACE ( 'NONE', #158, 1.000000000000000000 ) ;
#247 =( NAMED_UNIT ( * ) SI_UNIT ( $, .STERADIAN. ) SOLID_ANGLE_UNIT ( ) );
#248 = APPLICATION_PROTOCOL_DEFINITION ( 'international standard', 'config_control_design', 1994, #52 ) ;
#249 = CIRCLE ( 'NONE', #62, 2.000000000000000000 ) ;
#250 = DIRECTION ( 'NONE',  ( 0.000000000000000000, 0.000000000000000000, 1.000000000000000000 ) ) ;
#251 = EDGE_CURVE ( 'NONE', #105, #64, #83, .T. ) ;
#252 = AXIS2_PLACEMENT_3D ( 'NONE', #162, #18, #40 ) ;
#253 = DIRECTION ( 'NONE',  ( 0.000000000000000000, 0.000000000000000000, 1.000000000000000000 ) ) ;
#254 = DIRECTION ( 'NONE',  ( 0.000000000000000000, 0.000000000000000000, 1.000000000000000000 ) ) ;
#255 = APPROVAL_PERSON_ORGANIZATION ( #169, #31, #24 ) ;
#256 = CALENDAR_DATE ( 2022, 20, 6 ) ;
#257 = DIRECTION ( 'NONE',  ( 1.000000000000000000, 0.000000000000000000, 0.000000000000000000 ) ) ;
#258 = EDGE_LOOP ( 'NONE', ( #156, #307 ) ) ;
#259 = DIRECTION ( 'NONE',  ( 0.000000000000000000, 0.000000000000000000, 1.000000000000000000 ) ) ;
#260 = VERTEX_POINT ( 'NONE', #61 ) ;
#261 = PRODUCT_DEFINITION ( 'NEZNÁMÝ', '', #181, #264 ) ;
#262 = DIRECTION ( 'NONE',  ( 1.000000000000000000, 0.000000000000000000, 0.000000000000000000 ) ) ;
#263 = EDGE_LOOP ( 'NONE', ( #244, #153, #124, #106 ) ) ;
#264 = DESIGN_CONTEXT ( 'detailed design', #52, 'design' ) ;
#265 = CARTESIAN_POINT ( 'NONE',  ( 0.000000000000000000, 0.000000000000000000, 2.199999999999979750 ) ) ;
#266 = TOROIDAL_SURFACE ( 'NONE', #44, 1.200000000000000178, 0.2000000000000000111 ) ;
#267 = ORIENTED_EDGE ( 'NONE', *, *, #269, .F. ) ;
#268 = ORIENTED_EDGE ( 'NONE', *, *, #170, .F. ) ;
#269 = EDGE_CURVE ( 'NONE', #188, #64, #155, .T. ) ;
#270 = EDGE_LOOP ( 'NONE', ( #239, #304 ) ) ;
#271 = PERSON_AND_ORGANIZATION_ROLE ( 'creator' ) ;
#272 = CARTESIAN_POINT ( 'NONE',  ( -1.000000000000000000, 0.000000000000000000, 2.199999999999979750 ) ) ;
#273 = APPROVAL_ROLE ( '' ) ;
#274 = CARTESIAN_POINT ( 'NONE',  ( 0.000000000000000000, 0.000000000000000000, 0.000000000000000000 ) ) ;
#275 = EDGE_CURVE ( 'NONE', #64, #36, #68, .T. ) ;
#276 = CYLINDRICAL_SURFACE ( 'NONE', #217, 1.000000000000000000 ) ;
#277 = CARTESIAN_POINT ( 'NONE',  ( 0.000000000000000000, 0.000000000000000000, 402.0000000000000000 ) ) ;
#278 = PERSON_AND_ORGANIZATION ( #166, #226 ) ;
#279 = DIRECTION ( 'NONE',  ( 0.000000000000000000, 0.000000000000000000, 1.000000000000000000 ) ) ;
#280 = CIRCLE ( 'NONE', #5, 1.000000000000000000 ) ;
#281 = PRODUCT_RELATED_PRODUCT_CATEGORY ( 'detail', '', ( #45 ) ) ;
#282 = CIRCLE ( 'NONE', #148, 1.200000000000000178 ) ;
#283 = CALENDAR_DATE ( 2022, 20, 6 ) ;
#284 = CARTESIAN_POINT ( 'NONE',  ( -2.000000000000000000, 0.000000000000000000, 2.000000000000000000 ) ) ;
#285 = EDGE_LOOP ( 'NONE', ( #76, #268, #8, #86 ) ) ;
#286 = CC_DESIGN_APPROVAL ( #31, ( #114 ) ) ;
#287 = AXIS2_PLACEMENT_3D ( 'NONE', #277, #279, #163 ) ;
#288 = ORIENTED_EDGE ( 'NONE', *, *, #59, .T. ) ;
#289 = LOCAL_TIME ( 12, 19, 46.00000000000000000, #119 ) ;
#290 = ORIENTED_EDGE ( 'NONE', *, *, #251, .T. ) ;
#291 = APPROVAL_DATE_TIME ( #202, #87 ) ;
#292 = AXIS2_PLACEMENT_3D ( 'NONE', #23, #253, #229 ) ;
#293 = DATE_TIME_ROLE ( 'creation_date' ) ;
#294 = CARTESIAN_POINT ( 'NONE',  ( 0.000000000000000000, 0.000000000000000000, 0.000000000000000000 ) ) ;
#295 = DIRECTION ( 'NONE',  ( -0.000000000000000000, -0.000000000000000000, -1.000000000000000000 ) ) ;
#296 = DIRECTION ( 'NONE',  ( 1.000000000000000000, 0.000000000000000000, 0.000000000000000000 ) ) ;
#297 = ADVANCED_FACE ( 'NONE', ( #116 ), #132, .T. ) ;
#298 = CARTESIAN_POINT ( 'NONE',  ( 0.000000000000000000, 0.000000000000000000, 2.000000000000000000 ) ) ;
#299 = DIRECTION ( 'NONE',  ( 1.000000000000000000, 0.000000000000000000, 0.000000000000000000 ) ) ;
#300 = AXIS2_PLACEMENT_3D ( 'NONE', #274, #50, #71 ) ;
#301 = PLANE ( 'NONE',  #225 ) ;
#302 = SHAPE_DEFINITION_REPRESENTATION ( #19, #223 ) ;
#303 = PLANE ( 'NONE',  #43 ) ;
#304 = ORIENTED_EDGE ( 'NONE', *, *, #145, .T. ) ;
#305 = ADVANCED_FACE ( 'NONE', ( #69 ), #276, .T. ) ;
#306 = CARTESIAN_POINT ( 'NONE',  ( 0.000000000000000000, 0.000000000000000000, 402.0000000000000000 ) ) ;
#307 = ORIENTED_EDGE ( 'NONE', *, *, #73, .F. ) ;
ENDSEC;
END-ISO-10303-21;
