ISO-10303-21;
HEADER;
FILE_DESCRIPTION (( 'STEP AP203' ),
    '1' );
FILE_NAME ('3245.STEP',
    '2022-06-20T09:52:14',
    ( '' ),
    ( '' ),
    'SwSTEP 2.0',
    'SolidWorks 2019',
    '' );
FILE_SCHEMA (( 'CONFIG_CONTROL_DESIGN' ));
ENDSEC;

DATA;
#1 = FACE_OUTER_BOUND ( 'NONE', #270, .T. ) ;
#2 = CIRCLE ( 'NONE', #245, 6.000000000000000888 ) ;
#3 = EDGE_CURVE ( 'NONE', #269, #208, #156, .T. ) ;
#4 = ORGANIZATION ( 'NEURÈENÝ', 'NEURÈENÝ', '' ) ;
#5 = APPROVAL ( #89, 'NEURÈENÝ' ) ;
#6 = CARTESIAN_POINT ( 'NONE',  ( 0.000000000000000000, 0.000000000000000000, 320.0000000000000000 ) ) ;
#7 = PRODUCT ( '3245', '3245', '', ( #170 ) ) ;
#8 = CC_DESIGN_PERSON_AND_ORGANIZATION_ASSIGNMENT ( #43, #254, ( #272 ) ) ;
#9 = VERTEX_POINT ( 'NONE', #296 ) ;
#10 = CIRCLE ( 'NONE', #195, 6.000000000000000888 ) ;
#11 = ORIENTED_EDGE ( 'NONE', *, *, #152, .F. ) ;
#12 = AXIS2_PLACEMENT_3D ( 'NONE', #72, #304, #46 ) ;
#13 = ORIENTED_EDGE ( 'NONE', *, *, #142, .T. ) ;
#14 = ORIENTED_EDGE ( 'NONE', *, *, #3, .F. ) ;
#15 = DIRECTION ( 'NONE',  ( 0.000000000000000000, 0.000000000000000000, 1.000000000000000000 ) ) ;
#16 = APPROVAL_DATE_TIME ( #98, #5 ) ;
#17 = CARTESIAN_POINT ( 'NONE',  ( 6.000000000000000888, 7.347880794884120722E-16, 5.000000000000000000 ) ) ;
#18 = AXIS2_PLACEMENT_3D ( 'NONE', #6, #307, #219 ) ;
#19 = PERSON_AND_ORGANIZATION ( #106, #4 ) ;
#20 = EDGE_CURVE ( 'NONE', #182, #294, #2, .T. ) ;
#21 = DIRECTION ( 'NONE',  ( 0.000000000000000000, 0.000000000000000000, 1.000000000000000000 ) ) ;
#22 = AXIS2_PLACEMENT_3D ( 'NONE', #166, #64, #257 ) ;
#23 = APPROVAL ( #256, 'NEURÈENÝ' ) ;
#24 = DIRECTION ( 'NONE',  ( 0.000000000000000000, 0.000000000000000000, 1.000000000000000000 ) ) ;
#25 = COORDINATED_UNIVERSAL_TIME_OFFSET ( 1, 0, .AHEAD. ) ;
#26 = DIRECTION ( 'NONE',  ( 1.000000000000000000, 0.000000000000000000, 0.000000000000000000 ) ) ;
#27 = AXIS2_PLACEMENT_3D ( 'NONE', #237, #24, #33 ) ;
#28 = CC_DESIGN_APPROVAL ( #84, ( #272 ) ) ;
#29 = CARTESIAN_POINT ( 'NONE',  ( 0.000000000000000000, 0.000000000000000000, 0.000000000000000000 ) ) ;
#30 = VECTOR ( 'NONE', #193, 1000.000000000000000 ) ;
#31 = CARTESIAN_POINT ( 'NONE',  ( -6.000000000000000888, 0.000000000000000000, 0.000000000000000000 ) ) ;
#32 = AXIS2_PLACEMENT_3D ( 'NONE', #80, #177, #54 ) ;
#33 = DIRECTION ( 'NONE',  ( 1.000000000000000000, 0.000000000000000000, 0.000000000000000000 ) ) ;
#34 = AXIS2_PLACEMENT_3D ( 'NONE', #104, #155, #224 ) ;
#35 = EDGE_LOOP ( 'NONE', ( #186, #207 ) ) ;
#36 = ADVANCED_FACE ( 'NONE', ( #88 ), #49, .T. ) ;
#37 = ORIENTED_EDGE ( 'NONE', *, *, #123, .T. ) ;
#38 = CIRCLE ( 'NONE', #204, 0.1999999999999996503 ) ;
#39 = ORIENTED_EDGE ( 'NONE', *, *, #142, .F. ) ;
#40 = ORIENTED_EDGE ( 'NONE', *, *, #265, .F. ) ;
#41 = DIRECTION ( 'NONE',  ( 0.000000000000000000, 0.000000000000000000, 1.000000000000000000 ) ) ;
#42 = DIRECTION ( 'NONE',  ( 1.000000000000000000, 0.000000000000000000, 0.000000000000000000 ) ) ;
#43 = PERSON_AND_ORGANIZATION ( #106, #4 ) ;
#44 = CARTESIAN_POINT ( 'NONE',  ( -3.700000000000000178, 4.531193156845206201E-16, 4.999999999999991118 ) ) ;
#45 = PRODUCT_DEFINITION_FORMATION_WITH_SPECIFIED_SOURCE ( 'LIBOVOLNÝ', '', #7, .NOT_KNOWN. ) ;
#46 = DIRECTION ( 'NONE',  ( 1.000000000000000000, 0.000000000000000000, 0.000000000000000000 ) ) ;
#47 = DIRECTION ( 'NONE',  ( 0.000000000000000000, 0.000000000000000000, 1.000000000000000000 ) ) ;
#48 = PERSON_AND_ORGANIZATION ( #106, #4 ) ;
#49 = CYLINDRICAL_SURFACE ( 'NONE', #68, 3.500000000000000000 ) ;
#50 = TOROIDAL_SURFACE ( 'NONE', #56, 3.700000000000000178, 0.2000000000000000111 ) ;
#51 = CARTESIAN_POINT ( 'NONE',  ( 3.700000000000000178, 0.000000000000000000, 4.999999999999991118 ) ) ;
#52 = DIRECTION ( 'NONE',  ( -0.000000000000000000, -0.000000000000000000, -1.000000000000000000 ) ) ;
#53 = PRODUCT_DEFINITION ( 'NEZNÁMÝ', '', #45, #135 ) ;
#54 = DIRECTION ( 'NONE',  ( 1.000000000000000000, 0.000000000000000000, 0.000000000000000000 ) ) ;
#55 = DIRECTION ( 'NONE',  ( 1.000000000000000000, 0.000000000000000000, -0.000000000000000000 ) ) ;
#56 = AXIS2_PLACEMENT_3D ( 'NONE', #197, #47, #232 ) ;
#57 = EDGE_CURVE ( 'NONE', #9, #269, #214, .T. ) ;
#58 = ORIENTED_EDGE ( 'NONE', *, *, #134, .T. ) ;
#59 = APPROVAL_PERSON_ORGANIZATION ( #19, #23, #148 ) ;
#60 = ORIENTED_EDGE ( 'NONE', *, *, #292, .T. ) ;
#61 = ORIENTED_EDGE ( 'NONE', *, *, #67, .F. ) ;
#62 = AXIS2_PLACEMENT_3D ( 'NONE', #141, #15, #211 ) ;
#63 = ADVANCED_FACE ( 'NONE', ( #118 ), #164, .T. ) ;
#64 = DIRECTION ( 'NONE',  ( -0.000000000000000000, -0.000000000000000000, -1.000000000000000000 ) ) ;
#65 = PERSON_AND_ORGANIZATION ( #106, #4 ) ;
#66 = CARTESIAN_POINT ( 'NONE',  ( -3.500000000000000000, 0.000000000000000000, 320.0000000000000000 ) ) ;
#67 = EDGE_CURVE ( 'NONE', #160, #133, #110, .T. ) ;
#68 = AXIS2_PLACEMENT_3D ( 'NONE', #284, #281, #188 ) ;
#69 = COORDINATED_UNIVERSAL_TIME_OFFSET ( 1, 0, .AHEAD. ) ;
#70 = CALENDAR_DATE ( 2022, 20, 6 ) ;
#71 = DIRECTION ( 'NONE',  ( -0.000000000000000000, -0.000000000000000000, -1.000000000000000000 ) ) ;
#72 = CARTESIAN_POINT ( 'NONE',  ( 0.000000000000000000, 0.000000000000000000, 0.000000000000000000 ) ) ;
#73 = DIRECTION ( 'NONE',  ( 0.000000000000000000, 0.000000000000000000, 1.000000000000000000 ) ) ;
#74 = DATE_AND_TIME ( #238, #225 ) ;
#75 = ADVANCED_FACE ( 'NONE', ( #253 ), #277, .F. ) ;
#76 = PLANE ( 'NONE',  #222 ) ;
#77 = CYLINDRICAL_SURFACE ( 'NONE', #205, 6.000000000000000888 ) ;
#78 =( NAMED_UNIT ( * ) SI_UNIT ( $, .STERADIAN. ) SOLID_ANGLE_UNIT ( ) );
#79 = EDGE_CURVE ( 'NONE', #83, #293, #10, .T. ) ;
#80 = CARTESIAN_POINT ( 'NONE',  ( 0.000000000000000000, 0.000000000000000000, 320.0000000000000000 ) ) ;
#81 = EDGE_CURVE ( 'NONE', #208, #160, #38, .T. ) ;
#82 = ORIENTED_EDGE ( 'NONE', *, *, #79, .F. ) ;
#83 = VERTEX_POINT ( 'NONE', #122 ) ;
#84 = APPROVAL ( #218, 'NEURÈENÝ' ) ;
#85 = ORIENTED_EDGE ( 'NONE', *, *, #157, .T. ) ;
#86 = VECTOR ( 'NONE', #147, 1000.000000000000000 ) ;
#87 = EDGE_LOOP ( 'NONE', ( #14, #249, #61, #210 ) ) ;
#88 = FACE_OUTER_BOUND ( 'NONE', #108, .T. ) ;
#89 = APPROVAL_STATUS ( 'not_yet_approved' ) ;
#90 = LOCAL_TIME ( 11, 52, 14.00000000000000000, #117 ) ;
#91 = LINE ( 'NONE', #17, #163 ) ;
#92 = APPROVAL_DATE_TIME ( #119, #23 ) ;
#93 = ADVANCED_FACE ( 'NONE', ( #301, #279 ), #303, .T. ) ;
#94 = CARTESIAN_POINT ( 'NONE',  ( 0.000000000000000000, 0.000000000000000000, 5.199999999999982414 ) ) ;
#95 = DATE_TIME_ROLE ( 'classification_date' ) ;
#96 = LINE ( 'NONE', #260, #86 ) ;
#97 = PRODUCT_DEFINITION_SHAPE ( 'NONE', 'NONE',  #53 ) ;
#98 = DATE_AND_TIME ( #280, #171 ) ;
#99 = CARTESIAN_POINT ( 'NONE',  ( 3.500000000000000000, 4.286263797015736595E-16, 320.0000000000000000 ) ) ;
#100 = COORDINATED_UNIVERSAL_TIME_OFFSET ( 1, 0, .AHEAD. ) ;
#101 = DIRECTION ( 'NONE',  ( 0.000000000000000000, 0.000000000000000000, 1.000000000000000000 ) ) ;
#102 = CARTESIAN_POINT ( 'NONE',  ( 0.000000000000000000, 0.000000000000000000, 320.0000000000000000 ) ) ;
#103 = DIRECTION ( 'NONE',  ( -1.000000000000000000, 1.224646799147350742E-16, 0.000000000000000000 ) ) ;
#104 = CARTESIAN_POINT ( 'NONE',  ( 0.000000000000000000, 0.000000000000000000, 5.199999999999982414 ) ) ;
#105 = CIRCLE ( 'NONE', #143, 6.000000000000000888 ) ;
#106 = PERSON ( 'NEURÈENÝ', 'NEURÈENÝ', 'NEURÈENÝ', ('NEURÈENÝ'), ('NEURÈENÝ'), ('NEURÈENÝ') ) ;
#107 = VECTOR ( 'NONE', #52, 1000.000000000000000 ) ;
#108 = EDGE_LOOP ( 'NONE', ( #136, #13, #158, #161 ) ) ;
#109 = CC_DESIGN_DATE_AND_TIME_ASSIGNMENT ( #74, #95, ( #272 ) ) ;
#110 = CIRCLE ( 'NONE', #22, 3.700000000000000178 ) ;
#111 = EDGE_LOOP ( 'NONE', ( #112, #40, #228, #252 ) ) ;
#112 = ORIENTED_EDGE ( 'NONE', *, *, #213, .F. ) ;
#113 = EDGE_LOOP ( 'NONE', ( #227, #37, #58, #250 ) ) ;
#114 = ORIENTED_EDGE ( 'NONE', *, *, #152, .T. ) ;
#115 = CARTESIAN_POINT ( 'NONE',  ( 0.000000000000000000, 0.000000000000000000, 0.000000000000000000 ) ) ;
#116 = ADVANCED_FACE ( 'NONE', ( #298 ), #50, .F. ) ;
#117 = COORDINATED_UNIVERSAL_TIME_OFFSET ( 1, 0, .AHEAD. ) ;
#118 = FACE_OUTER_BOUND ( 'NONE', #113, .T. ) ;
#119 = DATE_AND_TIME ( #273, #90 ) ;
#120 = DIRECTION ( 'NONE',  ( 1.000000000000000000, 0.000000000000000000, 0.000000000000000000 ) ) ;
#121 = SHAPE_DEFINITION_REPRESENTATION ( #97, #159 ) ;
#122 = CARTESIAN_POINT ( 'NONE',  ( -6.000000000000000888, 0.000000000000000000, 5.000000000000000000 ) ) ;
#123 = EDGE_CURVE ( 'NONE', #293, #294, #91, .T. ) ;
#124 = PERSON_AND_ORGANIZATION ( #106, #4 ) ;
#125 = AXIS2_PLACEMENT_3D ( 'NONE', #102, #179, #288 ) ;
#126 = FACE_OUTER_BOUND ( 'NONE', #226, .T. ) ;
#127 = CARTESIAN_POINT ( 'NONE',  ( -3.500000000000000000, 0.000000000000000000, 5.199999999999982414 ) ) ;
#128 = DIRECTION ( 'NONE',  ( -0.000000000000000000, -0.000000000000000000, -1.000000000000000000 ) ) ;
#129 = CIRCLE ( 'NONE', #34, 3.500000000000000000 ) ;
#130 = CARTESIAN_POINT ( 'NONE',  ( -6.000000000000000888, 0.000000000000000000, 5.000000000000000000 ) ) ;
#131 = VERTEX_POINT ( 'NONE', #99 ) ;
#132 = CC_DESIGN_APPROVAL ( #5, ( #53 ) ) ;
#133 = VERTEX_POINT ( 'NONE', #44 ) ;
#134 = EDGE_CURVE ( 'NONE', #294, #182, #230, .T. ) ;
#135 = DESIGN_CONTEXT ( 'detailed design', #191, 'design' ) ;
#136 = ORIENTED_EDGE ( 'NONE', *, *, #271, .F. ) ;
#137 = AXIS2_PLACEMENT_3D ( 'NONE', #145, #21, #120 ) ;
#138 = EDGE_LOOP ( 'NONE', ( #183, #82, #60, #295 ) ) ;
#139 = DIRECTION ( 'NONE',  ( 0.000000000000000000, -1.000000000000000000, 0.000000000000000000 ) ) ;
#140 = AXIS2_PLACEMENT_3D ( 'NONE', #305, #275, #174 ) ;
#141 = CARTESIAN_POINT ( 'NONE',  ( 0.000000000000000000, 0.000000000000000000, 5.000000000000000000 ) ) ;
#142 = EDGE_CURVE ( 'NONE', #131, #208, #96, .T. ) ;
#143 = AXIS2_PLACEMENT_3D ( 'NONE', #150, #101, #26 ) ;
#144 = CIRCLE ( 'NONE', #32, 3.500000000000000000 ) ;
#145 = CARTESIAN_POINT ( 'NONE',  ( 0.000000000000000000, 0.000000000000000000, 0.000000000000000000 ) ) ;
#146 = APPROVAL_DATE_TIME ( #306, #84 ) ;
#147 = DIRECTION ( 'NONE',  ( -0.000000000000000000, -0.000000000000000000, -1.000000000000000000 ) ) ;
#148 = APPROVAL_ROLE ( '' ) ;
#149 = ORIENTED_EDGE ( 'NONE', *, *, #57, .T. ) ;
#150 = CARTESIAN_POINT ( 'NONE',  ( 0.000000000000000000, 0.000000000000000000, 5.000000000000000000 ) ) ;
#151 = PLANE ( 'NONE',  #125 ) ;
#152 = EDGE_CURVE ( 'NONE', #9, #131, #287, .T. ) ;
#153 = AXIS2_PLACEMENT_3D ( 'NONE', #94, #41, #199 ) ;
#154 = CC_DESIGN_PERSON_AND_ORGANIZATION_ASSIGNMENT ( #165, #262, ( #45 ) ) ;
#155 = DIRECTION ( 'NONE',  ( 0.000000000000000000, 0.000000000000000000, 1.000000000000000000 ) ) ;
#156 = CIRCLE ( 'NONE', #140, 3.500000000000000000 ) ;
#157 = EDGE_CURVE ( 'NONE', #133, #160, #297, .T. ) ;
#158 = ORIENTED_EDGE ( 'NONE', *, *, #265, .T. ) ;
#159 = ADVANCED_BREP_SHAPE_REPRESENTATION ( '3245', ( #240, #12 ), #282 ) ;
#160 = VERTEX_POINT ( 'NONE', #51 ) ;
#161 = ORIENTED_EDGE ( 'NONE', *, *, #57, .F. ) ;
#162 = CLOSED_SHELL ( 'NONE', ( #75, #36, #63, #176, #93, #194, #244, #274, #116 ) ) ;
#163 = VECTOR ( 'NONE', #71, 1000.000000000000000 ) ;
#164 = CYLINDRICAL_SURFACE ( 'NONE', #178, 6.000000000000000888 ) ;
#165 = PERSON_AND_ORGANIZATION ( #106, #4 ) ;
#166 = CARTESIAN_POINT ( 'NONE',  ( 0.000000000000000000, 0.000000000000000000, 5.000000000000000000 ) ) ;
#167 = PERSON_AND_ORGANIZATION_ROLE ( 'design_supplier' ) ;
#168 = DIRECTION ( 'NONE',  ( 1.000000000000000000, 0.000000000000000000, 0.000000000000000000 ) ) ;
#169 = AXIS2_PLACEMENT_3D ( 'NONE', #248, #175, #103 ) ;
#170 = MECHANICAL_CONTEXT ( 'NONE', #247, 'mechanical' ) ;
#171 = LOCAL_TIME ( 11, 52, 14.00000000000000000, #25 ) ;
#172 = CARTESIAN_POINT ( 'NONE',  ( 0.000000000000000000, 0.000000000000000000, 5.000000000000000000 ) ) ;
#173 = APPLICATION_PROTOCOL_DEFINITION ( 'international standard', 'config_control_design', 1994, #191 ) ;
#174 = DIRECTION ( 'NONE',  ( 1.000000000000000000, 0.000000000000000000, 0.000000000000000000 ) ) ;
#175 = DIRECTION ( 'NONE',  ( 1.224646799147353207E-16, 1.000000000000000000, -0.000000000000000000 ) ) ;
#176 = ADVANCED_FACE ( 'NONE', ( #266 ), #77, .T. ) ;
#177 = DIRECTION ( 'NONE',  ( 0.000000000000000000, 0.000000000000000000, 1.000000000000000000 ) ) ;
#178 = AXIS2_PLACEMENT_3D ( 'NONE', #172, #261, #239 ) ;
#179 = DIRECTION ( 'NONE',  ( 0.000000000000000000, 0.000000000000000000, 1.000000000000000000 ) ) ;
#180 = LOCAL_TIME ( 11, 52, 14.00000000000000000, #100 ) ;
#181 = CC_DESIGN_DATE_AND_TIME_ASSIGNMENT ( #192, #198, ( #53 ) ) ;
#182 = VERTEX_POINT ( 'NONE', #31 ) ;
#183 = ORIENTED_EDGE ( 'NONE', *, *, #123, .F. ) ;
#184 = ORIENTED_EDGE ( 'NONE', *, *, #134, .F. ) ;
#185 = LOCAL_TIME ( 11, 52, 14.00000000000000000, #69 ) ;
#186 = ORIENTED_EDGE ( 'NONE', *, *, #79, .T. ) ;
#187 = EDGE_LOOP ( 'NONE', ( #206, #184 ) ) ;
#188 = DIRECTION ( 'NONE',  ( -1.000000000000000000, 0.000000000000000000, 0.000000000000000000 ) ) ;
#189 = APPROVAL_ROLE ( '' ) ;
#190 = CARTESIAN_POINT ( 'NONE',  ( 0.000000000000000000, 0.000000000000000000, 5.000000000000000000 ) ) ;
#191 = APPLICATION_CONTEXT ( 'configuration controlled 3d designs of mechanical parts and assemblies' ) ;
#192 = DATE_AND_TIME ( #276, #185 ) ;
#193 = DIRECTION ( 'NONE',  ( -0.000000000000000000, -0.000000000000000000, -1.000000000000000000 ) ) ;
#194 = ADVANCED_FACE ( 'NONE', ( #203 ), #76, .F. ) ;
#195 = AXIS2_PLACEMENT_3D ( 'NONE', #190, #255, #42 ) ;
#196 = APPROVAL_ROLE ( '' ) ;
#197 = CARTESIAN_POINT ( 'NONE',  ( 0.000000000000000000, 0.000000000000000000, 5.199999999999982414 ) ) ;
#198 = DATE_TIME_ROLE ( 'creation_date' ) ;
#199 = DIRECTION ( 'NONE',  ( 1.000000000000000000, 0.000000000000000000, 0.000000000000000000 ) ) ;
#200 = LINE ( 'NONE', #130, #107 ) ;
#201 = CARTESIAN_POINT ( 'NONE',  ( 6.000000000000000888, 7.347880794884120722E-16, 5.000000000000000000 ) ) ;
#202 =( LENGTH_UNIT ( ) NAMED_UNIT ( * ) SI_UNIT ( .MILLI., .METRE. ) );
#203 = FACE_OUTER_BOUND ( 'NONE', #187, .T. ) ;
#204 = AXIS2_PLACEMENT_3D ( 'NONE', #216, #139, #217 ) ;
#205 = AXIS2_PLACEMENT_3D ( 'NONE', #243, #267, #289 ) ;
#206 = ORIENTED_EDGE ( 'NONE', *, *, #20, .F. ) ;
#207 = ORIENTED_EDGE ( 'NONE', *, *, #229, .T. ) ;
#208 = VERTEX_POINT ( 'NONE', #286 ) ;
#209 = ORIENTED_EDGE ( 'NONE', *, *, #3, .T. ) ;
#210 = ORIENTED_EDGE ( 'NONE', *, *, #81, .F. ) ;
#211 = DIRECTION ( 'NONE',  ( 1.000000000000000000, 0.000000000000000000, -0.000000000000000000 ) ) ;
#212 = PERSON_AND_ORGANIZATION ( #106, #4 ) ;
#213 = EDGE_CURVE ( 'NONE', #269, #133, #241, .T. ) ;
#214 = LINE ( 'NONE', #66, #30 ) ;
#215 = PERSON_AND_ORGANIZATION ( #106, #4 ) ;
#216 = CARTESIAN_POINT ( 'NONE',  ( 3.700000000000000178, 0.000000000000000000, 5.199999999999982414 ) ) ;
#217 = DIRECTION ( 'NONE',  ( 0.000000000000000000, 0.000000000000000000, -1.000000000000000000 ) ) ;
#218 = APPROVAL_STATUS ( 'not_yet_approved' ) ;
#219 = DIRECTION ( 'NONE',  ( -1.000000000000000000, 0.000000000000000000, 0.000000000000000000 ) ) ;
#220 = DIRECTION ( 'NONE',  ( 0.000000000000000000, 0.000000000000000000, 1.000000000000000000 ) ) ;
#221 =( NAMED_UNIT ( * ) PLANE_ANGLE_UNIT ( ) SI_UNIT ( $, .RADIAN. ) );
#222 = AXIS2_PLACEMENT_3D ( 'NONE', #29, #220, #55 ) ;
#223 = CC_DESIGN_APPROVAL ( #23, ( #45 ) ) ;
#224 = DIRECTION ( 'NONE',  ( 1.000000000000000000, 0.000000000000000000, 0.000000000000000000 ) ) ;
#225 = LOCAL_TIME ( 11, 52, 14.00000000000000000, #302 ) ;
#226 = EDGE_LOOP ( 'NONE', ( #39, #11, #149, #209 ) ) ;
#227 = ORIENTED_EDGE ( 'NONE', *, *, #229, .F. ) ;
#228 = ORIENTED_EDGE ( 'NONE', *, *, #81, .T. ) ;
#229 = EDGE_CURVE ( 'NONE', #293, #83, #105, .T. ) ;
#230 = CIRCLE ( 'NONE', #137, 6.000000000000000888 ) ;
#231 = EDGE_LOOP ( 'NONE', ( #290, #85 ) ) ;
#232 = DIRECTION ( 'NONE',  ( 1.000000000000000000, 0.000000000000000000, 0.000000000000000000 ) ) ;
#233 = AXIS2_PLACEMENT_3D ( 'NONE', #246, #128, #263 ) ;
#234 = PRODUCT_RELATED_PRODUCT_CATEGORY ( 'detail', '', ( #7 ) ) ;
#235 = ORIENTED_EDGE ( 'NONE', *, *, #271, .T. ) ;
#236 = PERSON_AND_ORGANIZATION_ROLE ( 'design_owner' ) ;
#237 = CARTESIAN_POINT ( 'NONE',  ( 0.000000000000000000, 0.000000000000000000, 320.0000000000000000 ) ) ;
#238 = CALENDAR_DATE ( 2022, 20, 6 ) ;
#239 = DIRECTION ( 'NONE',  ( -1.000000000000000000, 0.000000000000000000, 0.000000000000000000 ) ) ;
#240 = MANIFOLD_SOLID_BREP ( 'Zaoblit1', #162 ) ;
#241 = CIRCLE ( 'NONE', #169, 0.2000000000000000944 ) ;
#242 = APPROVAL_PERSON_ORGANIZATION ( #65, #84, #196 ) ;
#243 = CARTESIAN_POINT ( 'NONE',  ( 0.000000000000000000, 0.000000000000000000, 5.000000000000000000 ) ) ;
#244 = ADVANCED_FACE ( 'NONE', ( #126 ), #264, .T. ) ;
#245 = AXIS2_PLACEMENT_3D ( 'NONE', #115, #73, #168 ) ;
#246 = CARTESIAN_POINT ( 'NONE',  ( 0.000000000000000000, 0.000000000000000000, 5.000000000000000000 ) ) ;
#247 = APPLICATION_CONTEXT ( 'configuration controlled 3d designs of mechanical parts and assemblies' ) ;
#248 = CARTESIAN_POINT ( 'NONE',  ( -3.700000000000000178, 4.531193156845206201E-16, 5.199999999999982414 ) ) ;
#249 = ORIENTED_EDGE ( 'NONE', *, *, #213, .T. ) ;
#250 = ORIENTED_EDGE ( 'NONE', *, *, #292, .F. ) ;
#251 = UNCERTAINTY_MEASURE_WITH_UNIT (LENGTH_MEASURE( 1.000000000000000082E-05 ), #202, 'distance_accuracy_value', 'NONE');
#252 = ORIENTED_EDGE ( 'NONE', *, *, #157, .F. ) ;
#253 = FACE_OUTER_BOUND ( 'NONE', #87, .T. ) ;
#254 = PERSON_AND_ORGANIZATION_ROLE ( 'classification_officer' ) ;
#255 = DIRECTION ( 'NONE',  ( 0.000000000000000000, 0.000000000000000000, 1.000000000000000000 ) ) ;
#256 = APPROVAL_STATUS ( 'not_yet_approved' ) ;
#257 = DIRECTION ( 'NONE',  ( 1.000000000000000000, 0.000000000000000000, 0.000000000000000000 ) ) ;
#258 = CC_DESIGN_SECURITY_CLASSIFICATION ( #272, ( #45 ) ) ;
#259 = SECURITY_CLASSIFICATION_LEVEL ( 'unclassified' ) ;
#260 = CARTESIAN_POINT ( 'NONE',  ( 3.500000000000000000, 4.286263797015736595E-16, 320.0000000000000000 ) ) ;
#261 = DIRECTION ( 'NONE',  ( -0.000000000000000000, -0.000000000000000000, -1.000000000000000000 ) ) ;
#262 = PERSON_AND_ORGANIZATION_ROLE ( 'creator' ) ;
#263 = DIRECTION ( 'NONE',  ( 1.000000000000000000, 0.000000000000000000, 0.000000000000000000 ) ) ;
#264 = CYLINDRICAL_SURFACE ( 'NONE', #18, 3.500000000000000000 ) ;
#265 = EDGE_CURVE ( 'NONE', #208, #269, #129, .T. ) ;
#266 = FACE_OUTER_BOUND ( 'NONE', #138, .T. ) ;
#267 = DIRECTION ( 'NONE',  ( -0.000000000000000000, -0.000000000000000000, -1.000000000000000000 ) ) ;
#268 = APPROVAL_PERSON_ORGANIZATION ( #212, #5, #189 ) ;
#269 = VERTEX_POINT ( 'NONE', #127 ) ;
#270 = EDGE_LOOP ( 'NONE', ( #114, #235 ) ) ;
#271 = EDGE_CURVE ( 'NONE', #131, #9, #144, .T. ) ;
#272 = SECURITY_CLASSIFICATION ( '', '', #259 ) ;
#273 = CALENDAR_DATE ( 2022, 20, 6 ) ;
#274 = ADVANCED_FACE ( 'NONE', ( #1 ), #151, .T. ) ;
#275 = DIRECTION ( 'NONE',  ( 0.000000000000000000, 0.000000000000000000, 1.000000000000000000 ) ) ;
#276 = CALENDAR_DATE ( 2022, 20, 6 ) ;
#277 = TOROIDAL_SURFACE ( 'NONE', #153, 3.700000000000000178, 0.2000000000000000111 ) ;
#278 = CC_DESIGN_PERSON_AND_ORGANIZATION_ASSIGNMENT ( #124, #283, ( #53 ) ) ;
#279 = FACE_OUTER_BOUND ( 'NONE', #35, .T. ) ;
#280 = CALENDAR_DATE ( 2022, 20, 6 ) ;
#281 = DIRECTION ( 'NONE',  ( -0.000000000000000000, -0.000000000000000000, -1.000000000000000000 ) ) ;
#282 =( GEOMETRIC_REPRESENTATION_CONTEXT ( 3 ) GLOBAL_UNCERTAINTY_ASSIGNED_CONTEXT ( ( #251 ) ) GLOBAL_UNIT_ASSIGNED_CONTEXT ( ( #202, #221, #78 ) ) REPRESENTATION_CONTEXT ( 'NONE', 'WORKASPACE' ) );
#283 = PERSON_AND_ORGANIZATION_ROLE ( 'creator' ) ;
#284 = CARTESIAN_POINT ( 'NONE',  ( 0.000000000000000000, 0.000000000000000000, 320.0000000000000000 ) ) ;
#285 = CARTESIAN_POINT ( 'NONE',  ( 6.000000000000000888, 7.347880794884120722E-16, 0.000000000000000000 ) ) ;
#286 = CARTESIAN_POINT ( 'NONE',  ( 3.500000000000000000, 4.286263797015736595E-16, 5.199999999999982414 ) ) ;
#287 = CIRCLE ( 'NONE', #27, 3.500000000000000000 ) ;
#288 = DIRECTION ( 'NONE',  ( 1.000000000000000000, 0.000000000000000000, -0.000000000000000000 ) ) ;
#289 = DIRECTION ( 'NONE',  ( -1.000000000000000000, 0.000000000000000000, 0.000000000000000000 ) ) ;
#290 = ORIENTED_EDGE ( 'NONE', *, *, #67, .T. ) ;
#291 = CC_DESIGN_PERSON_AND_ORGANIZATION_ASSIGNMENT ( #215, #167, ( #45 ) ) ;
#292 = EDGE_CURVE ( 'NONE', #83, #182, #200, .T. ) ;
#293 = VERTEX_POINT ( 'NONE', #201 ) ;
#294 = VERTEX_POINT ( 'NONE', #285 ) ;
#295 = ORIENTED_EDGE ( 'NONE', *, *, #20, .T. ) ;
#296 = CARTESIAN_POINT ( 'NONE',  ( -3.500000000000000000, 0.000000000000000000, 320.0000000000000000 ) ) ;
#297 = CIRCLE ( 'NONE', #233, 3.700000000000000178 ) ;
#298 = FACE_OUTER_BOUND ( 'NONE', #111, .T. ) ;
#299 = CC_DESIGN_PERSON_AND_ORGANIZATION_ASSIGNMENT ( #48, #236, ( #7 ) ) ;
#300 = APPLICATION_PROTOCOL_DEFINITION ( 'international standard', 'config_control_design', 1994, #247 ) ;
#301 = FACE_BOUND ( 'NONE', #231, .T. ) ;
#302 = COORDINATED_UNIVERSAL_TIME_OFFSET ( 1, 0, .AHEAD. ) ;
#303 = PLANE ( 'NONE',  #62 ) ;
#304 = DIRECTION ( 'NONE',  ( 0.000000000000000000, 0.000000000000000000, 1.000000000000000000 ) ) ;
#305 = CARTESIAN_POINT ( 'NONE',  ( 0.000000000000000000, 0.000000000000000000, 5.199999999999982414 ) ) ;
#306 = DATE_AND_TIME ( #70, #180 ) ;
#307 = DIRECTION ( 'NONE',  ( -0.000000000000000000, -0.000000000000000000, -1.000000000000000000 ) ) ;
ENDSEC;
END-ISO-10303-21;
