ISO-10303-21;
HEADER;
FILE_DESCRIPTION (( 'STEP AP203' ),
    '1' );
FILE_NAME ('3a68.STEP',
    '2022-06-20T09:36:27',
    ( '' ),
    ( '' ),
    'SwSTEP 2.0',
    'SolidWorks 2019',
    '' );
FILE_SCHEMA (( 'CONFIG_CONTROL_DESIGN' ));
ENDSEC;

DATA;
#1 = CIRCLE ( 'NONE', #185, 8.000000000000000000 ) ;
#2 = ADVANCED_FACE ( 'NONE', ( #103 ), #34, .T. ) ;
#3 = APPROVAL_DATE_TIME ( #144, #64 ) ;
#4 = PERSON_AND_ORGANIZATION ( #43, #37 ) ;
#5 = CARTESIAN_POINT ( 'NONE',  ( 0.000000000000000000, 0.000000000000000000, 5.199999999999996625 ) ) ;
#6 = LOCAL_TIME ( 11, 36, 27.00000000000000000, #153 ) ;
#7 = EDGE_CURVE ( 'NONE', #232, #251, #128, .T. ) ;
#8 = DIRECTION ( 'NONE',  ( -0.000000000000000000, -0.000000000000000000, -1.000000000000000000 ) ) ;
#9 = PERSON_AND_ORGANIZATION ( #43, #37 ) ;
#10 = FACE_OUTER_BOUND ( 'NONE', #292, .T. ) ;
#11 = CARTESIAN_POINT ( 'NONE',  ( 0.000000000000000000, 0.000000000000000000, 5.000000000000000000 ) ) ;
#12 = CIRCLE ( 'NONE', #52, 0.1999999999999996503 ) ;
#13 = SECURITY_CLASSIFICATION_LEVEL ( 'unclassified' ) ;
#14 = EDGE_LOOP ( 'NONE', ( #182, #233, #184, #275 ) ) ;
#15 = DATE_TIME_ROLE ( 'classification_date' ) ;
#16 = ORIENTED_EDGE ( 'NONE', *, *, #175, .T. ) ;
#17 = EDGE_CURVE ( 'NONE', #232, #84, #1, .T. ) ;
#18 = DIRECTION ( 'NONE',  ( 1.000000000000000000, 0.000000000000000000, -0.000000000000000000 ) ) ;
#19 = AXIS2_PLACEMENT_3D ( 'NONE', #245, #222, #29 ) ;
#20 = FACE_OUTER_BOUND ( 'NONE', #195, .T. ) ;
#21 = CARTESIAN_POINT ( 'NONE',  ( 0.000000000000000000, 0.000000000000000000, 105.0000000000000142 ) ) ;
#22 = DIRECTION ( 'NONE',  ( -1.000000000000000000, 0.000000000000000000, 0.000000000000000000 ) ) ;
#23 = EDGE_CURVE ( 'NONE', #272, #251, #205, .T. ) ;
#24 = AXIS2_PLACEMENT_3D ( 'NONE', #137, #72, #28 ) ;
#25 = DIRECTION ( 'NONE',  ( 0.000000000000000000, 0.000000000000000000, 1.000000000000000000 ) ) ;
#26 =( NAMED_UNIT ( * ) SI_UNIT ( $, .STERADIAN. ) SOLID_ANGLE_UNIT ( ) );
#27 = EDGE_CURVE ( 'NONE', #84, #272, #135, .T. ) ;
#28 = DIRECTION ( 'NONE',  ( -1.000000000000000000, 0.000000000000000000, 0.000000000000000000 ) ) ;
#29 = DIRECTION ( 'NONE',  ( 1.000000000000000000, 0.000000000000000000, 0.000000000000000000 ) ) ;
#30 = APPROVAL_DATE_TIME ( #49, #115 ) ;
#31 = EDGE_LOOP ( 'NONE', ( #183, #99, #296, #274 ) ) ;
#32 = CIRCLE ( 'NONE', #41, 5.500000000000000000 ) ;
#33 = EDGE_LOOP ( 'NONE', ( #80, #256 ) ) ;
#34 = CYLINDRICAL_SURFACE ( 'NONE', #73, 5.500000000000000000 ) ;
#35 = APPROVAL ( #54, 'NEURÈENÝ' ) ;
#36 = EDGE_LOOP ( 'NONE', ( #227, #107, #130, #109 ) ) ;
#37 = ORGANIZATION ( 'NEURÈENÝ', 'NEURÈENÝ', '' ) ;
#38 = CARTESIAN_POINT ( 'NONE',  ( 0.000000000000000000, 0.000000000000000000, 0.000000000000000000 ) ) ;
#39 = DIRECTION ( 'NONE',  ( 0.000000000000000000, 0.000000000000000000, 1.000000000000000000 ) ) ;
#40 = FACE_OUTER_BOUND ( 'NONE', #33, .T. ) ;
#41 = AXIS2_PLACEMENT_3D ( 'NONE', #252, #208, #298 ) ;
#42 = CARTESIAN_POINT ( 'NONE',  ( 0.000000000000000000, 0.000000000000000000, 5.000000000000000000 ) ) ;
#43 = PERSON ( 'NEURÈENÝ', 'NEURÈENÝ', 'NEURÈENÝ', ('NEURÈENÝ'), ('NEURÈENÝ'), ('NEURÈENÝ') ) ;
#44 = DIRECTION ( 'NONE',  ( 1.224646799147353207E-16, 1.000000000000000000, -0.000000000000000000 ) ) ;
#45 = DIRECTION ( 'NONE',  ( 1.000000000000000000, 0.000000000000000000, 0.000000000000000000 ) ) ;
#46 = TOROIDAL_SURFACE ( 'NONE', #235, 5.699999999999999289, 0.2000000000000000111 ) ;
#47 = COORDINATED_UNIVERSAL_TIME_OFFSET ( 1, 0, .AHEAD. ) ;
#48 = COORDINATED_UNIVERSAL_TIME_OFFSET ( 1, 0, .AHEAD. ) ;
#49 = DATE_AND_TIME ( #124, #196 ) ;
#50 = CYLINDRICAL_SURFACE ( 'NONE', #147, 5.500000000000000000 ) ;
#51 = VERTEX_POINT ( 'NONE', #159 ) ;
#52 = AXIS2_PLACEMENT_3D ( 'NONE', #270, #101, #177 ) ;
#53 = DIRECTION ( 'NONE',  ( 0.000000000000000000, 0.000000000000000000, 1.000000000000000000 ) ) ;
#54 = APPROVAL_STATUS ( 'not_yet_approved' ) ;
#55 = EDGE_CURVE ( 'NONE', #152, #276, #32, .T. ) ;
#56 = EDGE_LOOP ( 'NONE', ( #293, #203, #254, #95 ) ) ;
#57 = CARTESIAN_POINT ( 'NONE',  ( 8.000000000000000000, 9.797174393178825657E-16, 5.000000000000000000 ) ) ;
#58 = CARTESIAN_POINT ( 'NONE',  ( -8.000000000000000000, 0.000000000000000000, 5.000000000000000000 ) ) ;
#59 = LOCAL_TIME ( 11, 36, 27.00000000000000000, #48 ) ;
#60 = ORIENTED_EDGE ( 'NONE', *, *, #55, .F. ) ;
#61 = CC_DESIGN_PERSON_AND_ORGANIZATION_ASSIGNMENT ( #156, #110, ( #215 ) ) ;
#62 = CYLINDRICAL_SURFACE ( 'NONE', #90, 8.000000000000000000 ) ;
#63 = DIRECTION ( 'NONE',  ( 0.000000000000000000, 0.000000000000000000, 1.000000000000000000 ) ) ;
#64 = APPROVAL ( #241, 'NEURÈENÝ' ) ;
#65 = CARTESIAN_POINT ( 'NONE',  ( 0.000000000000000000, 0.000000000000000000, 5.000000000000000000 ) ) ;
#66 = CARTESIAN_POINT ( 'NONE',  ( 8.000000000000000000, 9.797174393178825657E-16, 5.000000000000000000 ) ) ;
#67 = CARTESIAN_POINT ( 'NONE',  ( 0.000000000000000000, 0.000000000000000000, 5.199999999999996625 ) ) ;
#68 = ADVANCED_FACE ( 'NONE', ( #10 ), #86, .F. ) ;
#69 = AXIS2_PLACEMENT_3D ( 'NONE', #139, #238, #236 ) ;
#70 = APPLICATION_PROTOCOL_DEFINITION ( 'international standard', 'config_control_design', 1994, #192 ) ;
#71 = ORIENTED_EDGE ( 'NONE', *, *, #255, .F. ) ;
#72 = DIRECTION ( 'NONE',  ( -0.000000000000000000, -0.000000000000000000, -1.000000000000000000 ) ) ;
#73 = AXIS2_PLACEMENT_3D ( 'NONE', #131, #8, #206 ) ;
#74 = ADVANCED_FACE ( 'NONE', ( #20 ), #210, .F. ) ;
#75 = ORIENTED_EDGE ( 'NONE', *, *, #78, .F. ) ;
#76 = PERSON_AND_ORGANIZATION_ROLE ( 'creator' ) ;
#77 = ORIENTED_EDGE ( 'NONE', *, *, #78, .T. ) ;
#78 = EDGE_CURVE ( 'NONE', #162, #51, #106, .T. ) ;
#79 = CIRCLE ( 'NONE', #173, 5.500000000000000000 ) ;
#80 = ORIENTED_EDGE ( 'NONE', *, *, #17, .T. ) ;
#81 = DIRECTION ( 'NONE',  ( 1.000000000000000000, 0.000000000000000000, 0.000000000000000000 ) ) ;
#82 = PERSON_AND_ORGANIZATION_ROLE ( 'creator' ) ;
#83 = DIRECTION ( 'NONE',  ( 1.000000000000000000, 0.000000000000000000, 0.000000000000000000 ) ) ;
#84 = VERTEX_POINT ( 'NONE', #66 ) ;
#85 = CC_DESIGN_PERSON_AND_ORGANIZATION_ASSIGNMENT ( #295, #134, ( #102 ) ) ;
#86 = TOROIDAL_SURFACE ( 'NONE', #126, 5.699999999999999289, 0.2000000000000000111 ) ;
#87 = FACE_OUTER_BOUND ( 'NONE', #56, .T. ) ;
#88 = DIRECTION ( 'NONE',  ( 0.000000000000000000, 0.000000000000000000, 1.000000000000000000 ) ) ;
#89 = CARTESIAN_POINT ( 'NONE',  ( -8.000000000000000000, 0.000000000000000000, 0.000000000000000000 ) ) ;
#90 = AXIS2_PLACEMENT_3D ( 'NONE', #65, #112, #22 ) ;
#91 = CARTESIAN_POINT ( 'NONE',  ( 0.000000000000000000, 0.000000000000000000, 5.000000000000000000 ) ) ;
#92 = DIRECTION ( 'NONE',  ( 1.000000000000000000, 0.000000000000000000, 0.000000000000000000 ) ) ;
#93 = EDGE_CURVE ( 'NONE', #198, #276, #189, .T. ) ;
#94 =( NAMED_UNIT ( * ) PLANE_ANGLE_UNIT ( ) SI_UNIT ( $, .RADIAN. ) );
#95 = ORIENTED_EDGE ( 'NONE', *, *, #7, .F. ) ;
#96 = CC_DESIGN_APPROVAL ( #115, ( #119 ) ) ;
#97 = VERTEX_POINT ( 'NONE', #190 ) ;
#98 = FACE_OUTER_BOUND ( 'NONE', #36, .T. ) ;
#99 = ORIENTED_EDGE ( 'NONE', *, *, #104, .F. ) ;
#100 = CC_DESIGN_PERSON_AND_ORGANIZATION_ASSIGNMENT ( #220, #288, ( #262 ) ) ;
#101 = DIRECTION ( 'NONE',  ( 0.000000000000000000, -1.000000000000000000, 0.000000000000000000 ) ) ;
#102 = SECURITY_CLASSIFICATION ( '', '', #13 ) ;
#103 = FACE_OUTER_BOUND ( 'NONE', #31, .T. ) ;
#104 = EDGE_CURVE ( 'NONE', #97, #198, #79, .T. ) ;
#105 = ORIENTED_EDGE ( 'NONE', *, *, #201, .T. ) ;
#106 = CIRCLE ( 'NONE', #253, 5.699999999999999289 ) ;
#107 = ORIENTED_EDGE ( 'NONE', *, *, #175, .F. ) ;
#108 = COORDINATED_UNIVERSAL_TIME_OFFSET ( 1, 0, .AHEAD. ) ;
#109 = ORIENTED_EDGE ( 'NONE', *, *, #201, .F. ) ;
#110 = PERSON_AND_ORGANIZATION_ROLE ( 'design_supplier' ) ;
#111 = DIRECTION ( 'NONE',  ( -0.000000000000000000, -0.000000000000000000, -1.000000000000000000 ) ) ;
#112 = DIRECTION ( 'NONE',  ( -0.000000000000000000, -0.000000000000000000, -1.000000000000000000 ) ) ;
#113 = CIRCLE ( 'NONE', #69, 8.000000000000000000 ) ;
#114 = DIRECTION ( 'NONE',  ( 1.000000000000000000, 0.000000000000000000, -0.000000000000000000 ) ) ;
#115 = APPROVAL ( #200, 'NEURÈENÝ' ) ;
#116 = CARTESIAN_POINT ( 'NONE',  ( 0.000000000000000000, 0.000000000000000000, 105.0000000000000142 ) ) ;
#117 = CARTESIAN_POINT ( 'NONE',  ( 0.000000000000000000, 0.000000000000000000, 105.0000000000000142 ) ) ;
#118 = LINE ( 'NONE', #216, #191 ) ;
#119 = PRODUCT_DEFINITION ( 'NEZNÁMÝ', '', #215, #249 ) ;
#120 = APPLICATION_PROTOCOL_DEFINITION ( 'international standard', 'config_control_design', 1994, #178 ) ;
#121 =( LENGTH_UNIT ( ) NAMED_UNIT ( * ) SI_UNIT ( .MILLI., .METRE. ) );
#122 = CIRCLE ( 'NONE', #282, 0.1999999999999996503 ) ;
#123 = CARTESIAN_POINT ( 'NONE',  ( 8.000000000000000000, 9.797174393178825657E-16, 0.000000000000000000 ) ) ;
#124 = CALENDAR_DATE ( 2022, 20, 6 ) ;
#125 = DIRECTION ( 'NONE',  ( -0.000000000000000000, -0.000000000000000000, -1.000000000000000000 ) ) ;
#126 = AXIS2_PLACEMENT_3D ( 'NONE', #302, #39, #140 ) ;
#127 = PERSON_AND_ORGANIZATION ( #43, #37 ) ;
#128 = LINE ( 'NONE', #58, #269 ) ;
#129 = MANIFOLD_SOLID_BREP ( 'Zaoblit1', #286 ) ;
#130 = ORIENTED_EDGE ( 'NONE', *, *, #277, .T. ) ;
#131 = CARTESIAN_POINT ( 'NONE',  ( 0.000000000000000000, 0.000000000000000000, 105.0000000000000142 ) ) ;
#132 = DATE_AND_TIME ( #246, #6 ) ;
#133 = CC_DESIGN_APPROVAL ( #35, ( #102 ) ) ;
#134 = PERSON_AND_ORGANIZATION_ROLE ( 'classification_officer' ) ;
#135 = LINE ( 'NONE', #57, #244 ) ;
#136 = CARTESIAN_POINT ( 'NONE',  ( 5.500000000000000000, 6.735557395310442023E-16, 105.0000000000000142 ) ) ;
#137 = CARTESIAN_POINT ( 'NONE',  ( 0.000000000000000000, 0.000000000000000000, 5.000000000000000000 ) ) ;
#138 = APPROVAL_PERSON_ORGANIZATION ( #143, #64, #217 ) ;
#139 = CARTESIAN_POINT ( 'NONE',  ( 0.000000000000000000, 0.000000000000000000, 0.000000000000000000 ) ) ;
#140 = DIRECTION ( 'NONE',  ( 1.000000000000000000, 0.000000000000000000, 0.000000000000000000 ) ) ;
#141 = DIRECTION ( 'NONE',  ( 0.000000000000000000, 0.000000000000000000, 1.000000000000000000 ) ) ;
#142 = CC_DESIGN_PERSON_AND_ORGANIZATION_ASSIGNMENT ( #127, #82, ( #215 ) ) ;
#143 = PERSON_AND_ORGANIZATION ( #43, #37 ) ;
#144 = DATE_AND_TIME ( #219, #59 ) ;
#145 = CALENDAR_DATE ( 2022, 20, 6 ) ;
#146 = PRODUCT_RELATED_PRODUCT_CATEGORY ( 'detail', '', ( #262 ) ) ;
#147 = AXIS2_PLACEMENT_3D ( 'NONE', #291, #125, #267 ) ;
#148 = FACE_OUTER_BOUND ( 'NONE', #226, .T. ) ;
#149 = UNCERTAINTY_MEASURE_WITH_UNIT (LENGTH_MEASURE( 1.000000000000000082E-05 ), #121, 'distance_accuracy_value', 'NONE');
#150 = ADVANCED_BREP_SHAPE_REPRESENTATION ( '3a68', ( #129, #19 ), #231 ) ;
#151 = CARTESIAN_POINT ( 'NONE',  ( 5.500000000000000000, 6.735557395310442023E-16, 5.199999999999996625 ) ) ;
#152 = VERTEX_POINT ( 'NONE', #260 ) ;
#153 = COORDINATED_UNIVERSAL_TIME_OFFSET ( 1, 0, .AHEAD. ) ;
#154 = DATE_AND_TIME ( #250, #299 ) ;
#155 = EDGE_LOOP ( 'NONE', ( #207, #289 ) ) ;
#156 = PERSON_AND_ORGANIZATION ( #43, #37 ) ;
#157 = ORIENTED_EDGE ( 'NONE', *, *, #277, .F. ) ;
#158 = APPROVAL_DATE_TIME ( #154, #35 ) ;
#159 = CARTESIAN_POINT ( 'NONE',  ( -5.699999999999999289, 6.980486755139912122E-16, 4.999999999999998224 ) ) ;
#160 = EDGE_CURVE ( 'NONE', #251, #272, #113, .T. ) ;
#161 = AXIS2_PLACEMENT_3D ( 'NONE', #170, #214, #45 ) ;
#162 = VERTEX_POINT ( 'NONE', #212 ) ;
#163 = ORIENTED_EDGE ( 'NONE', *, *, #23, .F. ) ;
#164 = ADVANCED_FACE ( 'NONE', ( #237 ), #62, .T. ) ;
#165 = DIRECTION ( 'NONE',  ( 0.000000000000000000, 0.000000000000000000, 1.000000000000000000 ) ) ;
#166 = DIRECTION ( 'NONE',  ( 1.000000000000000000, 0.000000000000000000, 0.000000000000000000 ) ) ;
#167 = AXIS2_PLACEMENT_3D ( 'NONE', #91, #25, #18 ) ;
#168 = PRODUCT_DEFINITION_SHAPE ( 'NONE', 'NONE',  #119 ) ;
#169 = DIRECTION ( 'NONE',  ( 1.000000000000000000, 0.000000000000000000, 0.000000000000000000 ) ) ;
#170 = CARTESIAN_POINT ( 'NONE',  ( 0.000000000000000000, 0.000000000000000000, 5.000000000000000000 ) ) ;
#171 = CC_DESIGN_PERSON_AND_ORGANIZATION_ASSIGNMENT ( #4, #76, ( #119 ) ) ;
#172 = DIRECTION ( 'NONE',  ( 1.000000000000000000, 0.000000000000000000, -0.000000000000000000 ) ) ;
#173 = AXIS2_PLACEMENT_3D ( 'NONE', #116, #63, #166 ) ;
#174 = APPROVAL_ROLE ( '' ) ;
#175 = EDGE_CURVE ( 'NONE', #276, #152, #258, .T. ) ;
#176 = PERSON_AND_ORGANIZATION ( #43, #37 ) ;
#177 = DIRECTION ( 'NONE',  ( 0.000000000000000000, 0.000000000000000000, -1.000000000000000000 ) ) ;
#178 = APPLICATION_CONTEXT ( 'configuration controlled 3d designs of mechanical parts and assemblies' ) ;
#179 = EDGE_CURVE ( 'NONE', #84, #232, #290, .T. ) ;
#180 = ORIENTED_EDGE ( 'NONE', *, *, #197, .T. ) ;
#181 = AXIS2_PLACEMENT_3D ( 'NONE', #211, #88, #114 ) ;
#182 = ORIENTED_EDGE ( 'NONE', *, *, #27, .F. ) ;
#183 = ORIENTED_EDGE ( 'NONE', *, *, #93, .F. ) ;
#184 = ORIENTED_EDGE ( 'NONE', *, *, #7, .T. ) ;
#185 = AXIS2_PLACEMENT_3D ( 'NONE', #11, #202, #81 ) ;
#186 = EDGE_LOOP ( 'NONE', ( #77, #105 ) ) ;
#187 = CC_DESIGN_SECURITY_CLASSIFICATION ( #102, ( #215 ) ) ;
#188 = CYLINDRICAL_SURFACE ( 'NONE', #24, 8.000000000000000000 ) ;
#189 = LINE ( 'NONE', #281, #218 ) ;
#190 = CARTESIAN_POINT ( 'NONE',  ( -5.500000000000000000, 0.000000000000000000, 105.0000000000000142 ) ) ;
#191 = VECTOR ( 'NONE', #300, 1000.000000000000000 ) ;
#192 = APPLICATION_CONTEXT ( 'configuration controlled 3d designs of mechanical parts and assemblies' ) ;
#193 = CARTESIAN_POINT ( 'NONE',  ( -5.699999999999999289, 6.980486755139912122E-16, 5.199999999999996625 ) ) ;
#194 = DIRECTION ( 'NONE',  ( -0.000000000000000000, -0.000000000000000000, -1.000000000000000000 ) ) ;
#195 = EDGE_LOOP ( 'NONE', ( #248, #163 ) ) ;
#196 = LOCAL_TIME ( 11, 36, 27.00000000000000000, #266 ) ;
#197 = EDGE_CURVE ( 'NONE', #152, #51, #122, .T. ) ;
#198 = VERTEX_POINT ( 'NONE', #136 ) ;
#199 = APPROVAL_PERSON_ORGANIZATION ( #176, #115, #174 ) ;
#200 = APPROVAL_STATUS ( 'not_yet_approved' ) ;
#201 = EDGE_CURVE ( 'NONE', #51, #162, #278, .T. ) ;
#202 = DIRECTION ( 'NONE',  ( 0.000000000000000000, 0.000000000000000000, 1.000000000000000000 ) ) ;
#203 = ORIENTED_EDGE ( 'NONE', *, *, #27, .T. ) ;
#204 = CC_DESIGN_DATE_AND_TIME_ASSIGNMENT ( #132, #15, ( #102 ) ) ;
#205 = CIRCLE ( 'NONE', #209, 8.000000000000000000 ) ;
#206 = DIRECTION ( 'NONE',  ( -1.000000000000000000, 0.000000000000000000, 0.000000000000000000 ) ) ;
#207 = ORIENTED_EDGE ( 'NONE', *, *, #104, .T. ) ;
#208 = DIRECTION ( 'NONE',  ( 0.000000000000000000, 0.000000000000000000, 1.000000000000000000 ) ) ;
#209 = AXIS2_PLACEMENT_3D ( 'NONE', #38, #53, #83 ) ;
#210 = PLANE ( 'NONE',  #181 ) ;
#211 = CARTESIAN_POINT ( 'NONE',  ( 0.000000000000000000, 0.000000000000000000, 0.000000000000000000 ) ) ;
#212 = CARTESIAN_POINT ( 'NONE',  ( 5.699999999999999289, 0.000000000000000000, 4.999999999999998224 ) ) ;
#213 = EDGE_CURVE ( 'NONE', #198, #97, #294, .T. ) ;
#214 = DIRECTION ( 'NONE',  ( -0.000000000000000000, -0.000000000000000000, -1.000000000000000000 ) ) ;
#215 = PRODUCT_DEFINITION_FORMATION_WITH_SPECIFIED_SOURCE ( 'LIBOVOLNÝ', '', #262, .NOT_KNOWN. ) ;
#216 = CARTESIAN_POINT ( 'NONE',  ( -5.500000000000000000, 0.000000000000000000, 105.0000000000000142 ) ) ;
#217 = APPROVAL_ROLE ( '' ) ;
#218 = VECTOR ( 'NONE', #194, 1000.000000000000000 ) ;
#219 = CALENDAR_DATE ( 2022, 20, 6 ) ;
#220 = PERSON_AND_ORGANIZATION ( #43, #37 ) ;
#221 = ADVANCED_FACE ( 'NONE', ( #234 ), #284, .T. ) ;
#222 = DIRECTION ( 'NONE',  ( 0.000000000000000000, 0.000000000000000000, 1.000000000000000000 ) ) ;
#223 = APPROVAL_PERSON_ORGANIZATION ( #9, #35, #229 ) ;
#224 = AXIS2_PLACEMENT_3D ( 'NONE', #21, #141, #303 ) ;
#225 = SHAPE_DEFINITION_REPRESENTATION ( #168, #150 ) ;
#226 = EDGE_LOOP ( 'NONE', ( #279, #297, #16, #71 ) ) ;
#227 = ORIENTED_EDGE ( 'NONE', *, *, #197, .F. ) ;
#228 = ADVANCED_FACE ( 'NONE', ( #280, #40 ), #305, .T. ) ;
#229 = APPROVAL_ROLE ( '' ) ;
#230 = DIRECTION ( 'NONE',  ( -0.000000000000000000, -0.000000000000000000, -1.000000000000000000 ) ) ;
#231 =( GEOMETRIC_REPRESENTATION_CONTEXT ( 3 ) GLOBAL_UNCERTAINTY_ASSIGNED_CONTEXT ( ( #149 ) ) GLOBAL_UNIT_ASSIGNED_CONTEXT ( ( #121, #94, #26 ) ) REPRESENTATION_CONTEXT ( 'NONE', 'WORKASPACE' ) );
#232 = VERTEX_POINT ( 'NONE', #283 ) ;
#233 = ORIENTED_EDGE ( 'NONE', *, *, #17, .F. ) ;
#234 = FACE_OUTER_BOUND ( 'NONE', #155, .T. ) ;
#235 = AXIS2_PLACEMENT_3D ( 'NONE', #5, #307, #242 ) ;
#236 = DIRECTION ( 'NONE',  ( 1.000000000000000000, 0.000000000000000000, 0.000000000000000000 ) ) ;
#237 = FACE_OUTER_BOUND ( 'NONE', #14, .T. ) ;
#238 = DIRECTION ( 'NONE',  ( 0.000000000000000000, 0.000000000000000000, 1.000000000000000000 ) ) ;
#239 = DIRECTION ( 'NONE',  ( -1.000000000000000000, 1.224646799147353454E-16, 0.000000000000000000 ) ) ;
#240 = CC_DESIGN_APPROVAL ( #64, ( #215 ) ) ;
#241 = APPROVAL_STATUS ( 'not_yet_approved' ) ;
#242 = DIRECTION ( 'NONE',  ( 1.000000000000000000, 0.000000000000000000, 0.000000000000000000 ) ) ;
#243 = DATE_AND_TIME ( #145, #273 ) ;
#244 = VECTOR ( 'NONE', #111, 1000.000000000000000 ) ;
#245 = CARTESIAN_POINT ( 'NONE',  ( 0.000000000000000000, 0.000000000000000000, 0.000000000000000000 ) ) ;
#246 = CALENDAR_DATE ( 2022, 20, 6 ) ;
#247 = AXIS2_PLACEMENT_3D ( 'NONE', #257, #165, #169 ) ;
#248 = ORIENTED_EDGE ( 'NONE', *, *, #160, .F. ) ;
#249 = DESIGN_CONTEXT ( 'detailed design', #192, 'design' ) ;
#250 = CALENDAR_DATE ( 2022, 20, 6 ) ;
#251 = VERTEX_POINT ( 'NONE', #89 ) ;
#252 = CARTESIAN_POINT ( 'NONE',  ( 0.000000000000000000, 0.000000000000000000, 5.199999999999996625 ) ) ;
#253 = AXIS2_PLACEMENT_3D ( 'NONE', #42, #306, #92 ) ;
#254 = ORIENTED_EDGE ( 'NONE', *, *, #23, .T. ) ;
#255 = EDGE_CURVE ( 'NONE', #97, #152, #118, .T. ) ;
#256 = ORIENTED_EDGE ( 'NONE', *, *, #179, .T. ) ;
#257 = CARTESIAN_POINT ( 'NONE',  ( 0.000000000000000000, 0.000000000000000000, 5.000000000000000000 ) ) ;
#258 = CIRCLE ( 'NONE', #304, 5.500000000000000000 ) ;
#259 = CC_DESIGN_DATE_AND_TIME_ASSIGNMENT ( #243, #265, ( #119 ) ) ;
#260 = CARTESIAN_POINT ( 'NONE',  ( -5.500000000000000000, 0.000000000000000000, 5.199999999999996625 ) ) ;
#261 = DIRECTION ( 'NONE',  ( 1.000000000000000000, 0.000000000000000000, 0.000000000000000000 ) ) ;
#262 = PRODUCT ( '3a68', '3a68', '', ( #287 ) ) ;
#263 = DIRECTION ( 'NONE',  ( 0.000000000000000000, 0.000000000000000000, 1.000000000000000000 ) ) ;
#264 = AXIS2_PLACEMENT_3D ( 'NONE', #117, #285, #172 ) ;
#265 = DATE_TIME_ROLE ( 'creation_date' ) ;
#266 = COORDINATED_UNIVERSAL_TIME_OFFSET ( 1, 0, .AHEAD. ) ;
#267 = DIRECTION ( 'NONE',  ( -1.000000000000000000, 0.000000000000000000, 0.000000000000000000 ) ) ;
#268 = ADVANCED_FACE ( 'NONE', ( #87 ), #188, .T. ) ;
#269 = VECTOR ( 'NONE', #230, 1000.000000000000000 ) ;
#270 = CARTESIAN_POINT ( 'NONE',  ( 5.699999999999999289, 0.000000000000000000, 5.199999999999996625 ) ) ;
#271 = ADVANCED_FACE ( 'NONE', ( #148 ), #50, .T. ) ;
#272 = VERTEX_POINT ( 'NONE', #123 ) ;
#273 = LOCAL_TIME ( 11, 36, 27.00000000000000000, #47 ) ;
#274 = ORIENTED_EDGE ( 'NONE', *, *, #55, .T. ) ;
#275 = ORIENTED_EDGE ( 'NONE', *, *, #160, .T. ) ;
#276 = VERTEX_POINT ( 'NONE', #151 ) ;
#277 = EDGE_CURVE ( 'NONE', #276, #162, #12, .T. ) ;
#278 = CIRCLE ( 'NONE', #161, 5.699999999999999289 ) ;
#279 = ORIENTED_EDGE ( 'NONE', *, *, #213, .F. ) ;
#280 = FACE_BOUND ( 'NONE', #186, .T. ) ;
#281 = CARTESIAN_POINT ( 'NONE',  ( 5.500000000000000000, 6.735557395310442023E-16, 105.0000000000000142 ) ) ;
#282 = AXIS2_PLACEMENT_3D ( 'NONE', #193, #44, #239 ) ;
#283 = CARTESIAN_POINT ( 'NONE',  ( -8.000000000000000000, 0.000000000000000000, 5.000000000000000000 ) ) ;
#284 = PLANE ( 'NONE',  #264 ) ;
#285 = DIRECTION ( 'NONE',  ( 0.000000000000000000, 0.000000000000000000, 1.000000000000000000 ) ) ;
#286 = CLOSED_SHELL ( 'NONE', ( #68, #271, #268, #164, #228, #74, #2, #221, #301 ) ) ;
#287 = MECHANICAL_CONTEXT ( 'NONE', #178, 'mechanical' ) ;
#288 = PERSON_AND_ORGANIZATION_ROLE ( 'design_owner' ) ;
#289 = ORIENTED_EDGE ( 'NONE', *, *, #213, .T. ) ;
#290 = CIRCLE ( 'NONE', #247, 8.000000000000000000 ) ;
#291 = CARTESIAN_POINT ( 'NONE',  ( 0.000000000000000000, 0.000000000000000000, 105.0000000000000142 ) ) ;
#292 = EDGE_LOOP ( 'NONE', ( #60, #180, #75, #157 ) ) ;
#293 = ORIENTED_EDGE ( 'NONE', *, *, #179, .F. ) ;
#294 = CIRCLE ( 'NONE', #224, 5.500000000000000000 ) ;
#295 = PERSON_AND_ORGANIZATION ( #43, #37 ) ;
#296 = ORIENTED_EDGE ( 'NONE', *, *, #255, .T. ) ;
#297 = ORIENTED_EDGE ( 'NONE', *, *, #93, .T. ) ;
#298 = DIRECTION ( 'NONE',  ( 1.000000000000000000, 0.000000000000000000, 0.000000000000000000 ) ) ;
#299 = LOCAL_TIME ( 11, 36, 27.00000000000000000, #108 ) ;
#300 = DIRECTION ( 'NONE',  ( -0.000000000000000000, -0.000000000000000000, -1.000000000000000000 ) ) ;
#301 = ADVANCED_FACE ( 'NONE', ( #98 ), #46, .F. ) ;
#302 = CARTESIAN_POINT ( 'NONE',  ( 0.000000000000000000, 0.000000000000000000, 5.199999999999996625 ) ) ;
#303 = DIRECTION ( 'NONE',  ( 1.000000000000000000, 0.000000000000000000, 0.000000000000000000 ) ) ;
#304 = AXIS2_PLACEMENT_3D ( 'NONE', #67, #263, #261 ) ;
#305 = PLANE ( 'NONE',  #167 ) ;
#306 = DIRECTION ( 'NONE',  ( -0.000000000000000000, -0.000000000000000000, -1.000000000000000000 ) ) ;
#307 = DIRECTION ( 'NONE',  ( 0.000000000000000000, 0.000000000000000000, 1.000000000000000000 ) ) ;
ENDSEC;
END-ISO-10303-21;
