ISO-10303-21;
HEADER;
FILE_DESCRIPTION (( 'STEP AP203' ),
    '1' );
FILE_NAME ('f27c.STEP',
    '2022-06-20T09:53:06',
    ( '' ),
    ( '' ),
    'SwSTEP 2.0',
    'SolidWorks 2019',
    '' );
FILE_SCHEMA (( 'CONFIG_CONTROL_DESIGN' ));
ENDSEC;

DATA;
#1 = CARTESIAN_POINT ( 'NONE',  ( 6.000000000000000888, 7.347880794884120722E-16, 5.000000000000000000 ) ) ;
#2 = VECTOR ( 'NONE', #136, 1000.000000000000000 ) ;
#3 = DIRECTION ( 'NONE',  ( 1.224646799147353207E-16, 1.000000000000000000, -0.000000000000000000 ) ) ;
#4 = CARTESIAN_POINT ( 'NONE',  ( 6.000000000000000888, 7.347880794884120722E-16, 5.000000000000000000 ) ) ;
#5 = CARTESIAN_POINT ( 'NONE',  ( 0.000000000000000000, 0.000000000000000000, 165.0000000000000000 ) ) ;
#6 = PERSON_AND_ORGANIZATION ( #101, #259 ) ;
#7 = EDGE_CURVE ( 'NONE', #33, #73, #131, .T. ) ;
#8 =( NAMED_UNIT ( * ) SI_UNIT ( $, .STERADIAN. ) SOLID_ANGLE_UNIT ( ) );
#9 = CIRCLE ( 'NONE', #16, 6.000000000000000888 ) ;
#10 = DIRECTION ( 'NONE',  ( 0.000000000000000000, 0.000000000000000000, 1.000000000000000000 ) ) ;
#11 = AXIS2_PLACEMENT_3D ( 'NONE', #156, #31, #247 ) ;
#12 = EDGE_CURVE ( 'NONE', #275, #278, #158, .T. ) ;
#13 = CARTESIAN_POINT ( 'NONE',  ( -3.500000000000000000, 0.000000000000000000, 165.0000000000000000 ) ) ;
#14 = EDGE_LOOP ( 'NONE', ( #124, #180, #45, #231 ) ) ;
#15 = VERTEX_POINT ( 'NONE', #207 ) ;
#16 = AXIS2_PLACEMENT_3D ( 'NONE', #147, #20, #235 ) ;
#17 = ADVANCED_FACE ( 'NONE', ( #251 ), #39, .T. ) ;
#18 = EDGE_LOOP ( 'NONE', ( #59, #170 ) ) ;
#19 = EDGE_LOOP ( 'NONE', ( #65, #89 ) ) ;
#20 = DIRECTION ( 'NONE',  ( 0.000000000000000000, 0.000000000000000000, 1.000000000000000000 ) ) ;
#21 = DIRECTION ( 'NONE',  ( 1.000000000000000000, 0.000000000000000000, 0.000000000000000000 ) ) ;
#22 = AXIS2_PLACEMENT_3D ( 'NONE', #171, #91, #21 ) ;
#23 = DIRECTION ( 'NONE',  ( 0.000000000000000000, 0.000000000000000000, 1.000000000000000000 ) ) ;
#24 = CYLINDRICAL_SURFACE ( 'NONE', #227, 6.000000000000000888 ) ;
#25 = CARTESIAN_POINT ( 'NONE',  ( 0.000000000000000000, 0.000000000000000000, 5.000000000000000000 ) ) ;
#26 = APPROVAL ( #295, 'NEURÈENÝ' ) ;
#27 = AXIS2_PLACEMENT_3D ( 'NONE', #121, #3, #72 ) ;
#28 = APPLICATION_PROTOCOL_DEFINITION ( 'international standard', 'config_control_design', 1994, #294 ) ;
#29 = APPROVAL_ROLE ( '' ) ;
#30 =( NAMED_UNIT ( * ) PLANE_ANGLE_UNIT ( ) SI_UNIT ( $, .RADIAN. ) );
#31 = DIRECTION ( 'NONE',  ( 0.000000000000000000, 0.000000000000000000, 1.000000000000000000 ) ) ;
#32 = ADVANCED_BREP_SHAPE_REPRESENTATION ( 'f27c', ( #233, #243 ), #212 ) ;
#33 = VERTEX_POINT ( 'NONE', #255 ) ;
#34 = CC_DESIGN_DATE_AND_TIME_ASSIGNMENT ( #299, #152, ( #76 ) ) ;
#35 = FACE_OUTER_BOUND ( 'NONE', #18, .T. ) ;
#36 = ORIENTED_EDGE ( 'NONE', *, *, #130, .F. ) ;
#37 = DIRECTION ( 'NONE',  ( -0.000000000000000000, -0.000000000000000000, -1.000000000000000000 ) ) ;
#38 = CC_DESIGN_PERSON_AND_ORGANIZATION_ASSIGNMENT ( #109, #135, ( #47 ) ) ;
#39 = PLANE ( 'NONE',  #290 ) ;
#40 = AXIS2_PLACEMENT_3D ( 'NONE', #187, #214, #97 ) ;
#41 = DIRECTION ( 'NONE',  ( 1.000000000000000000, 0.000000000000000000, 0.000000000000000000 ) ) ;
#42 = DIRECTION ( 'NONE',  ( -0.000000000000000000, -0.000000000000000000, -1.000000000000000000 ) ) ;
#43 = EDGE_CURVE ( 'NONE', #179, #57, #305, .T. ) ;
#44 = CARTESIAN_POINT ( 'NONE',  ( 0.000000000000000000, 0.000000000000000000, 5.000000000000000000 ) ) ;
#45 = ORIENTED_EDGE ( 'NONE', *, *, #159, .T. ) ;
#46 = CLOSED_SHELL ( 'NONE', ( #222, #113, #201, #71, #88, #58, #288, #17, #248 ) ) ;
#47 = SECURITY_CLASSIFICATION ( '', '', #51 ) ;
#48 = PLANE ( 'NONE',  #40 ) ;
#49 = DIRECTION ( 'NONE',  ( 1.000000000000000000, 0.000000000000000000, 0.000000000000000000 ) ) ;
#50 = CC_DESIGN_PERSON_AND_ORGANIZATION_ASSIGNMENT ( #216, #107, ( #139 ) ) ;
#51 = SECURITY_CLASSIFICATION_LEVEL ( 'unclassified' ) ;
#52 = PERSON_AND_ORGANIZATION_ROLE ( 'creator' ) ;
#53 = CYLINDRICAL_SURFACE ( 'NONE', #228, 3.500000000000000000 ) ;
#54 = AXIS2_PLACEMENT_3D ( 'NONE', #193, #96, #144 ) ;
#55 = APPROVAL_ROLE ( '' ) ;
#56 = CIRCLE ( 'NONE', #301, 6.000000000000000888 ) ;
#57 = VERTEX_POINT ( 'NONE', #186 ) ;
#58 = ADVANCED_FACE ( 'NONE', ( #35 ), #134, .F. ) ;
#59 = ORIENTED_EDGE ( 'NONE', *, *, #296, .F. ) ;
#60 = SHAPE_DEFINITION_REPRESENTATION ( #266, #32 ) ;
#61 = CARTESIAN_POINT ( 'NONE',  ( 0.000000000000000000, 0.000000000000000000, 5.000000000000000000 ) ) ;
#62 = CIRCLE ( 'NONE', #105, 0.1999999999999996503 ) ;
#63 = DATE_AND_TIME ( #84, #238 ) ;
#64 = CC_DESIGN_PERSON_AND_ORGANIZATION_ASSIGNMENT ( #217, #178, ( #76 ) ) ;
#65 = ORIENTED_EDGE ( 'NONE', *, *, #98, .T. ) ;
#66 = FACE_OUTER_BOUND ( 'NONE', #137, .T. ) ;
#67 = CIRCLE ( 'NONE', #22, 3.700000000000000178 ) ;
#68 = ORIENTED_EDGE ( 'NONE', *, *, #283, .F. ) ;
#69 = APPROVAL_PERSON_ORGANIZATION ( #176, #234, #55 ) ;
#70 = CARTESIAN_POINT ( 'NONE',  ( -3.700000000000000178, 4.531193156845206201E-16, 5.000000000000005329 ) ) ;
#71 = ADVANCED_FACE ( 'NONE', ( #66 ), #87, .T. ) ;
#72 = DIRECTION ( 'NONE',  ( -1.000000000000000000, 1.224646799147350742E-16, 0.000000000000000000 ) ) ;
#73 = VERTEX_POINT ( 'NONE', #230 ) ;
#74 = DIRECTION ( 'NONE',  ( -0.000000000000000000, -0.000000000000000000, -1.000000000000000000 ) ) ;
#75 = DIRECTION ( 'NONE',  ( 1.000000000000000000, 0.000000000000000000, 0.000000000000000000 ) ) ;
#76 = PRODUCT_DEFINITION ( 'NEZNÁMÝ', '', #292, #163 ) ;
#77 = CALENDAR_DATE ( 2022, 20, 6 ) ;
#78 = APPLICATION_PROTOCOL_DEFINITION ( 'international standard', 'config_control_design', 1994, #175 ) ;
#79 = VECTOR ( 'NONE', #115, 1000.000000000000000 ) ;
#80 = PERSON_AND_ORGANIZATION ( #101, #259 ) ;
#81 = TOROIDAL_SURFACE ( 'NONE', #196, 3.700000000000000178, 0.2000000000000000111 ) ;
#82 = EDGE_CURVE ( 'NONE', #275, #112, #220, .T. ) ;
#83 = ORIENTED_EDGE ( 'NONE', *, *, #296, .T. ) ;
#84 = CALENDAR_DATE ( 2022, 20, 6 ) ;
#85 = EDGE_LOOP ( 'NONE', ( #209, #224, #276, #164 ) ) ;
#86 = DATE_AND_TIME ( #182, #133 ) ;
#87 = CYLINDRICAL_SURFACE ( 'NONE', #138, 6.000000000000000888 ) ;
#88 = ADVANCED_FACE ( 'NONE', ( #123, #172 ), #48, .T. ) ;
#89 = ORIENTED_EDGE ( 'NONE', *, *, #141, .T. ) ;
#90 = DIRECTION ( 'NONE',  ( 1.000000000000000000, 0.000000000000000000, 0.000000000000000000 ) ) ;
#91 = DIRECTION ( 'NONE',  ( -0.000000000000000000, -0.000000000000000000, -1.000000000000000000 ) ) ;
#92 = ORIENTED_EDGE ( 'NONE', *, *, #43, .F. ) ;
#93 = CARTESIAN_POINT ( 'NONE',  ( 0.000000000000000000, 0.000000000000000000, 165.0000000000000000 ) ) ;
#94 = EDGE_CURVE ( 'NONE', #112, #275, #236, .T. ) ;
#95 = LOCAL_TIME ( 11, 53, 6.000000000000000000, #219 ) ;
#96 = DIRECTION ( 'NONE',  ( 0.000000000000000000, 0.000000000000000000, 1.000000000000000000 ) ) ;
#97 = DIRECTION ( 'NONE',  ( 1.000000000000000000, 0.000000000000000000, -0.000000000000000000 ) ) ;
#98 = EDGE_CURVE ( 'NONE', #33, #15, #195, .T. ) ;
#99 = CYLINDRICAL_SURFACE ( 'NONE', #160, 3.500000000000000000 ) ;
#100 = AXIS2_PLACEMENT_3D ( 'NONE', #93, #267, #49 ) ;
#101 = PERSON ( 'NEURÈENÝ', 'NEURÈENÝ', 'NEURÈENÝ', ('NEURÈENÝ'), ('NEURÈENÝ'), ('NEURÈENÝ') ) ;
#102 = COORDINATED_UNIVERSAL_TIME_OFFSET ( 1, 0, .AHEAD. ) ;
#103 = DATE_AND_TIME ( #106, #110 ) ;
#104 = DIRECTION ( 'NONE',  ( -0.000000000000000000, -0.000000000000000000, -1.000000000000000000 ) ) ;
#105 = AXIS2_PLACEMENT_3D ( 'NONE', #189, #146, #125 ) ;
#106 = CALENDAR_DATE ( 2022, 20, 6 ) ;
#107 = PERSON_AND_ORGANIZATION_ROLE ( 'design_owner' ) ;
#108 = CIRCLE ( 'NONE', #11, 3.500000000000000000 ) ;
#109 = PERSON_AND_ORGANIZATION ( #101, #259 ) ;
#110 = LOCAL_TIME ( 11, 53, 6.000000000000000000, #102 ) ;
#111 = EDGE_LOOP ( 'NONE', ( #279, #157, #36, #185 ) ) ;
#112 = VERTEX_POINT ( 'NONE', #1 ) ;
#113 = ADVANCED_FACE ( 'NONE', ( #263 ), #99, .T. ) ;
#114 = ORIENTED_EDGE ( 'NONE', *, *, #283, .T. ) ;
#115 = DIRECTION ( 'NONE',  ( -0.000000000000000000, -0.000000000000000000, -1.000000000000000000 ) ) ;
#116 = CIRCLE ( 'NONE', #154, 3.500000000000000000 ) ;
#117 = CC_DESIGN_SECURITY_CLASSIFICATION ( #47, ( #292 ) ) ;
#118 = ORIENTED_EDGE ( 'NONE', *, *, #12, .T. ) ;
#119 = ORIENTED_EDGE ( 'NONE', *, *, #7, .F. ) ;
#120 = EDGE_CURVE ( 'NONE', #112, #190, #289, .T. ) ;
#121 = CARTESIAN_POINT ( 'NONE',  ( -3.700000000000000178, 4.531193156845206201E-16, 5.200000000000009948 ) ) ;
#122 = DIRECTION ( 'NONE',  ( -1.000000000000000000, 0.000000000000000000, 0.000000000000000000 ) ) ;
#123 = FACE_BOUND ( 'NONE', #257, .T. ) ;
#124 = ORIENTED_EDGE ( 'NONE', *, *, #94, .F. ) ;
#125 = DIRECTION ( 'NONE',  ( 0.000000000000000000, 0.000000000000000000, -1.000000000000000000 ) ) ;
#126 = DIRECTION ( 'NONE',  ( 1.000000000000000000, 0.000000000000000000, 0.000000000000000000 ) ) ;
#127 = VECTOR ( 'NONE', #42, 1000.000000000000000 ) ;
#128 = DIRECTION ( 'NONE',  ( 0.000000000000000000, 0.000000000000000000, 1.000000000000000000 ) ) ;
#129 = CARTESIAN_POINT ( 'NONE',  ( 0.000000000000000000, 0.000000000000000000, 0.000000000000000000 ) ) ;
#130 = EDGE_CURVE ( 'NONE', #57, #179, #67, .T. ) ;
#131 = LINE ( 'NONE', #13, #79 ) ;
#132 = APPROVAL_DATE_TIME ( #63, #149 ) ;
#133 = LOCAL_TIME ( 11, 53, 6.000000000000000000, #200 ) ;
#134 = PLANE ( 'NONE',  #265 ) ;
#135 = PERSON_AND_ORGANIZATION_ROLE ( 'classification_officer' ) ;
#136 = DIRECTION ( 'NONE',  ( -0.000000000000000000, -0.000000000000000000, -1.000000000000000000 ) ) ;
#137 = EDGE_LOOP ( 'NONE', ( #264, #226, #118, #83 ) ) ;
#138 = AXIS2_PLACEMENT_3D ( 'NONE', #140, #161, #254 ) ;
#139 = PRODUCT ( 'f27c', 'f27c', '', ( #273 ) ) ;
#140 = CARTESIAN_POINT ( 'NONE',  ( 0.000000000000000000, 0.000000000000000000, 5.000000000000000000 ) ) ;
#141 = EDGE_CURVE ( 'NONE', #15, #33, #145, .T. ) ;
#142 = CARTESIAN_POINT ( 'NONE',  ( 3.500000000000000000, 4.286263797015736595E-16, 5.200000000000009948 ) ) ;
#143 = DIRECTION ( 'NONE',  ( -0.000000000000000000, -0.000000000000000000, -1.000000000000000000 ) ) ;
#144 = DIRECTION ( 'NONE',  ( 1.000000000000000000, 0.000000000000000000, 0.000000000000000000 ) ) ;
#145 = CIRCLE ( 'NONE', #100, 3.500000000000000000 ) ;
#146 = DIRECTION ( 'NONE',  ( 0.000000000000000000, -1.000000000000000000, 0.000000000000000000 ) ) ;
#147 = CARTESIAN_POINT ( 'NONE',  ( 0.000000000000000000, 0.000000000000000000, 0.000000000000000000 ) ) ;
#148 = DIRECTION ( 'NONE',  ( 0.000000000000000000, 0.000000000000000000, 1.000000000000000000 ) ) ;
#149 = APPROVAL ( #204, 'NEURÈENÝ' ) ;
#150 = DIRECTION ( 'NONE',  ( -1.000000000000000000, 0.000000000000000000, 0.000000000000000000 ) ) ;
#151 = PERSON_AND_ORGANIZATION_ROLE ( 'design_supplier' ) ;
#152 = DATE_TIME_ROLE ( 'creation_date' ) ;
#153 = EDGE_CURVE ( 'NONE', #256, #57, #62, .T. ) ;
#154 = AXIS2_PLACEMENT_3D ( 'NONE', #240, #287, #286 ) ;
#155 = CC_DESIGN_APPROVAL ( #234, ( #76 ) ) ;
#156 = CARTESIAN_POINT ( 'NONE',  ( 0.000000000000000000, 0.000000000000000000, 5.200000000000009948 ) ) ;
#157 = ORIENTED_EDGE ( 'NONE', *, *, #274, .T. ) ;
#158 = LINE ( 'NONE', #223, #2 ) ;
#159 = EDGE_CURVE ( 'NONE', #190, #278, #9, .T. ) ;
#160 = AXIS2_PLACEMENT_3D ( 'NONE', #268, #143, #237 ) ;
#161 = DIRECTION ( 'NONE',  ( -0.000000000000000000, -0.000000000000000000, -1.000000000000000000 ) ) ;
#162 = DIRECTION ( 'NONE',  ( 1.000000000000000000, 0.000000000000000000, -0.000000000000000000 ) ) ;
#163 = DESIGN_CONTEXT ( 'detailed design', #294, 'design' ) ;
#164 = ORIENTED_EDGE ( 'NONE', *, *, #174, .T. ) ;
#165 = CIRCLE ( 'NONE', #27, 0.2000000000000000944 ) ;
#166 = CARTESIAN_POINT ( 'NONE',  ( 0.000000000000000000, 0.000000000000000000, 5.200000000000009948 ) ) ;
#167 = APPROVAL_PERSON_ORGANIZATION ( #277, #149, #280 ) ;
#168 = FACE_OUTER_BOUND ( 'NONE', #14, .T. ) ;
#169 = CARTESIAN_POINT ( 'NONE',  ( -6.000000000000000888, 0.000000000000000000, 5.000000000000000000 ) ) ;
#170 = ORIENTED_EDGE ( 'NONE', *, *, #159, .F. ) ;
#171 = CARTESIAN_POINT ( 'NONE',  ( 0.000000000000000000, 0.000000000000000000, 5.000000000000000000 ) ) ;
#172 = FACE_OUTER_BOUND ( 'NONE', #300, .T. ) ;
#173 = APPROVAL_DATE_TIME ( #271, #26 ) ;
#174 = EDGE_CURVE ( 'NONE', #73, #256, #116, .T. ) ;
#175 = APPLICATION_CONTEXT ( 'configuration controlled 3d designs of mechanical parts and assemblies' ) ;
#176 = PERSON_AND_ORGANIZATION ( #101, #259 ) ;
#177 = DIRECTION ( 'NONE',  ( 1.000000000000000000, 0.000000000000000000, 0.000000000000000000 ) ) ;
#178 = PERSON_AND_ORGANIZATION_ROLE ( 'creator' ) ;
#179 = VERTEX_POINT ( 'NONE', #70 ) ;
#180 = ORIENTED_EDGE ( 'NONE', *, *, #120, .T. ) ;
#181 = CC_DESIGN_PERSON_AND_ORGANIZATION_ASSIGNMENT ( #80, #151, ( #292 ) ) ;
#182 = CALENDAR_DATE ( 2022, 20, 6 ) ;
#183 = EDGE_LOOP ( 'NONE', ( #304, #284, #114, #119 ) ) ;
#184 = APPROVAL_PERSON_ORGANIZATION ( #6, #26, #29 ) ;
#185 = ORIENTED_EDGE ( 'NONE', *, *, #153, .F. ) ;
#186 = CARTESIAN_POINT ( 'NONE',  ( 3.700000000000000178, 0.000000000000000000, 5.000000000000005329 ) ) ;
#187 = CARTESIAN_POINT ( 'NONE',  ( 0.000000000000000000, 0.000000000000000000, 5.000000000000000000 ) ) ;
#188 = AXIS2_PLACEMENT_3D ( 'NONE', #61, #37, #90 ) ;
#189 = CARTESIAN_POINT ( 'NONE',  ( 3.700000000000000178, 0.000000000000000000, 5.200000000000009948 ) ) ;
#190 = VERTEX_POINT ( 'NONE', #208 ) ;
#191 = DIRECTION ( 'NONE',  ( 0.000000000000000000, 0.000000000000000000, 1.000000000000000000 ) ) ;
#192 = ORIENTED_EDGE ( 'NONE', *, *, #82, .T. ) ;
#193 = CARTESIAN_POINT ( 'NONE',  ( 0.000000000000000000, 0.000000000000000000, 165.0000000000000000 ) ) ;
#194 = CARTESIAN_POINT ( 'NONE',  ( 0.000000000000000000, 0.000000000000000000, 5.000000000000000000 ) ) ;
#195 = CIRCLE ( 'NONE', #54, 3.500000000000000000 ) ;
#196 = AXIS2_PLACEMENT_3D ( 'NONE', #166, #260, #41 ) ;
#197 = CALENDAR_DATE ( 2022, 20, 6 ) ;
#198 = CC_DESIGN_APPROVAL ( #26, ( #292 ) ) ;
#199 = FACE_OUTER_BOUND ( 'NONE', #85, .T. ) ;
#200 = COORDINATED_UNIVERSAL_TIME_OFFSET ( 1, 0, .AHEAD. ) ;
#201 = ADVANCED_FACE ( 'NONE', ( #168 ), #24, .T. ) ;
#202 = ORIENTED_EDGE ( 'NONE', *, *, #153, .T. ) ;
#203 = DIRECTION ( 'NONE',  ( 0.000000000000000000, 0.000000000000000000, 1.000000000000000000 ) ) ;
#204 = APPROVAL_STATUS ( 'not_yet_approved' ) ;
#205 = ORIENTED_EDGE ( 'NONE', *, *, #94, .T. ) ;
#206 = VECTOR ( 'NONE', #74, 1000.000000000000000 ) ;
#207 = CARTESIAN_POINT ( 'NONE',  ( 3.500000000000000000, 4.286263797015736595E-16, 165.0000000000000000 ) ) ;
#208 = CARTESIAN_POINT ( 'NONE',  ( 6.000000000000000888, 7.347880794884120722E-16, 0.000000000000000000 ) ) ;
#209 = ORIENTED_EDGE ( 'NONE', *, *, #272, .F. ) ;
#210 = DIRECTION ( 'NONE',  ( 1.000000000000000000, 0.000000000000000000, 0.000000000000000000 ) ) ;
#211 = CARTESIAN_POINT ( 'NONE',  ( 3.500000000000000000, 4.286263797015736595E-16, 165.0000000000000000 ) ) ;
#212 =( GEOMETRIC_REPRESENTATION_CONTEXT ( 3 ) GLOBAL_UNCERTAINTY_ASSIGNED_CONTEXT ( ( #270 ) ) GLOBAL_UNIT_ASSIGNED_CONTEXT ( ( #244, #30, #8 ) ) REPRESENTATION_CONTEXT ( 'NONE', 'WORKASPACE' ) );
#213 = PRODUCT_RELATED_PRODUCT_CATEGORY ( 'detail', '', ( #139 ) ) ;
#214 = DIRECTION ( 'NONE',  ( 0.000000000000000000, 0.000000000000000000, 1.000000000000000000 ) ) ;
#215 = FACE_OUTER_BOUND ( 'NONE', #111, .T. ) ;
#216 = PERSON_AND_ORGANIZATION ( #101, #259 ) ;
#217 = PERSON_AND_ORGANIZATION ( #101, #259 ) ;
#218 = APPROVAL_DATE_TIME ( #103, #234 ) ;
#219 = COORDINATED_UNIVERSAL_TIME_OFFSET ( 1, 0, .AHEAD. ) ;
#220 = CIRCLE ( 'NONE', #252, 6.000000000000000888 ) ;
#221 = DATE_TIME_ROLE ( 'classification_date' ) ;
#222 = ADVANCED_FACE ( 'NONE', ( #215 ), #258, .F. ) ;
#223 = CARTESIAN_POINT ( 'NONE',  ( -6.000000000000000888, 0.000000000000000000, 5.000000000000000000 ) ) ;
#224 = ORIENTED_EDGE ( 'NONE', *, *, #98, .F. ) ;
#225 = ORIENTED_EDGE ( 'NONE', *, *, #43, .T. ) ;
#226 = ORIENTED_EDGE ( 'NONE', *, *, #82, .F. ) ;
#227 = AXIS2_PLACEMENT_3D ( 'NONE', #194, #241, #122 ) ;
#228 = AXIS2_PLACEMENT_3D ( 'NONE', #5, #104, #150 ) ;
#229 = CC_DESIGN_APPROVAL ( #149, ( #47 ) ) ;
#230 = CARTESIAN_POINT ( 'NONE',  ( -3.500000000000000000, 0.000000000000000000, 5.200000000000009948 ) ) ;
#231 = ORIENTED_EDGE ( 'NONE', *, *, #12, .F. ) ;
#232 = LINE ( 'NONE', #211, #127 ) ;
#233 = MANIFOLD_SOLID_BREP ( 'Zaoblit1', #46 ) ;
#234 = APPROVAL ( #246, 'NEURÈENÝ' ) ;
#235 = DIRECTION ( 'NONE',  ( 1.000000000000000000, 0.000000000000000000, 0.000000000000000000 ) ) ;
#236 = CIRCLE ( 'NONE', #298, 6.000000000000000888 ) ;
#237 = DIRECTION ( 'NONE',  ( -1.000000000000000000, 0.000000000000000000, 0.000000000000000000 ) ) ;
#238 = LOCAL_TIME ( 11, 53, 6.000000000000000000, #250 ) ;
#239 = ORIENTED_EDGE ( 'NONE', *, *, #274, .F. ) ;
#240 = CARTESIAN_POINT ( 'NONE',  ( 0.000000000000000000, 0.000000000000000000, 5.200000000000009948 ) ) ;
#241 = DIRECTION ( 'NONE',  ( -0.000000000000000000, -0.000000000000000000, -1.000000000000000000 ) ) ;
#242 = AXIS2_PLACEMENT_3D ( 'NONE', #291, #282, #262 ) ;
#243 = AXIS2_PLACEMENT_3D ( 'NONE', #129, #148, #126 ) ;
#244 =( LENGTH_UNIT ( ) NAMED_UNIT ( * ) SI_UNIT ( .MILLI., .METRE. ) );
#245 = CARTESIAN_POINT ( 'NONE',  ( -6.000000000000000888, 0.000000000000000000, 0.000000000000000000 ) ) ;
#246 = APPROVAL_STATUS ( 'not_yet_approved' ) ;
#247 = DIRECTION ( 'NONE',  ( 1.000000000000000000, 0.000000000000000000, 0.000000000000000000 ) ) ;
#248 = ADVANCED_FACE ( 'NONE', ( #307 ), #81, .F. ) ;
#249 = EDGE_LOOP ( 'NONE', ( #239, #68, #202, #92 ) ) ;
#250 = COORDINATED_UNIVERSAL_TIME_OFFSET ( 1, 0, .AHEAD. ) ;
#251 = FACE_OUTER_BOUND ( 'NONE', #19, .T. ) ;
#252 = AXIS2_PLACEMENT_3D ( 'NONE', #25, #23, #75 ) ;
#253 = CC_DESIGN_PERSON_AND_ORGANIZATION_ASSIGNMENT ( #269, #52, ( #292 ) ) ;
#254 = DIRECTION ( 'NONE',  ( -1.000000000000000000, 0.000000000000000000, 0.000000000000000000 ) ) ;
#255 = CARTESIAN_POINT ( 'NONE',  ( -3.500000000000000000, 0.000000000000000000, 165.0000000000000000 ) ) ;
#256 = VERTEX_POINT ( 'NONE', #142 ) ;
#257 = EDGE_LOOP ( 'NONE', ( #302, #225 ) ) ;
#258 = TOROIDAL_SURFACE ( 'NONE', #242, 3.700000000000000178, 0.2000000000000000111 ) ;
#259 = ORGANIZATION ( 'NEURÈENÝ', 'NEURÈENÝ', '' ) ;
#260 = DIRECTION ( 'NONE',  ( 0.000000000000000000, 0.000000000000000000, 1.000000000000000000 ) ) ;
#261 = CC_DESIGN_DATE_AND_TIME_ASSIGNMENT ( #86, #221, ( #47 ) ) ;
#262 = DIRECTION ( 'NONE',  ( 1.000000000000000000, 0.000000000000000000, 0.000000000000000000 ) ) ;
#263 = FACE_OUTER_BOUND ( 'NONE', #183, .T. ) ;
#264 = ORIENTED_EDGE ( 'NONE', *, *, #120, .F. ) ;
#265 = AXIS2_PLACEMENT_3D ( 'NONE', #281, #203, #303 ) ;
#266 = PRODUCT_DEFINITION_SHAPE ( 'NONE', 'NONE',  #76 ) ;
#267 = DIRECTION ( 'NONE',  ( 0.000000000000000000, 0.000000000000000000, 1.000000000000000000 ) ) ;
#268 = CARTESIAN_POINT ( 'NONE',  ( 0.000000000000000000, 0.000000000000000000, 165.0000000000000000 ) ) ;
#269 = PERSON_AND_ORGANIZATION ( #101, #259 ) ;
#270 = UNCERTAINTY_MEASURE_WITH_UNIT (LENGTH_MEASURE( 1.000000000000000082E-05 ), #244, 'distance_accuracy_value', 'NONE');
#271 = DATE_AND_TIME ( #77, #285 ) ;
#272 = EDGE_CURVE ( 'NONE', #15, #256, #232, .T. ) ;
#273 = MECHANICAL_CONTEXT ( 'NONE', #175, 'mechanical' ) ;
#274 = EDGE_CURVE ( 'NONE', #73, #179, #165, .T. ) ;
#275 = VERTEX_POINT ( 'NONE', #169 ) ;
#276 = ORIENTED_EDGE ( 'NONE', *, *, #7, .T. ) ;
#277 = PERSON_AND_ORGANIZATION ( #101, #259 ) ;
#278 = VERTEX_POINT ( 'NONE', #245 ) ;
#279 = ORIENTED_EDGE ( 'NONE', *, *, #174, .F. ) ;
#280 = APPROVAL_ROLE ( '' ) ;
#281 = CARTESIAN_POINT ( 'NONE',  ( 0.000000000000000000, 0.000000000000000000, 0.000000000000000000 ) ) ;
#282 = DIRECTION ( 'NONE',  ( 0.000000000000000000, 0.000000000000000000, 1.000000000000000000 ) ) ;
#283 = EDGE_CURVE ( 'NONE', #256, #73, #108, .T. ) ;
#284 = ORIENTED_EDGE ( 'NONE', *, *, #272, .T. ) ;
#285 = LOCAL_TIME ( 11, 53, 6.000000000000000000, #293 ) ;
#286 = DIRECTION ( 'NONE',  ( 1.000000000000000000, 0.000000000000000000, 0.000000000000000000 ) ) ;
#287 = DIRECTION ( 'NONE',  ( 0.000000000000000000, 0.000000000000000000, 1.000000000000000000 ) ) ;
#288 = ADVANCED_FACE ( 'NONE', ( #199 ), #53, .T. ) ;
#289 = LINE ( 'NONE', #4, #206 ) ;
#290 = AXIS2_PLACEMENT_3D ( 'NONE', #306, #10, #162 ) ;
#291 = CARTESIAN_POINT ( 'NONE',  ( 0.000000000000000000, 0.000000000000000000, 5.200000000000009948 ) ) ;
#292 = PRODUCT_DEFINITION_FORMATION_WITH_SPECIFIED_SOURCE ( 'LIBOVOLNÝ', '', #139, .NOT_KNOWN. ) ;
#293 = COORDINATED_UNIVERSAL_TIME_OFFSET ( 1, 0, .AHEAD. ) ;
#294 = APPLICATION_CONTEXT ( 'configuration controlled 3d designs of mechanical parts and assemblies' ) ;
#295 = APPROVAL_STATUS ( 'not_yet_approved' ) ;
#296 = EDGE_CURVE ( 'NONE', #278, #190, #56, .T. ) ;
#297 = CARTESIAN_POINT ( 'NONE',  ( 0.000000000000000000, 0.000000000000000000, 0.000000000000000000 ) ) ;
#298 = AXIS2_PLACEMENT_3D ( 'NONE', #44, #191, #210 ) ;
#299 = DATE_AND_TIME ( #197, #95 ) ;
#300 = EDGE_LOOP ( 'NONE', ( #192, #205 ) ) ;
#301 = AXIS2_PLACEMENT_3D ( 'NONE', #297, #128, #177 ) ;
#302 = ORIENTED_EDGE ( 'NONE', *, *, #130, .T. ) ;
#303 = DIRECTION ( 'NONE',  ( 1.000000000000000000, 0.000000000000000000, -0.000000000000000000 ) ) ;
#304 = ORIENTED_EDGE ( 'NONE', *, *, #141, .F. ) ;
#305 = CIRCLE ( 'NONE', #188, 3.700000000000000178 ) ;
#306 = CARTESIAN_POINT ( 'NONE',  ( 0.000000000000000000, 0.000000000000000000, 165.0000000000000000 ) ) ;
#307 = FACE_OUTER_BOUND ( 'NONE', #249, .T. ) ;
ENDSEC;
END-ISO-10303-21;
