ISO-10303-21;
HEADER;
FILE_DESCRIPTION (( 'STEP AP203' ),
    '1' );
FILE_NAME ('26f3.STEP',
    '2022-06-20T10:11:42',
    ( '' ),
    ( '' ),
    'SwSTEP 2.0',
    'SolidWorks 2019',
    '' );
FILE_SCHEMA (( 'CONFIG_CONTROL_DESIGN' ));
ENDSEC;

DATA;
#1 = DIRECTION ( 'NONE',  ( 0.000000000000000000, 0.000000000000000000, 1.000000000000000000 ) ) ;
#2 = EDGE_CURVE ( 'NONE', #107, #12, #287, .T. ) ;
#3 = CIRCLE ( 'NONE', #271, 1.950000000000000178 ) ;
#4 = DIRECTION ( 'NONE',  ( -1.000000000000000000, 1.224646799147354686E-16, 0.000000000000000000 ) ) ;
#5 = AXIS2_PLACEMENT_3D ( 'NONE', #89, #25, #112 ) ;
#6 = DIRECTION ( 'NONE',  ( -0.000000000000000000, -0.000000000000000000, -1.000000000000000000 ) ) ;
#7 = EDGE_CURVE ( 'NONE', #253, #12, #110, .T. ) ;
#8 = CARTESIAN_POINT ( 'NONE',  ( 0.000000000000000000, 0.000000000000000000, 0.000000000000000000 ) ) ;
#9 = AXIS2_PLACEMENT_3D ( 'NONE', #66, #227, #205 ) ;
#10 = DATE_AND_TIME ( #246, #173 ) ;
#11 = CIRCLE ( 'NONE', #126, 1.750000000000000000 ) ;
#12 = VERTEX_POINT ( 'NONE', #44 ) ;
#13 = EDGE_CURVE ( 'NONE', #146, #57, #11, .T. ) ;
#14 = PERSON_AND_ORGANIZATION_ROLE ( 'design_owner' ) ;
#15 = APPROVAL_ROLE ( '' ) ;
#16 = ADVANCED_FACE ( 'NONE', ( #279, #201 ), #303, .T. ) ;
#17 = DATE_AND_TIME ( #292, #51 ) ;
#18 =( GEOMETRIC_REPRESENTATION_CONTEXT ( 3 ) GLOBAL_UNCERTAINTY_ASSIGNED_CONTEXT ( ( #23 ) ) GLOBAL_UNIT_ASSIGNED_CONTEXT ( ( #142, #166, #193 ) ) REPRESENTATION_CONTEXT ( 'NONE', 'WORKASPACE' ) );
#19 = PLANE ( 'NONE',  #218 ) ;
#20 = ORIENTED_EDGE ( 'NONE', *, *, #159, .T. ) ;
#21 = CC_DESIGN_PERSON_AND_ORGANIZATION_ASSIGNMENT ( #194, #56, ( #113 ) ) ;
#22 = DIRECTION ( 'NONE',  ( 0.000000000000000000, 0.000000000000000000, 1.000000000000000000 ) ) ;
#23 = UNCERTAINTY_MEASURE_WITH_UNIT (LENGTH_MEASURE( 1.000000000000000082E-05 ), #142, 'distance_accuracy_value', 'NONE');
#24 = DIRECTION ( 'NONE',  ( 1.000000000000000000, 0.000000000000000000, 0.000000000000000000 ) ) ;
#25 = DIRECTION ( 'NONE',  ( 0.000000000000000000, 0.000000000000000000, 1.000000000000000000 ) ) ;
#26 = DIRECTION ( 'NONE',  ( 1.000000000000000000, 0.000000000000000000, 0.000000000000000000 ) ) ;
#27 = DIRECTION ( 'NONE',  ( 1.000000000000000000, 0.000000000000000000, 0.000000000000000000 ) ) ;
#28 = CARTESIAN_POINT ( 'NONE',  ( 0.000000000000000000, 0.000000000000000000, 3.199999999999980638 ) ) ;
#29 = PRODUCT ( '26f3', '26f3', '', ( #297 ) ) ;
#30 = CARTESIAN_POINT ( 'NONE',  ( 0.000000000000000000, 0.000000000000000000, 3.000000000000000000 ) ) ;
#31 = APPROVAL_DATE_TIME ( #80, #207 ) ;
#32 = ORIENTED_EDGE ( 'NONE', *, *, #74, .F. ) ;
#33 = CARTESIAN_POINT ( 'NONE',  ( 0.000000000000000000, 0.000000000000000000, 0.000000000000000000 ) ) ;
#34 = CIRCLE ( 'NONE', #91, 3.500000000000000444 ) ;
#35 = ORIENTED_EDGE ( 'NONE', *, *, #295, .T. ) ;
#36 = APPROVAL_DATE_TIME ( #172, #243 ) ;
#37 = APPLICATION_PROTOCOL_DEFINITION ( 'international standard', 'config_control_design', 1994, #273 ) ;
#38 = ADVANCED_FACE ( 'NONE', ( #232 ), #19, .F. ) ;
#39 = CARTESIAN_POINT ( 'NONE',  ( 0.000000000000000000, 0.000000000000000000, 318.0000000000000000 ) ) ;
#40 = CARTESIAN_POINT ( 'NONE',  ( 0.000000000000000000, 0.000000000000000000, 3.000000000000000000 ) ) ;
#41 = ORIENTED_EDGE ( 'NONE', *, *, #13, .F. ) ;
#42 = DIRECTION ( 'NONE',  ( 1.000000000000000000, 0.000000000000000000, 0.000000000000000000 ) ) ;
#43 = EDGE_CURVE ( 'NONE', #57, #107, #90, .T. ) ;
#44 = CARTESIAN_POINT ( 'NONE',  ( 1.950000000000000178, 0.000000000000000000, 2.999999999999990674 ) ) ;
#45 = CYLINDRICAL_SURFACE ( 'NONE', #305, 3.500000000000000444 ) ;
#46 = AXIS2_PLACEMENT_3D ( 'NONE', #134, #132, #301 ) ;
#47 = CARTESIAN_POINT ( 'NONE',  ( -1.750000000000000000, 0.000000000000000000, 3.199999999999980638 ) ) ;
#48 = DIRECTION ( 'NONE',  ( -0.000000000000000000, -0.000000000000000000, -1.000000000000000000 ) ) ;
#49 = CARTESIAN_POINT ( 'NONE',  ( 0.000000000000000000, 0.000000000000000000, 3.000000000000000000 ) ) ;
#50 = APPROVAL_PERSON_ORGANIZATION ( #252, #243, #266 ) ;
#51 = LOCAL_TIME ( 12, 11, 42.00000000000000000, #149 ) ;
#52 = CALENDAR_DATE ( 2022, 20, 6 ) ;
#53 = DIRECTION ( 'NONE',  ( 1.000000000000000000, 0.000000000000000000, 0.000000000000000000 ) ) ;
#54 = ORIENTED_EDGE ( 'NONE', *, *, #284, .T. ) ;
#55 = AXIS2_PLACEMENT_3D ( 'NONE', #137, #1, #233 ) ;
#56 = PERSON_AND_ORGANIZATION_ROLE ( 'classification_officer' ) ;
#57 = VERTEX_POINT ( 'NONE', #184 ) ;
#58 = SHAPE_DEFINITION_REPRESENTATION ( #221, #280 ) ;
#59 = ORIENTED_EDGE ( 'NONE', *, *, #228, .F. ) ;
#60 = LOCAL_TIME ( 12, 11, 42.00000000000000000, #177 ) ;
#61 = PERSON_AND_ORGANIZATION_ROLE ( 'creator' ) ;
#62 = VERTEX_POINT ( 'NONE', #160 ) ;
#63 = ORIENTED_EDGE ( 'NONE', *, *, #2, .T. ) ;
#64 = CARTESIAN_POINT ( 'NONE',  ( 3.500000000000000444, 4.286263797015737088E-16, 0.000000000000000000 ) ) ;
#65 = EDGE_CURVE ( 'NONE', #62, #82, #302, .T. ) ;
#66 = CARTESIAN_POINT ( 'NONE',  ( 1.950000000000000178, 0.000000000000000000, 3.199999999999980638 ) ) ;
#67 = EDGE_LOOP ( 'NONE', ( #81, #293, #176, #87 ) ) ;
#68 = PLANE ( 'NONE',  #55 ) ;
#69 = CC_DESIGN_APPROVAL ( #207, ( #155 ) ) ;
#70 = DIRECTION ( 'NONE',  ( 1.000000000000000000, 0.000000000000000000, 0.000000000000000000 ) ) ;
#71 = CYLINDRICAL_SURFACE ( 'NONE', #236, 1.750000000000000000 ) ;
#72 = AXIS2_PLACEMENT_3D ( 'NONE', #40, #277, #93 ) ;
#73 = DIRECTION ( 'NONE',  ( 1.000000000000000000, 0.000000000000000000, 0.000000000000000000 ) ) ;
#74 = EDGE_CURVE ( 'NONE', #57, #146, #165, .T. ) ;
#75 = CIRCLE ( 'NONE', #131, 0.1999999999999998723 ) ;
#76 = FACE_OUTER_BOUND ( 'NONE', #153, .T. ) ;
#77 = CARTESIAN_POINT ( 'NONE',  ( 0.000000000000000000, 0.000000000000000000, 3.199999999999980638 ) ) ;
#78 = AXIS2_PLACEMENT_3D ( 'NONE', #28, #101, #70 ) ;
#79 = ORIENTED_EDGE ( 'NONE', *, *, #228, .T. ) ;
#80 = DATE_AND_TIME ( #52, #238 ) ;
#81 = ORIENTED_EDGE ( 'NONE', *, *, #290, .F. ) ;
#82 = VERTEX_POINT ( 'NONE', #64 ) ;
#83 = PERSON_AND_ORGANIZATION ( #86, #84 ) ;
#84 = ORGANIZATION ( 'NEURÈENÝ', 'NEURÈENÝ', '' ) ;
#85 = EDGE_LOOP ( 'NONE', ( #127, #255, #219, #124 ) ) ;
#86 = PERSON ( 'NEURÈENÝ', 'NEURÈENÝ', 'NEURÈENÝ', ('NEURÈENÝ'), ('NEURÈENÝ'), ('NEURÈENÝ') ) ;
#87 = ORIENTED_EDGE ( 'NONE', *, *, #65, .T. ) ;
#88 = ADVANCED_FACE ( 'NONE', ( #115 ), #206, .T. ) ;
#89 = CARTESIAN_POINT ( 'NONE',  ( 0.000000000000000000, 0.000000000000000000, 3.000000000000000000 ) ) ;
#90 = LINE ( 'NONE', #92, #181 ) ;
#91 = AXIS2_PLACEMENT_3D ( 'NONE', #49, #213, #27 ) ;
#92 = CARTESIAN_POINT ( 'NONE',  ( 1.750000000000000000, 2.143131898507868297E-16, 318.0000000000000000 ) ) ;
#93 = DIRECTION ( 'NONE',  ( -1.000000000000000000, 0.000000000000000000, 0.000000000000000000 ) ) ;
#94 = VERTEX_POINT ( 'NONE', #133 ) ;
#95 = CC_DESIGN_APPROVAL ( #243, ( #119 ) ) ;
#96 = DIRECTION ( 'NONE',  ( 1.000000000000000000, 0.000000000000000000, 0.000000000000000000 ) ) ;
#97 = CARTESIAN_POINT ( 'NONE',  ( 3.500000000000000444, 4.286263797015737088E-16, 3.000000000000000000 ) ) ;
#98 = TOROIDAL_SURFACE ( 'NONE', #222, 1.950000000000000178, 0.2000000000000000111 ) ;
#99 = CARTESIAN_POINT ( 'NONE',  ( 3.500000000000000444, 4.286263797015737088E-16, 3.000000000000000000 ) ) ;
#100 = EDGE_CURVE ( 'NONE', #107, #199, #247, .T. ) ;
#101 = DIRECTION ( 'NONE',  ( 0.000000000000000000, 0.000000000000000000, 1.000000000000000000 ) ) ;
#102 = PERSON_AND_ORGANIZATION_ROLE ( 'creator' ) ;
#103 = ORIENTED_EDGE ( 'NONE', *, *, #43, .F. ) ;
#104 = COORDINATED_UNIVERSAL_TIME_OFFSET ( 1, 0, .AHEAD. ) ;
#105 = PERSON_AND_ORGANIZATION ( #86, #84 ) ;
#106 = ORIENTED_EDGE ( 'NONE', *, *, #234, .F. ) ;
#107 = VERTEX_POINT ( 'NONE', #258 ) ;
#108 = CC_DESIGN_PERSON_AND_ORGANIZATION_ASSIGNMENT ( #83, #102, ( #155 ) ) ;
#109 = DIRECTION ( 'NONE',  ( 1.000000000000000000, 0.000000000000000000, 0.000000000000000000 ) ) ;
#110 = CIRCLE ( 'NONE', #46, 1.950000000000000178 ) ;
#111 = ORIENTED_EDGE ( 'NONE', *, *, #234, .T. ) ;
#112 = DIRECTION ( 'NONE',  ( 1.000000000000000000, 0.000000000000000000, -0.000000000000000000 ) ) ;
#113 = SECURITY_CLASSIFICATION ( '', '', #130 ) ;
#114 = APPLICATION_CONTEXT ( 'configuration controlled 3d designs of mechanical parts and assemblies' ) ;
#115 = FACE_OUTER_BOUND ( 'NONE', #67, .T. ) ;
#116 = ORIENTED_EDGE ( 'NONE', *, *, #65, .F. ) ;
#117 = DIRECTION ( 'NONE',  ( -0.000000000000000000, -0.000000000000000000, -1.000000000000000000 ) ) ;
#118 = AXIS2_PLACEMENT_3D ( 'NONE', #289, #117, #264 ) ;
#119 = PRODUCT_DEFINITION ( 'NEZNÁMÝ', '', #155, #304 ) ;
#120 = DIRECTION ( 'NONE',  ( -0.000000000000000000, -0.000000000000000000, -1.000000000000000000 ) ) ;
#121 = DIRECTION ( 'NONE',  ( -0.000000000000000000, -0.000000000000000000, -1.000000000000000000 ) ) ;
#122 = DIRECTION ( 'NONE',  ( 0.000000000000000000, 0.000000000000000000, 1.000000000000000000 ) ) ;
#123 = CALENDAR_DATE ( 2022, 20, 6 ) ;
#124 = ORIENTED_EDGE ( 'NONE', *, *, #2, .F. ) ;
#125 = CLOSED_SHELL ( 'NONE', ( #257, #275, #195, #88, #16, #38, #299, #139, #147 ) ) ;
#126 = AXIS2_PLACEMENT_3D ( 'NONE', #158, #230, #109 ) ;
#127 = ORIENTED_EDGE ( 'NONE', *, *, #295, .F. ) ;
#128 = APPROVAL_STATUS ( 'not_yet_approved' ) ;
#129 = APPROVAL_DATE_TIME ( #270, #212 ) ;
#130 = SECURITY_CLASSIFICATION_LEVEL ( 'unclassified' ) ;
#131 = AXIS2_PLACEMENT_3D ( 'NONE', #235, #140, #4 ) ;
#132 = DIRECTION ( 'NONE',  ( -0.000000000000000000, -0.000000000000000000, -1.000000000000000000 ) ) ;
#133 = CARTESIAN_POINT ( 'NONE',  ( -3.500000000000000444, 0.000000000000000000, 3.000000000000000000 ) ) ;
#134 = CARTESIAN_POINT ( 'NONE',  ( 0.000000000000000000, 0.000000000000000000, 3.000000000000000000 ) ) ;
#135 = ORIENTED_EDGE ( 'NONE', *, *, #43, .T. ) ;
#136 = AXIS2_PLACEMENT_3D ( 'NONE', #8, #141, #241 ) ;
#137 = CARTESIAN_POINT ( 'NONE',  ( 0.000000000000000000, 0.000000000000000000, 318.0000000000000000 ) ) ;
#138 = CARTESIAN_POINT ( 'NONE',  ( -1.750000000000000000, 0.000000000000000000, 318.0000000000000000 ) ) ;
#139 = ADVANCED_FACE ( 'NONE', ( #281 ), #68, .T. ) ;
#140 = DIRECTION ( 'NONE',  ( 1.224646799147353207E-16, 1.000000000000000000, -0.000000000000000000 ) ) ;
#141 = DIRECTION ( 'NONE',  ( 0.000000000000000000, 0.000000000000000000, 1.000000000000000000 ) ) ;
#142 =( LENGTH_UNIT ( ) NAMED_UNIT ( * ) SI_UNIT ( .MILLI., .METRE. ) );
#143 = DIRECTION ( 'NONE',  ( -1.000000000000000000, 0.000000000000000000, 0.000000000000000000 ) ) ;
#144 = PERSON_AND_ORGANIZATION ( #86, #84 ) ;
#145 = DATE_TIME_ROLE ( 'creation_date' ) ;
#146 = VERTEX_POINT ( 'NONE', #188 ) ;
#147 = ADVANCED_FACE ( 'NONE', ( #154 ), #98, .F. ) ;
#148 = AXIS2_PLACEMENT_3D ( 'NONE', #202, #185, #157 ) ;
#149 = COORDINATED_UNIVERSAL_TIME_OFFSET ( 1, 0, .AHEAD. ) ;
#150 = DATE_TIME_ROLE ( 'classification_date' ) ;
#151 = EDGE_LOOP ( 'NONE', ( #20, #79 ) ) ;
#152 = CC_DESIGN_DATE_AND_TIME_ASSIGNMENT ( #17, #150, ( #113 ) ) ;
#153 = EDGE_LOOP ( 'NONE', ( #59, #179, #111, #225 ) ) ;
#154 = FACE_OUTER_BOUND ( 'NONE', #198, .T. ) ;
#155 = PRODUCT_DEFINITION_FORMATION_WITH_SPECIFIED_SOURCE ( 'LIBOVOLNÝ', '', #29, .NOT_KNOWN. ) ;
#156 = APPROVAL_PERSON_ORGANIZATION ( #144, #207, #175 ) ;
#157 = DIRECTION ( 'NONE',  ( 1.000000000000000000, 0.000000000000000000, 0.000000000000000000 ) ) ;
#158 = CARTESIAN_POINT ( 'NONE',  ( 0.000000000000000000, 0.000000000000000000, 318.0000000000000000 ) ) ;
#159 = EDGE_CURVE ( 'NONE', #94, #196, #34, .T. ) ;
#160 = CARTESIAN_POINT ( 'NONE',  ( -3.500000000000000444, 0.000000000000000000, 0.000000000000000000 ) ) ;
#161 = CARTESIAN_POINT ( 'NONE',  ( 0.000000000000000000, 0.000000000000000000, 0.000000000000000000 ) ) ;
#162 = VECTOR ( 'NONE', #168, 1000.000000000000000 ) ;
#163 = EDGE_CURVE ( 'NONE', #146, #199, #242, .T. ) ;
#164 = FACE_OUTER_BOUND ( 'NONE', #300, .T. ) ;
#165 = CIRCLE ( 'NONE', #167, 1.750000000000000000 ) ;
#166 =( NAMED_UNIT ( * ) PLANE_ANGLE_UNIT ( ) SI_UNIT ( $, .RADIAN. ) );
#167 = AXIS2_PLACEMENT_3D ( 'NONE', #39, #182, #24 ) ;
#168 = DIRECTION ( 'NONE',  ( -0.000000000000000000, -0.000000000000000000, -1.000000000000000000 ) ) ;
#169 = DIRECTION ( 'NONE',  ( 0.000000000000000000, 0.000000000000000000, 1.000000000000000000 ) ) ;
#170 = CC_DESIGN_DATE_AND_TIME_ASSIGNMENT ( #10, #145, ( #119 ) ) ;
#171 = DIRECTION ( 'NONE',  ( -0.000000000000000000, -0.000000000000000000, -1.000000000000000000 ) ) ;
#172 = DATE_AND_TIME ( #123, #226 ) ;
#173 = LOCAL_TIME ( 12, 11, 42.00000000000000000, #104 ) ;
#174 = CC_DESIGN_PERSON_AND_ORGANIZATION_ASSIGNMENT ( #217, #14, ( #29 ) ) ;
#175 = APPROVAL_ROLE ( '' ) ;
#176 = ORIENTED_EDGE ( 'NONE', *, *, #192, .T. ) ;
#177 = COORDINATED_UNIVERSAL_TIME_OFFSET ( 1, 0, .AHEAD. ) ;
#178 = ORIENTED_EDGE ( 'NONE', *, *, #163, .T. ) ;
#179 = ORIENTED_EDGE ( 'NONE', *, *, #290, .T. ) ;
#180 = ORIENTED_EDGE ( 'NONE', *, *, #7, .T. ) ;
#181 = VECTOR ( 'NONE', #307, 1000.000000000000000 ) ;
#182 = DIRECTION ( 'NONE',  ( 0.000000000000000000, 0.000000000000000000, 1.000000000000000000 ) ) ;
#183 = ORIENTED_EDGE ( 'NONE', *, *, #7, .F. ) ;
#184 = CARTESIAN_POINT ( 'NONE',  ( 1.750000000000000000, 2.143131898507868297E-16, 318.0000000000000000 ) ) ;
#185 = DIRECTION ( 'NONE',  ( 0.000000000000000000, 0.000000000000000000, 1.000000000000000000 ) ) ;
#186 = PRODUCT_RELATED_PRODUCT_CATEGORY ( 'detail', '', ( #29 ) ) ;
#187 = AXIS2_PLACEMENT_3D ( 'NONE', #33, #220, #53 ) ;
#188 = CARTESIAN_POINT ( 'NONE',  ( -1.750000000000000000, 0.000000000000000000, 318.0000000000000000 ) ) ;
#189 = CC_DESIGN_APPROVAL ( #212, ( #113 ) ) ;
#190 = DIRECTION ( 'NONE',  ( -1.000000000000000000, 0.000000000000000000, 0.000000000000000000 ) ) ;
#191 = FACE_OUTER_BOUND ( 'NONE', #197, .T. ) ;
#192 = EDGE_CURVE ( 'NONE', #94, #62, #285, .T. ) ;
#193 =( NAMED_UNIT ( * ) SI_UNIT ( $, .STERADIAN. ) SOLID_ANGLE_UNIT ( ) );
#194 = PERSON_AND_ORGANIZATION ( #86, #84 ) ;
#195 = ADVANCED_FACE ( 'NONE', ( #76 ), #45, .T. ) ;
#196 = VERTEX_POINT ( 'NONE', #97 ) ;
#197 = EDGE_LOOP ( 'NONE', ( #103, #41, #178, #35 ) ) ;
#198 = EDGE_LOOP ( 'NONE', ( #223, #256, #63, #183 ) ) ;
#199 = VERTEX_POINT ( 'NONE', #47 ) ;
#200 = AXIS2_PLACEMENT_3D ( 'NONE', #214, #169, #96 ) ;
#201 = FACE_OUTER_BOUND ( 'NONE', #151, .T. ) ;
#202 = CARTESIAN_POINT ( 'NONE',  ( 0.000000000000000000, 0.000000000000000000, 3.199999999999980638 ) ) ;
#203 = TOROIDAL_SURFACE ( 'NONE', #78, 1.950000000000000178, 0.2000000000000000111 ) ;
#204 = APPROVAL_PERSON_ORGANIZATION ( #250, #212, #15 ) ;
#205 = DIRECTION ( 'NONE',  ( 0.000000000000000000, 0.000000000000000000, -1.000000000000000000 ) ) ;
#206 = CYLINDRICAL_SURFACE ( 'NONE', #72, 3.500000000000000444 ) ;
#207 = APPROVAL ( #294, 'NEURÈENÝ' ) ;
#208 = CARTESIAN_POINT ( 'NONE',  ( 0.000000000000000000, 0.000000000000000000, 0.000000000000000000 ) ) ;
#209 = CARTESIAN_POINT ( 'NONE',  ( 0.000000000000000000, 0.000000000000000000, 3.000000000000000000 ) ) ;
#210 = MANIFOLD_SOLID_BREP ( 'Zaoblit1', #125 ) ;
#211 = CYLINDRICAL_SURFACE ( 'NONE', #118, 1.750000000000000000 ) ;
#212 = APPROVAL ( #128, 'NEURÈENÝ' ) ;
#213 = DIRECTION ( 'NONE',  ( 0.000000000000000000, 0.000000000000000000, 1.000000000000000000 ) ) ;
#214 = CARTESIAN_POINT ( 'NONE',  ( 0.000000000000000000, 0.000000000000000000, 3.199999999999980638 ) ) ;
#215 = CIRCLE ( 'NONE', #231, 3.500000000000000444 ) ;
#216 = CARTESIAN_POINT ( 'NONE',  ( -1.950000000000000178, 2.388061258337339136E-16, 2.999999999999990674 ) ) ;
#217 = PERSON_AND_ORGANIZATION ( #86, #84 ) ;
#218 = AXIS2_PLACEMENT_3D ( 'NONE', #161, #22, #306 ) ;
#219 = ORIENTED_EDGE ( 'NONE', *, *, #284, .F. ) ;
#220 = DIRECTION ( 'NONE',  ( 0.000000000000000000, 0.000000000000000000, 1.000000000000000000 ) ) ;
#221 = PRODUCT_DEFINITION_SHAPE ( 'NONE', 'NONE',  #119 ) ;
#222 = AXIS2_PLACEMENT_3D ( 'NONE', #77, #240, #73 ) ;
#223 = ORIENTED_EDGE ( 'NONE', *, *, #265, .F. ) ;
#224 = APPLICATION_PROTOCOL_DEFINITION ( 'international standard', 'config_control_design', 1994, #114 ) ;
#225 = ORIENTED_EDGE ( 'NONE', *, *, #192, .F. ) ;
#226 = LOCAL_TIME ( 12, 11, 42.00000000000000000, #268 ) ;
#227 = DIRECTION ( 'NONE',  ( 0.000000000000000000, -1.000000000000000000, 0.000000000000000000 ) ) ;
#228 = EDGE_CURVE ( 'NONE', #196, #94, #215, .T. ) ;
#229 = ORIENTED_EDGE ( 'NONE', *, *, #163, .F. ) ;
#230 = DIRECTION ( 'NONE',  ( 0.000000000000000000, 0.000000000000000000, 1.000000000000000000 ) ) ;
#231 = AXIS2_PLACEMENT_3D ( 'NONE', #30, #122, #263 ) ;
#232 = FACE_OUTER_BOUND ( 'NONE', #276, .T. ) ;
#233 = DIRECTION ( 'NONE',  ( 1.000000000000000000, 0.000000000000000000, -0.000000000000000000 ) ) ;
#234 = EDGE_CURVE ( 'NONE', #82, #62, #282, .T. ) ;
#235 = CARTESIAN_POINT ( 'NONE',  ( -1.950000000000000178, 2.388061258337339136E-16, 3.199999999999980638 ) ) ;
#236 = AXIS2_PLACEMENT_3D ( 'NONE', #237, #121, #190 ) ;
#237 = CARTESIAN_POINT ( 'NONE',  ( 0.000000000000000000, 0.000000000000000000, 318.0000000000000000 ) ) ;
#238 = LOCAL_TIME ( 12, 11, 42.00000000000000000, #244 ) ;
#239 = CC_DESIGN_PERSON_AND_ORGANIZATION_ASSIGNMENT ( #269, #298, ( #155 ) ) ;
#240 = DIRECTION ( 'NONE',  ( 0.000000000000000000, 0.000000000000000000, 1.000000000000000000 ) ) ;
#241 = DIRECTION ( 'NONE',  ( 1.000000000000000000, 0.000000000000000000, 0.000000000000000000 ) ) ;
#242 = LINE ( 'NONE', #138, #162 ) ;
#243 = APPROVAL ( #248, 'NEURÈENÝ' ) ;
#244 = COORDINATED_UNIVERSAL_TIME_OFFSET ( 1, 0, .AHEAD. ) ;
#245 = EDGE_LOOP ( 'NONE', ( #54, #180 ) ) ;
#246 = CALENDAR_DATE ( 2022, 20, 6 ) ;
#247 = CIRCLE ( 'NONE', #148, 1.750000000000000000 ) ;
#248 = APPROVAL_STATUS ( 'not_yet_approved' ) ;
#249 = VECTOR ( 'NONE', #120, 1000.000000000000000 ) ;
#250 = PERSON_AND_ORGANIZATION ( #86, #84 ) ;
#251 = EDGE_LOOP ( 'NONE', ( #254, #296 ) ) ;
#252 = PERSON_AND_ORGANIZATION ( #86, #84 ) ;
#253 = VERTEX_POINT ( 'NONE', #216 ) ;
#254 = ORIENTED_EDGE ( 'NONE', *, *, #13, .T. ) ;
#255 = ORIENTED_EDGE ( 'NONE', *, *, #265, .T. ) ;
#256 = ORIENTED_EDGE ( 'NONE', *, *, #100, .F. ) ;
#257 = ADVANCED_FACE ( 'NONE', ( #283 ), #203, .F. ) ;
#258 = CARTESIAN_POINT ( 'NONE',  ( 1.750000000000000000, 2.143131898507868297E-16, 3.199999999999980638 ) ) ;
#259 = CARTESIAN_POINT ( 'NONE',  ( 0.000000000000000000, 0.000000000000000000, 3.000000000000000000 ) ) ;
#260 = AXIS2_PLACEMENT_3D ( 'NONE', #208, #278, #42 ) ;
#261 = LINE ( 'NONE', #99, #249 ) ;
#262 = CC_DESIGN_PERSON_AND_ORGANIZATION_ASSIGNMENT ( #105, #61, ( #119 ) ) ;
#263 = DIRECTION ( 'NONE',  ( 1.000000000000000000, 0.000000000000000000, 0.000000000000000000 ) ) ;
#264 = DIRECTION ( 'NONE',  ( -1.000000000000000000, 0.000000000000000000, 0.000000000000000000 ) ) ;
#265 = EDGE_CURVE ( 'NONE', #199, #253, #75, .T. ) ;
#266 = APPROVAL_ROLE ( '' ) ;
#267 = VECTOR ( 'NONE', #171, 1000.000000000000000 ) ;
#268 = COORDINATED_UNIVERSAL_TIME_OFFSET ( 1, 0, .AHEAD. ) ;
#269 = PERSON_AND_ORGANIZATION ( #86, #84 ) ;
#270 = DATE_AND_TIME ( #291, #60 ) ;
#271 = AXIS2_PLACEMENT_3D ( 'NONE', #259, #6, #26 ) ;
#272 = CC_DESIGN_SECURITY_CLASSIFICATION ( #113, ( #155 ) ) ;
#273 = APPLICATION_CONTEXT ( 'configuration controlled 3d designs of mechanical parts and assemblies' ) ;
#274 = ORIENTED_EDGE ( 'NONE', *, *, #100, .T. ) ;
#275 = ADVANCED_FACE ( 'NONE', ( #164 ), #71, .T. ) ;
#276 = EDGE_LOOP ( 'NONE', ( #116, #106 ) ) ;
#277 = DIRECTION ( 'NONE',  ( -0.000000000000000000, -0.000000000000000000, -1.000000000000000000 ) ) ;
#278 = DIRECTION ( 'NONE',  ( 0.000000000000000000, 0.000000000000000000, 1.000000000000000000 ) ) ;
#279 = FACE_BOUND ( 'NONE', #245, .T. ) ;
#280 = ADVANCED_BREP_SHAPE_REPRESENTATION ( '26f3', ( #210, #187 ), #18 ) ;
#281 = FACE_OUTER_BOUND ( 'NONE', #251, .T. ) ;
#282 = CIRCLE ( 'NONE', #136, 3.500000000000000444 ) ;
#283 = FACE_OUTER_BOUND ( 'NONE', #85, .T. ) ;
#284 = EDGE_CURVE ( 'NONE', #12, #253, #3, .T. ) ;
#285 = LINE ( 'NONE', #286, #267 ) ;
#286 = CARTESIAN_POINT ( 'NONE',  ( -3.500000000000000444, 0.000000000000000000, 3.000000000000000000 ) ) ;
#287 = CIRCLE ( 'NONE', #9, 0.2000000000000000944 ) ;
#288 = CIRCLE ( 'NONE', #200, 1.750000000000000000 ) ;
#289 = CARTESIAN_POINT ( 'NONE',  ( 0.000000000000000000, 0.000000000000000000, 318.0000000000000000 ) ) ;
#290 = EDGE_CURVE ( 'NONE', #196, #82, #261, .T. ) ;
#291 = CALENDAR_DATE ( 2022, 20, 6 ) ;
#292 = CALENDAR_DATE ( 2022, 20, 6 ) ;
#293 = ORIENTED_EDGE ( 'NONE', *, *, #159, .F. ) ;
#294 = APPROVAL_STATUS ( 'not_yet_approved' ) ;
#295 = EDGE_CURVE ( 'NONE', #199, #107, #288, .T. ) ;
#296 = ORIENTED_EDGE ( 'NONE', *, *, #74, .T. ) ;
#297 = MECHANICAL_CONTEXT ( 'NONE', #273, 'mechanical' ) ;
#298 = PERSON_AND_ORGANIZATION_ROLE ( 'design_supplier' ) ;
#299 = ADVANCED_FACE ( 'NONE', ( #191 ), #211, .T. ) ;
#300 = EDGE_LOOP ( 'NONE', ( #32, #135, #274, #229 ) ) ;
#301 = DIRECTION ( 'NONE',  ( 1.000000000000000000, 0.000000000000000000, 0.000000000000000000 ) ) ;
#302 = CIRCLE ( 'NONE', #260, 3.500000000000000444 ) ;
#303 = PLANE ( 'NONE',  #5 ) ;
#304 = DESIGN_CONTEXT ( 'detailed design', #114, 'design' ) ;
#305 = AXIS2_PLACEMENT_3D ( 'NONE', #209, #48, #143 ) ;
#306 = DIRECTION ( 'NONE',  ( 1.000000000000000000, 0.000000000000000000, -0.000000000000000000 ) ) ;
#307 = DIRECTION ( 'NONE',  ( -0.000000000000000000, -0.000000000000000000, -1.000000000000000000 ) ) ;
ENDSEC;
END-ISO-10303-21;
