ISO-10303-21;
HEADER;
FILE_DESCRIPTION (( 'STEP AP203' ),
    '1' );
FILE_NAME ('062c.STEP',
    '2022-06-20T10:30:43',
    ( '' ),
    ( '' ),
    'SwSTEP 2.0',
    'SolidWorks 2019',
    '' );
FILE_SCHEMA (( 'CONFIG_CONTROL_DESIGN' ));
ENDSEC;

DATA;
#1 = VERTEX_POINT ( 'NONE', #154 ) ;
#2 = APPLICATION_CONTEXT ( 'configuration controlled 3d designs of mechanical parts and assemblies' ) ;
#3 = ORIENTED_EDGE ( 'NONE', *, *, #68, .T. ) ;
#4 = PERSON_AND_ORGANIZATION ( #19, #219 ) ;
#5 = DIRECTION ( 'NONE',  ( 0.000000000000000000, 0.000000000000000000, 1.000000000000000000 ) ) ;
#6 = ORIENTED_EDGE ( 'NONE', *, *, #281, .T. ) ;
#7 = DIRECTION ( 'NONE',  ( 1.000000000000000000, 0.000000000000000000, 0.000000000000000000 ) ) ;
#8 = VERTEX_POINT ( 'NONE', #108 ) ;
#9 = DIRECTION ( 'NONE',  ( 1.000000000000000000, 0.000000000000000000, 0.000000000000000000 ) ) ;
#10 = DIRECTION ( 'NONE',  ( 1.000000000000000000, 0.000000000000000000, 0.000000000000000000 ) ) ;
#11 = AXIS2_PLACEMENT_3D ( 'NONE', #112, #303, #134 ) ;
#12 = EDGE_LOOP ( 'NONE', ( #75, #268, #117, #302 ) ) ;
#13 = COORDINATED_UNIVERSAL_TIME_OFFSET ( 1, 0, .AHEAD. ) ;
#14 = AXIS2_PLACEMENT_3D ( 'NONE', #292, #77, #170 ) ;
#15 = DIRECTION ( 'NONE',  ( 1.000000000000000000, 0.000000000000000000, 0.000000000000000000 ) ) ;
#16 = EDGE_CURVE ( 'NONE', #1, #90, #133, .T. ) ;
#17 = CARTESIAN_POINT ( 'NONE',  ( -1.250000000000000000, 0.000000000000000000, 0.000000000000000000 ) ) ;
#18 = CIRCLE ( 'NONE', #184, 1.250000000000000000 ) ;
#19 = PERSON ( 'NEURÈENÝ', 'NEURÈENÝ', 'NEURÈENÝ', ('NEURÈENÝ'), ('NEURÈENÝ'), ('NEURÈENÝ') ) ;
#20 = CIRCLE ( 'NONE', #11, 0.6999999999999999556 ) ;
#21 = LOCAL_TIME ( 12, 30, 43.00000000000000000, #127 ) ;
#22 = CYLINDRICAL_SURFACE ( 'NONE', #242, 1.250000000000000000 ) ;
#23 = APPROVAL ( #254, 'NEURÈENÝ' ) ;
#24 = LINE ( 'NONE', #206, #135 ) ;
#25 = VERTEX_POINT ( 'NONE', #176 ) ;
#26 = VERTEX_POINT ( 'NONE', #243 ) ;
#27 = EDGE_LOOP ( 'NONE', ( #146, #238, #143, #79 ) ) ;
#28 = DATE_AND_TIME ( #53, #162 ) ;
#29 = ADVANCED_FACE ( 'NONE', ( #100 ), #172, .F. ) ;
#30 = AXIS2_PLACEMENT_3D ( 'NONE', #215, #55, #291 ) ;
#31 = ORIENTED_EDGE ( 'NONE', *, *, #262, .F. ) ;
#32 = DIRECTION ( 'NONE',  ( 1.000000000000000000, 0.000000000000000000, 0.000000000000000000 ) ) ;
#33 = APPROVAL_STATUS ( 'not_yet_approved' ) ;
#34 = DIRECTION ( 'NONE',  ( 0.000000000000000000, 0.000000000000000000, 1.000000000000000000 ) ) ;
#35 = VECTOR ( 'NONE', #218, 1000.000000000000000 ) ;
#36 = EDGE_CURVE ( 'NONE', #25, #236, #209, .T. ) ;
#37 = EDGE_LOOP ( 'NONE', ( #240, #94 ) ) ;
#38 = PERSON_AND_ORGANIZATION ( #19, #219 ) ;
#39 = CARTESIAN_POINT ( 'NONE',  ( 1.250000000000000000, 1.530808498934191571E-16, 0.000000000000000000 ) ) ;
#40 = APPROVAL_STATUS ( 'not_yet_approved' ) ;
#41 = CIRCLE ( 'NONE', #144, 0.5000000000000000000 ) ;
#42 = APPROVAL_ROLE ( '' ) ;
#43 = CC_DESIGN_APPROVAL ( #258, ( #111 ) ) ;
#44 = PRODUCT ( '062c', '062c', '', ( #59 ) ) ;
#45 = CARTESIAN_POINT ( 'NONE',  ( 0.000000000000000000, 0.000000000000000000, 1.199999999999999956 ) ) ;
#46 = CARTESIAN_POINT ( 'NONE',  ( 0.000000000000000000, 0.000000000000000000, 1.199999999999999956 ) ) ;
#47 = FACE_OUTER_BOUND ( 'NONE', #27, .T. ) ;
#48 = CIRCLE ( 'NONE', #213, 1.250000000000000000 ) ;
#49 = AXIS2_PLACEMENT_3D ( 'NONE', #295, #217, #277 ) ;
#50 = ADVANCED_FACE ( 'NONE', ( #273 ), #294, .F. ) ;
#51 = AXIS2_PLACEMENT_3D ( 'NONE', #70, #136, #259 ) ;
#52 = EDGE_LOOP ( 'NONE', ( #192, #208, #54, #73 ) ) ;
#53 = CALENDAR_DATE ( 2022, 20, 6 ) ;
#54 = ORIENTED_EDGE ( 'NONE', *, *, #207, .T. ) ;
#55 = DIRECTION ( 'NONE',  ( 0.000000000000000000, 0.000000000000000000, 1.000000000000000000 ) ) ;
#56 = CC_DESIGN_PERSON_AND_ORGANIZATION_ASSIGNMENT ( #106, #275, ( #121 ) ) ;
#57 = CIRCLE ( 'NONE', #227, 0.1999999999999999833 ) ;
#58 = ORIENTED_EDGE ( 'NONE', *, *, #304, .T. ) ;
#59 = MECHANICAL_CONTEXT ( 'NONE', #230, 'mechanical' ) ;
#60 = CARTESIAN_POINT ( 'NONE',  ( 0.000000000000000000, 0.000000000000000000, 1.399999999999998579 ) ) ;
#61 = ADVANCED_FACE ( 'NONE', ( #62 ), #149, .T. ) ;
#62 = FACE_OUTER_BOUND ( 'NONE', #37, .T. ) ;
#63 = APPROVAL_DATE_TIME ( #28, #258 ) ;
#64 = VERTEX_POINT ( 'NONE', #39 ) ;
#65 = LOCAL_TIME ( 12, 30, 43.00000000000000000, #66 ) ;
#66 = COORDINATED_UNIVERSAL_TIME_OFFSET ( 1, 0, .AHEAD. ) ;
#67 = TOROIDAL_SURFACE ( 'NONE', #140, 0.6999999999999999556, 0.2000000000000000111 ) ;
#68 = EDGE_CURVE ( 'NONE', #8, #26, #102, .T. ) ;
#69 = DIRECTION ( 'NONE',  ( -0.000000000000000000, -0.000000000000000000, -1.000000000000000000 ) ) ;
#70 = CARTESIAN_POINT ( 'NONE',  ( 0.000000000000000000, 0.000000000000000000, 1.199999999999999956 ) ) ;
#71 = APPROVAL_PERSON_ORGANIZATION ( #223, #253, #246 ) ;
#72 = APPROVAL_PERSON_ORGANIZATION ( #38, #23, #42 ) ;
#73 = ORIENTED_EDGE ( 'NONE', *, *, #114, .F. ) ;
#74 = DIRECTION ( 'NONE',  ( 1.224646799147353207E-16, 1.000000000000000000, -0.000000000000000000 ) ) ;
#75 = ORIENTED_EDGE ( 'NONE', *, *, #235, .F. ) ;
#76 = CARTESIAN_POINT ( 'NONE',  ( 0.000000000000000000, 0.000000000000000000, 101.2000000000000171 ) ) ;
#77 = DIRECTION ( 'NONE',  ( 0.000000000000000000, 0.000000000000000000, 1.000000000000000000 ) ) ;
#78 = APPROVAL_ROLE ( '' ) ;
#79 = ORIENTED_EDGE ( 'NONE', *, *, #262, .T. ) ;
#80 = VERTEX_POINT ( 'NONE', #17 ) ;
#81 = ORIENTED_EDGE ( 'NONE', *, *, #235, .T. ) ;
#82 = CARTESIAN_POINT ( 'NONE',  ( 0.000000000000000000, 0.000000000000000000, 1.199999999999999956 ) ) ;
#83 = APPROVAL_PERSON_ORGANIZATION ( #4, #258, #78 ) ;
#84 = DIRECTION ( 'NONE',  ( 1.000000000000000000, 0.000000000000000000, 0.000000000000000000 ) ) ;
#85 = CIRCLE ( 'NONE', #282, 0.5000000000000000000 ) ;
#86 = CARTESIAN_POINT ( 'NONE',  ( 0.000000000000000000, 0.000000000000000000, 101.2000000000000171 ) ) ;
#87 = EDGE_CURVE ( 'NONE', #236, #25, #85, .T. ) ;
#88 = CC_DESIGN_APPROVAL ( #23, ( #121 ) ) ;
#89 = ORIENTED_EDGE ( 'NONE', *, *, #202, .F. ) ;
#90 = VERTEX_POINT ( 'NONE', #279 ) ;
#91 = COORDINATED_UNIVERSAL_TIME_OFFSET ( 1, 0, .AHEAD. ) ;
#92 = DIRECTION ( 'NONE',  ( 0.000000000000000000, 0.000000000000000000, 1.000000000000000000 ) ) ;
#93 = ORIENTED_EDGE ( 'NONE', *, *, #290, .F. ) ;
#94 = ORIENTED_EDGE ( 'NONE', *, *, #87, .T. ) ;
#95 = LINE ( 'NONE', #171, #161 ) ;
#96 = ADVANCED_FACE ( 'NONE', ( #201 ), #67, .F. ) ;
#97 = FACE_OUTER_BOUND ( 'NONE', #286, .T. ) ;
#98 = CARTESIAN_POINT ( 'NONE',  ( 0.6999999999999999556, 0.000000000000000000, 1.399999999999998579 ) ) ;
#99 = CC_DESIGN_DATE_AND_TIME_ASSIGNMENT ( #298, #228, ( #111 ) ) ;
#100 = FACE_OUTER_BOUND ( 'NONE', #119, .T. ) ;
#101 = PERSON_AND_ORGANIZATION ( #19, #219 ) ;
#102 = CIRCLE ( 'NONE', #222, 1.250000000000000000 ) ;
#103 = DIRECTION ( 'NONE',  ( 0.000000000000000000, 0.000000000000000000, 1.000000000000000000 ) ) ;
#104 = ADVANCED_FACE ( 'NONE', ( #131, #97 ), #194, .T. ) ;
#105 = CARTESIAN_POINT ( 'NONE',  ( 0.000000000000000000, 0.000000000000000000, 101.2000000000000171 ) ) ;
#106 = PERSON_AND_ORGANIZATION ( #19, #219 ) ;
#107 = AXIS2_PLACEMENT_3D ( 'NONE', #264, #92, #9 ) ;
#108 = CARTESIAN_POINT ( 'NONE',  ( 1.250000000000000000, 1.530808498934191571E-16, 1.199999999999999956 ) ) ;
#109 = DATE_AND_TIME ( #179, #229 ) ;
#110 = DIRECTION ( 'NONE',  ( -0.000000000000000000, -0.000000000000000000, -1.000000000000000000 ) ) ;
#111 = PRODUCT_DEFINITION ( 'NEZNÁMÝ', '', #121, #182 ) ;
#112 = CARTESIAN_POINT ( 'NONE',  ( 0.000000000000000000, 0.000000000000000000, 1.199999999999999956 ) ) ;
#113 = UNCERTAINTY_MEASURE_WITH_UNIT (LENGTH_MEASURE( 1.000000000000000082E-05 ), #287, 'distance_accuracy_value', 'NONE');
#114 = EDGE_CURVE ( 'NONE', #25, #124, #271, .T. ) ;
#115 = ORIENTED_EDGE ( 'NONE', *, *, #207, .F. ) ;
#116 = ORIENTED_EDGE ( 'NONE', *, *, #36, .F. ) ;
#117 = ORIENTED_EDGE ( 'NONE', *, *, #16, .F. ) ;
#118 = CARTESIAN_POINT ( 'NONE',  ( -1.250000000000000000, 0.000000000000000000, 1.199999999999999956 ) ) ;
#119 = EDGE_LOOP ( 'NONE', ( #31, #175 ) ) ;
#120 = CARTESIAN_POINT ( 'NONE',  ( 0.000000000000000000, 0.000000000000000000, 0.000000000000000000 ) ) ;
#121 = PRODUCT_DEFINITION_FORMATION_WITH_SPECIFIED_SOURCE ( 'LIBOVOLNÝ', '', #44, .NOT_KNOWN. ) ;
#122 = DIRECTION ( 'NONE',  ( 0.000000000000000000, 0.000000000000000000, 1.000000000000000000 ) ) ;
#123 = CARTESIAN_POINT ( 'NONE',  ( 0.5000000000000000000, 6.123233995736766036E-17, 101.2000000000000171 ) ) ;
#124 = VERTEX_POINT ( 'NONE', #233 ) ;
#125 = CALENDAR_DATE ( 2022, 20, 6 ) ;
#126 = CARTESIAN_POINT ( 'NONE',  ( 0.000000000000000000, 0.000000000000000000, 101.2000000000000171 ) ) ;
#127 = COORDINATED_UNIVERSAL_TIME_OFFSET ( 1, 0, .AHEAD. ) ;
#128 = DIRECTION ( 'NONE',  ( 0.000000000000000000, 0.000000000000000000, 1.000000000000000000 ) ) ;
#129 = CC_DESIGN_PERSON_AND_ORGANIZATION_ASSIGNMENT ( #225, #296, ( #269 ) ) ;
#130 = DATE_TIME_ROLE ( 'classification_date' ) ;
#131 = FACE_BOUND ( 'NONE', #263, .T. ) ;
#132 = CARTESIAN_POINT ( 'NONE',  ( -0.5000000000000000000, 0.000000000000000000, 101.2000000000000171 ) ) ;
#133 = CIRCLE ( 'NONE', #301, 0.6999999999999999556 ) ;
#134 = DIRECTION ( 'NONE',  ( 1.000000000000000000, 0.000000000000000000, 0.000000000000000000 ) ) ;
#135 = VECTOR ( 'NONE', #205, 1000.000000000000000 ) ;
#136 = DIRECTION ( 'NONE',  ( -0.000000000000000000, -0.000000000000000000, -1.000000000000000000 ) ) ;
#137 = ADVANCED_FACE ( 'NONE', ( #160 ), #139, .T. ) ;
#138 = CC_DESIGN_SECURITY_CLASSIFICATION ( #269, ( #121 ) ) ;
#139 = CYLINDRICAL_SURFACE ( 'NONE', #200, 0.5000000000000000000 ) ;
#140 = AXIS2_PLACEMENT_3D ( 'NONE', #226, #122, #10 ) ;
#141 = ORIENTED_EDGE ( 'NONE', *, *, #260, .F. ) ;
#142 = DIRECTION ( 'NONE',  ( -0.000000000000000000, -0.000000000000000000, -1.000000000000000000 ) ) ;
#143 = ORIENTED_EDGE ( 'NONE', *, *, #260, .T. ) ;
#144 = AXIS2_PLACEMENT_3D ( 'NONE', #232, #305, #7 ) ;
#145 = ADVANCED_FACE ( 'NONE', ( #47 ), #284, .T. ) ;
#146 = ORIENTED_EDGE ( 'NONE', *, *, #157, .F. ) ;
#147 = AXIS2_PLACEMENT_3D ( 'NONE', #247, #103, #152 ) ;
#148 = CARTESIAN_POINT ( 'NONE',  ( 0.000000000000000000, 0.000000000000000000, 1.199999999999999956 ) ) ;
#149 = PLANE ( 'NONE',  #237 ) ;
#150 = PERSON_AND_ORGANIZATION ( #19, #219 ) ;
#151 = LOCAL_TIME ( 12, 30, 43.00000000000000000, #13 ) ;
#152 = DIRECTION ( 'NONE',  ( 1.000000000000000000, 0.000000000000000000, -0.000000000000000000 ) ) ;
#153 = VECTOR ( 'NONE', #110, 1000.000000000000000 ) ;
#154 = CARTESIAN_POINT ( 'NONE',  ( 0.6999999999999999556, 0.000000000000000000, 1.199999999999999289 ) ) ;
#155 = PERSON_AND_ORGANIZATION_ROLE ( 'creator' ) ;
#156 = DIRECTION ( 'NONE',  ( -1.000000000000000000, 0.000000000000000000, 0.000000000000000000 ) ) ;
#157 = EDGE_CURVE ( 'NONE', #8, #64, #24, .T. ) ;
#158 =( GEOMETRIC_REPRESENTATION_CONTEXT ( 3 ) GLOBAL_UNCERTAINTY_ASSIGNED_CONTEXT ( ( #113 ) ) GLOBAL_UNIT_ASSIGNED_CONTEXT ( ( #287, #191, #289 ) ) REPRESENTATION_CONTEXT ( 'NONE', 'WORKASPACE' ) );
#159 = PRODUCT_DEFINITION_SHAPE ( 'NONE', 'NONE',  #111 ) ;
#160 = FACE_OUTER_BOUND ( 'NONE', #265, .T. ) ;
#161 = VECTOR ( 'NONE', #212, 1000.000000000000000 ) ;
#162 = LOCAL_TIME ( 12, 30, 43.00000000000000000, #91 ) ;
#163 = CIRCLE ( 'NONE', #107, 0.5000000000000000000 ) ;
#164 = DIRECTION ( 'NONE',  ( 0.000000000000000000, -1.000000000000000000, 0.000000000000000000 ) ) ;
#165 = MANIFOLD_SOLID_BREP ( 'Zaoblit1', #285 ) ;
#166 = ORIENTED_EDGE ( 'NONE', *, *, #114, .T. ) ;
#167 = VERTEX_POINT ( 'NONE', #256 ) ;
#168 = AXIS2_PLACEMENT_3D ( 'NONE', #98, #164, #293 ) ;
#169 = CARTESIAN_POINT ( 'NONE',  ( 0.000000000000000000, 0.000000000000000000, 0.000000000000000000 ) ) ;
#170 = DIRECTION ( 'NONE',  ( 1.000000000000000000, 0.000000000000000000, -0.000000000000000000 ) ) ;
#171 = CARTESIAN_POINT ( 'NONE',  ( 0.5000000000000000000, 6.123233995736766036E-17, 101.2000000000000171 ) ) ;
#172 = PLANE ( 'NONE',  #147 ) ;
#173 = SHAPE_DEFINITION_REPRESENTATION ( #159, #197 ) ;
#174 = ADVANCED_FACE ( 'NONE', ( #234 ), #22, .T. ) ;
#175 = ORIENTED_EDGE ( 'NONE', *, *, #281, .F. ) ;
#176 = CARTESIAN_POINT ( 'NONE',  ( -0.5000000000000000000, 0.000000000000000000, 101.2000000000000171 ) ) ;
#177 = CALENDAR_DATE ( 2022, 20, 6 ) ;
#178 = DIRECTION ( 'NONE',  ( 1.000000000000000000, 0.000000000000000000, 0.000000000000000000 ) ) ;
#179 = CALENDAR_DATE ( 2022, 20, 6 ) ;
#180 = APPROVAL_DATE_TIME ( #109, #23 ) ;
#181 = AXIS2_PLACEMENT_3D ( 'NONE', #76, #142, #266 ) ;
#182 = DESIGN_CONTEXT ( 'detailed design', #2, 'design' ) ;
#183 = DIRECTION ( 'NONE',  ( -0.000000000000000000, -0.000000000000000000, -1.000000000000000000 ) ) ;
#184 = AXIS2_PLACEMENT_3D ( 'NONE', #120, #5, #188 ) ;
#185 = CC_DESIGN_PERSON_AND_ORGANIZATION_ASSIGNMENT ( #244, #211, ( #44 ) ) ;
#186 = LINE ( 'NONE', #118, #35 ) ;
#187 = CIRCLE ( 'NONE', #30, 1.250000000000000000 ) ;
#188 = DIRECTION ( 'NONE',  ( 1.000000000000000000, 0.000000000000000000, 0.000000000000000000 ) ) ;
#189 = CC_DESIGN_APPROVAL ( #253, ( #269 ) ) ;
#190 = EDGE_CURVE ( 'NONE', #26, #8, #48, .T. ) ;
#191 =( NAMED_UNIT ( * ) PLANE_ANGLE_UNIT ( ) SI_UNIT ( $, .RADIAN. ) );
#192 = ORIENTED_EDGE ( 'NONE', *, *, #87, .F. ) ;
#193 = CYLINDRICAL_SURFACE ( 'NONE', #181, 0.5000000000000000000 ) ;
#194 = PLANE ( 'NONE',  #14 ) ;
#195 = AXIS2_PLACEMENT_3D ( 'NONE', #169, #196, #216 ) ;
#196 = DIRECTION ( 'NONE',  ( 0.000000000000000000, 0.000000000000000000, 1.000000000000000000 ) ) ;
#197 = ADVANCED_BREP_SHAPE_REPRESENTATION ( '062c', ( #165, #195 ), #158 ) ;
#198 = ORIENTED_EDGE ( 'NONE', *, *, #190, .T. ) ;
#199 = ORIENTED_EDGE ( 'NONE', *, *, #202, .T. ) ;
#200 = AXIS2_PLACEMENT_3D ( 'NONE', #86, #183, #307 ) ;
#201 = FACE_OUTER_BOUND ( 'NONE', #12, .T. ) ;
#202 = EDGE_CURVE ( 'NONE', #90, #1, #20, .T. ) ;
#203 = CALENDAR_DATE ( 2022, 20, 6 ) ;
#204 = CC_DESIGN_DATE_AND_TIME_ASSIGNMENT ( #280, #130, ( #269 ) ) ;
#205 = DIRECTION ( 'NONE',  ( -0.000000000000000000, -0.000000000000000000, -1.000000000000000000 ) ) ;
#206 = CARTESIAN_POINT ( 'NONE',  ( 1.250000000000000000, 1.530808498934191571E-16, 1.199999999999999956 ) ) ;
#207 = EDGE_CURVE ( 'NONE', #167, #124, #41, .T. ) ;
#208 = ORIENTED_EDGE ( 'NONE', *, *, #250, .T. ) ;
#209 = CIRCLE ( 'NONE', #49, 0.5000000000000000000 ) ;
#210 = ORIENTED_EDGE ( 'NONE', *, *, #250, .F. ) ;
#211 = PERSON_AND_ORGANIZATION_ROLE ( 'design_owner' ) ;
#212 = DIRECTION ( 'NONE',  ( -0.000000000000000000, -0.000000000000000000, -1.000000000000000000 ) ) ;
#213 = AXIS2_PLACEMENT_3D ( 'NONE', #46, #255, #84 ) ;
#214 = ORIENTED_EDGE ( 'NONE', *, *, #157, .T. ) ;
#215 = CARTESIAN_POINT ( 'NONE',  ( 0.000000000000000000, 0.000000000000000000, 0.000000000000000000 ) ) ;
#216 = DIRECTION ( 'NONE',  ( 1.000000000000000000, 0.000000000000000000, 0.000000000000000000 ) ) ;
#217 = DIRECTION ( 'NONE',  ( 0.000000000000000000, 0.000000000000000000, 1.000000000000000000 ) ) ;
#218 = DIRECTION ( 'NONE',  ( -0.000000000000000000, -0.000000000000000000, -1.000000000000000000 ) ) ;
#219 = ORGANIZATION ( 'NEURÈENÝ', 'NEURÈENÝ', '' ) ;
#220 = EDGE_LOOP ( 'NONE', ( #245, #214, #6, #141 ) ) ;
#221 = DIRECTION ( 'NONE',  ( 0.000000000000000000, 0.000000000000000000, 1.000000000000000000 ) ) ;
#222 = AXIS2_PLACEMENT_3D ( 'NONE', #82, #128, #224 ) ;
#223 = PERSON_AND_ORGANIZATION ( #19, #219 ) ;
#224 = DIRECTION ( 'NONE',  ( 1.000000000000000000, 0.000000000000000000, 0.000000000000000000 ) ) ;
#225 = PERSON_AND_ORGANIZATION ( #19, #219 ) ;
#226 = CARTESIAN_POINT ( 'NONE',  ( 0.000000000000000000, 0.000000000000000000, 1.399999999999998579 ) ) ;
#227 = AXIS2_PLACEMENT_3D ( 'NONE', #272, #74, #241 ) ;
#228 = DATE_TIME_ROLE ( 'creation_date' ) ;
#229 = LOCAL_TIME ( 12, 30, 43.00000000000000000, #278 ) ;
#230 = APPLICATION_CONTEXT ( 'configuration controlled 3d designs of mechanical parts and assemblies' ) ;
#231 = SECURITY_CLASSIFICATION_LEVEL ( 'unclassified' ) ;
#232 = CARTESIAN_POINT ( 'NONE',  ( 0.000000000000000000, 0.000000000000000000, 1.399999999999998579 ) ) ;
#233 = CARTESIAN_POINT ( 'NONE',  ( -0.5000000000000000000, 0.000000000000000000, 1.399999999999998579 ) ) ;
#234 = FACE_OUTER_BOUND ( 'NONE', #220, .T. ) ;
#235 = EDGE_CURVE ( 'NONE', #124, #167, #163, .T. ) ;
#236 = VERTEX_POINT ( 'NONE', #123 ) ;
#237 = AXIS2_PLACEMENT_3D ( 'NONE', #126, #221, #249 ) ;
#238 = ORIENTED_EDGE ( 'NONE', *, *, #190, .F. ) ;
#239 = APPLICATION_PROTOCOL_DEFINITION ( 'international standard', 'config_control_design', 1994, #2 ) ;
#240 = ORIENTED_EDGE ( 'NONE', *, *, #36, .T. ) ;
#241 = DIRECTION ( 'NONE',  ( -1.000000000000000000, 1.224646799147352714E-16, 0.000000000000000000 ) ) ;
#242 = AXIS2_PLACEMENT_3D ( 'NONE', #45, #69, #156 ) ;
#243 = CARTESIAN_POINT ( 'NONE',  ( -1.250000000000000000, 0.000000000000000000, 1.199999999999999956 ) ) ;
#244 = PERSON_AND_ORGANIZATION ( #19, #219 ) ;
#245 = ORIENTED_EDGE ( 'NONE', *, *, #68, .F. ) ;
#246 = APPROVAL_ROLE ( '' ) ;
#247 = CARTESIAN_POINT ( 'NONE',  ( 0.000000000000000000, 0.000000000000000000, 0.000000000000000000 ) ) ;
#248 = DATE_AND_TIME ( #125, #21 ) ;
#249 = DIRECTION ( 'NONE',  ( 1.000000000000000000, 0.000000000000000000, -0.000000000000000000 ) ) ;
#250 = EDGE_CURVE ( 'NONE', #236, #167, #95, .T. ) ;
#251 = PERSON_AND_ORGANIZATION_ROLE ( 'creator' ) ;
#252 = DIRECTION ( 'NONE',  ( 0.000000000000000000, 0.000000000000000000, 1.000000000000000000 ) ) ;
#253 = APPROVAL ( #40, 'NEURÈENÝ' ) ;
#254 = APPROVAL_STATUS ( 'not_yet_approved' ) ;
#255 = DIRECTION ( 'NONE',  ( 0.000000000000000000, 0.000000000000000000, 1.000000000000000000 ) ) ;
#256 = CARTESIAN_POINT ( 'NONE',  ( 0.5000000000000000000, 6.123233995736766036E-17, 1.399999999999998579 ) ) ;
#257 = AXIS2_PLACEMENT_3D ( 'NONE', #60, #34, #32 ) ;
#258 = APPROVAL ( #33, 'NEURÈENÝ' ) ;
#259 = DIRECTION ( 'NONE',  ( -1.000000000000000000, 0.000000000000000000, 0.000000000000000000 ) ) ;
#260 = EDGE_CURVE ( 'NONE', #26, #80, #186, .T. ) ;
#261 = CC_DESIGN_PERSON_AND_ORGANIZATION_ASSIGNMENT ( #101, #155, ( #111 ) ) ;
#262 = EDGE_CURVE ( 'NONE', #80, #64, #18, .T. ) ;
#263 = EDGE_LOOP ( 'NONE', ( #297, #199 ) ) ;
#264 = CARTESIAN_POINT ( 'NONE',  ( 0.000000000000000000, 0.000000000000000000, 1.399999999999998579 ) ) ;
#265 = EDGE_LOOP ( 'NONE', ( #210, #116, #166, #81 ) ) ;
#266 = DIRECTION ( 'NONE',  ( -1.000000000000000000, 0.000000000000000000, 0.000000000000000000 ) ) ;
#267 = CIRCLE ( 'NONE', #168, 0.2000000000000000944 ) ;
#268 = ORIENTED_EDGE ( 'NONE', *, *, #290, .T. ) ;
#269 = SECURITY_CLASSIFICATION ( '', '', #231 ) ;
#270 = APPLICATION_PROTOCOL_DEFINITION ( 'international standard', 'config_control_design', 1994, #230 ) ;
#271 = LINE ( 'NONE', #132, #153 ) ;
#272 = CARTESIAN_POINT ( 'NONE',  ( -0.6999999999999999556, 8.572527594031471957E-17, 1.399999999999998579 ) ) ;
#273 = FACE_OUTER_BOUND ( 'NONE', #299, .T. ) ;
#274 = DIRECTION ( 'NONE',  ( -0.000000000000000000, -0.000000000000000000, -1.000000000000000000 ) ) ;
#275 = PERSON_AND_ORGANIZATION_ROLE ( 'design_supplier' ) ;
#276 = PRODUCT_RELATED_PRODUCT_CATEGORY ( 'detail', '', ( #44 ) ) ;
#277 = DIRECTION ( 'NONE',  ( 1.000000000000000000, 0.000000000000000000, 0.000000000000000000 ) ) ;
#278 = COORDINATED_UNIVERSAL_TIME_OFFSET ( 1, 0, .AHEAD. ) ;
#279 = CARTESIAN_POINT ( 'NONE',  ( -0.6999999999999999556, 8.572527594031473190E-17, 1.199999999999999289 ) ) ;
#280 = DATE_AND_TIME ( #203, #65 ) ;
#281 = EDGE_CURVE ( 'NONE', #64, #80, #187, .T. ) ;
#282 = AXIS2_PLACEMENT_3D ( 'NONE', #105, #252, #178 ) ;
#283 = ADVANCED_FACE ( 'NONE', ( #288 ), #193, .T. ) ;
#284 = CYLINDRICAL_SURFACE ( 'NONE', #51, 1.250000000000000000 ) ;
#285 = CLOSED_SHELL ( 'NONE', ( #96, #283, #174, #145, #104, #29, #137, #61, #50 ) ) ;
#286 = EDGE_LOOP ( 'NONE', ( #198, #3 ) ) ;
#287 =( LENGTH_UNIT ( ) NAMED_UNIT ( * ) SI_UNIT ( .MILLI., .METRE. ) );
#288 = FACE_OUTER_BOUND ( 'NONE', #52, .T. ) ;
#289 =( NAMED_UNIT ( * ) SI_UNIT ( $, .STERADIAN. ) SOLID_ANGLE_UNIT ( ) );
#290 = EDGE_CURVE ( 'NONE', #124, #90, #57, .T. ) ;
#291 = DIRECTION ( 'NONE',  ( 1.000000000000000000, 0.000000000000000000, 0.000000000000000000 ) ) ;
#292 = CARTESIAN_POINT ( 'NONE',  ( 0.000000000000000000, 0.000000000000000000, 1.199999999999999956 ) ) ;
#293 = DIRECTION ( 'NONE',  ( 0.000000000000000000, 0.000000000000000000, -1.000000000000000000 ) ) ;
#294 = TOROIDAL_SURFACE ( 'NONE', #257, 0.6999999999999999556, 0.2000000000000000111 ) ;
#295 = CARTESIAN_POINT ( 'NONE',  ( 0.000000000000000000, 0.000000000000000000, 101.2000000000000171 ) ) ;
#296 = PERSON_AND_ORGANIZATION_ROLE ( 'classification_officer' ) ;
#297 = ORIENTED_EDGE ( 'NONE', *, *, #16, .T. ) ;
#298 = DATE_AND_TIME ( #177, #151 ) ;
#299 = EDGE_LOOP ( 'NONE', ( #93, #115, #58, #89 ) ) ;
#300 = APPROVAL_DATE_TIME ( #248, #253 ) ;
#301 = AXIS2_PLACEMENT_3D ( 'NONE', #148, #274, #15 ) ;
#302 = ORIENTED_EDGE ( 'NONE', *, *, #304, .F. ) ;
#303 = DIRECTION ( 'NONE',  ( -0.000000000000000000, -0.000000000000000000, -1.000000000000000000 ) ) ;
#304 = EDGE_CURVE ( 'NONE', #167, #1, #267, .T. ) ;
#305 = DIRECTION ( 'NONE',  ( 0.000000000000000000, 0.000000000000000000, 1.000000000000000000 ) ) ;
#306 = CC_DESIGN_PERSON_AND_ORGANIZATION_ASSIGNMENT ( #150, #251, ( #121 ) ) ;
#307 = DIRECTION ( 'NONE',  ( -1.000000000000000000, 0.000000000000000000, 0.000000000000000000 ) ) ;
ENDSEC;
END-ISO-10303-21;
