ISO-10303-21;
HEADER;
FILE_DESCRIPTION (( 'STEP AP203' ),
    '1' );
FILE_NAME ('6034.STEP',
    '2022-06-20T09:41:26',
    ( '' ),
    ( '' ),
    'SwSTEP 2.0',
    'SolidWorks 2019',
    '' );
FILE_SCHEMA (( 'CONFIG_CONTROL_DESIGN' ));
ENDSEC;

DATA;
#1 = DIRECTION ( 'NONE',  ( -0.000000000000000000, -0.000000000000000000, -1.000000000000000000 ) ) ;
#2 =( NAMED_UNIT ( * ) PLANE_ANGLE_UNIT ( ) SI_UNIT ( $, .RADIAN. ) );
#3 = VECTOR ( 'NONE', #290, 1000.000000000000000 ) ;
#4 = DATE_AND_TIME ( #32, #211 ) ;
#5 = CARTESIAN_POINT ( 'NONE',  ( 5.000000000000000888, 6.123233995736767268E-16, 205.0000000000000284 ) ) ;
#6 = DATE_AND_TIME ( #9, #113 ) ;
#7 = MANIFOLD_SOLID_BREP ( 'Zaoblit1', #137 ) ;
#8 = CARTESIAN_POINT ( 'NONE',  ( 0.000000000000000000, 0.000000000000000000, 5.000000000000000000 ) ) ;
#9 = CALENDAR_DATE ( 2022, 20, 6 ) ;
#10 = DIRECTION ( 'NONE',  ( -1.000000000000000000, 0.000000000000000000, 0.000000000000000000 ) ) ;
#11 = DIRECTION ( 'NONE',  ( -1.000000000000000000, 1.224646799147353454E-16, 0.000000000000000000 ) ) ;
#12 = CARTESIAN_POINT ( 'NONE',  ( 0.000000000000000000, 0.000000000000000000, 205.0000000000000284 ) ) ;
#13 = CARTESIAN_POINT ( 'NONE',  ( 0.000000000000000000, 0.000000000000000000, 5.000000000000000000 ) ) ;
#14 = APPLICATION_CONTEXT ( 'configuration controlled 3d designs of mechanical parts and assemblies' ) ;
#15 = ADVANCED_FACE ( 'NONE', ( #254 ), #180, .T. ) ;
#16 = EDGE_CURVE ( 'NONE', #253, #275, #95, .T. ) ;
#17 = DIRECTION ( 'NONE',  ( 1.000000000000000000, 0.000000000000000000, -0.000000000000000000 ) ) ;
#18 = VECTOR ( 'NONE', #45, 1000.000000000000000 ) ;
#19 = CYLINDRICAL_SURFACE ( 'NONE', #130, 8.000000000000000000 ) ;
#20 = AXIS2_PLACEMENT_3D ( 'NONE', #140, #199, #142 ) ;
#21 = CARTESIAN_POINT ( 'NONE',  ( 0.000000000000000000, 0.000000000000000000, 205.0000000000000284 ) ) ;
#22 = DIRECTION ( 'NONE',  ( 0.000000000000000000, 0.000000000000000000, 1.000000000000000000 ) ) ;
#23 = APPROVAL ( #63, 'NEURÈENÝ' ) ;
#24 = CC_DESIGN_APPROVAL ( #171, ( #102 ) ) ;
#25 = PERSON_AND_ORGANIZATION_ROLE ( 'design_owner' ) ;
#26 = EDGE_CURVE ( 'NONE', #129, #133, #300, .T. ) ;
#27 = LINE ( 'NONE', #289, #3 ) ;
#28 = AXIS2_PLACEMENT_3D ( 'NONE', #47, #135, #111 ) ;
#29 = ORIENTED_EDGE ( 'NONE', *, *, #26, .T. ) ;
#30 = APPROVAL_DATE_TIME ( #197, #251 ) ;
#31 = EDGE_LOOP ( 'NONE', ( #268, #200, #221, #67 ) ) ;
#32 = CALENDAR_DATE ( 2022, 20, 6 ) ;
#33 = ORIENTED_EDGE ( 'NONE', *, *, #93, .F. ) ;
#34 = SHAPE_DEFINITION_REPRESENTATION ( #250, #205 ) ;
#35 = CARTESIAN_POINT ( 'NONE',  ( 5.000000000000000888, 6.123233995736767268E-16, 205.0000000000000284 ) ) ;
#36 = APPLICATION_CONTEXT ( 'configuration controlled 3d designs of mechanical parts and assemblies' ) ;
#37 = ORIENTED_EDGE ( 'NONE', *, *, #103, .F. ) ;
#38 = CIRCLE ( 'NONE', #161, 8.000000000000000000 ) ;
#39 = DATE_AND_TIME ( #274, #265 ) ;
#40 = APPROVAL_PERSON_ORGANIZATION ( #220, #251, #166 ) ;
#41 = ORIENTED_EDGE ( 'NONE', *, *, #26, .F. ) ;
#42 = ORIENTED_EDGE ( 'NONE', *, *, #260, .F. ) ;
#43 = DIRECTION ( 'NONE',  ( -0.000000000000000000, -0.000000000000000000, -1.000000000000000000 ) ) ;
#44 =( GEOMETRIC_REPRESENTATION_CONTEXT ( 3 ) GLOBAL_UNCERTAINTY_ASSIGNED_CONTEXT ( ( #266 ) ) GLOBAL_UNIT_ASSIGNED_CONTEXT ( ( #120, #2, #238 ) ) REPRESENTATION_CONTEXT ( 'NONE', 'WORKASPACE' ) );
#45 = DIRECTION ( 'NONE',  ( -0.000000000000000000, -0.000000000000000000, -1.000000000000000000 ) ) ;
#46 = EDGE_CURVE ( 'NONE', #150, #57, #178, .T. ) ;
#47 = CARTESIAN_POINT ( 'NONE',  ( 0.000000000000000000, 0.000000000000000000, 5.200000000000009948 ) ) ;
#48 = AXIS2_PLACEMENT_3D ( 'NONE', #8, #270, #61 ) ;
#49 = DIRECTION ( 'NONE',  ( 1.000000000000000000, 0.000000000000000000, 0.000000000000000000 ) ) ;
#50 = DIRECTION ( 'NONE',  ( 0.000000000000000000, 0.000000000000000000, 1.000000000000000000 ) ) ;
#51 = CC_DESIGN_PERSON_AND_ORGANIZATION_ASSIGNMENT ( #107, #181, ( #102 ) ) ;
#52 = CARTESIAN_POINT ( 'NONE',  ( 5.000000000000000888, 6.123233995736767268E-16, 5.200000000000009948 ) ) ;
#53 = AXIS2_PLACEMENT_3D ( 'NONE', #298, #208, #10 ) ;
#54 = APPLICATION_PROTOCOL_DEFINITION ( 'international standard', 'config_control_design', 1994, #36 ) ;
#55 = AXIS2_PLACEMENT_3D ( 'NONE', #187, #159, #90 ) ;
#56 = PRODUCT_DEFINITION ( 'NEZNÁMÝ', '', #102, #286 ) ;
#57 = VERTEX_POINT ( 'NONE', #106 ) ;
#58 = CC_DESIGN_PERSON_AND_ORGANIZATION_ASSIGNMENT ( #149, #272, ( #102 ) ) ;
#59 = CARTESIAN_POINT ( 'NONE',  ( -5.200000000000001066, 6.368163355566237368E-16, 5.000000000000005329 ) ) ;
#60 = ORIENTED_EDGE ( 'NONE', *, *, #249, .F. ) ;
#61 = DIRECTION ( 'NONE',  ( 1.000000000000000000, 0.000000000000000000, 0.000000000000000000 ) ) ;
#62 = EDGE_LOOP ( 'NONE', ( #248, #65 ) ) ;
#63 = APPROVAL_STATUS ( 'not_yet_approved' ) ;
#64 = LOCAL_TIME ( 11, 41, 26.00000000000000000, #276 ) ;
#65 = ORIENTED_EDGE ( 'NONE', *, *, #46, .T. ) ;
#66 = PERSON_AND_ORGANIZATION ( #172, #87 ) ;
#67 = ORIENTED_EDGE ( 'NONE', *, *, #186, .F. ) ;
#68 = FACE_OUTER_BOUND ( 'NONE', #207, .T. ) ;
#69 = PLANE ( 'NONE',  #138 ) ;
#70 = DIRECTION ( 'NONE',  ( -0.000000000000000000, -0.000000000000000000, -1.000000000000000000 ) ) ;
#71 = CIRCLE ( 'NONE', #55, 0.1999999999999996503 ) ;
#72 = PERSON_AND_ORGANIZATION ( #172, #87 ) ;
#73 = ADVANCED_FACE ( 'NONE', ( #154 ), #255, .T. ) ;
#74 = COORDINATED_UNIVERSAL_TIME_OFFSET ( 1, 0, .AHEAD. ) ;
#75 = PERSON_AND_ORGANIZATION ( #172, #87 ) ;
#76 = CC_DESIGN_PERSON_AND_ORGANIZATION_ASSIGNMENT ( #77, #295, ( #244 ) ) ;
#77 = PERSON_AND_ORGANIZATION ( #172, #87 ) ;
#78 = VERTEX_POINT ( 'NONE', #296 ) ;
#79 = VECTOR ( 'NONE', #125, 1000.000000000000000 ) ;
#80 = EDGE_CURVE ( 'NONE', #83, #228, #278, .T. ) ;
#81 = ORIENTED_EDGE ( 'NONE', *, *, #168, .F. ) ;
#82 = ORIENTED_EDGE ( 'NONE', *, *, #126, .T. ) ;
#83 = VERTEX_POINT ( 'NONE', #5 ) ;
#84 = ORIENTED_EDGE ( 'NONE', *, *, #195, .T. ) ;
#85 = PRODUCT_RELATED_PRODUCT_CATEGORY ( 'detail', '', ( #143 ) ) ;
#86 = DIRECTION ( 'NONE',  ( 1.000000000000000000, 0.000000000000000000, 0.000000000000000000 ) ) ;
#87 = ORGANIZATION ( 'NEURÈENÝ', 'NEURÈENÝ', '' ) ;
#88 = FACE_OUTER_BOUND ( 'NONE', #31, .T. ) ;
#89 = DIRECTION ( 'NONE',  ( 1.000000000000000000, 0.000000000000000000, 0.000000000000000000 ) ) ;
#90 = DIRECTION ( 'NONE',  ( 0.000000000000000000, 0.000000000000000000, -1.000000000000000000 ) ) ;
#91 = DIRECTION ( 'NONE',  ( 1.000000000000000000, 0.000000000000000000, 0.000000000000000000 ) ) ;
#92 = LOCAL_TIME ( 11, 41, 26.00000000000000000, #119 ) ;
#93 = EDGE_CURVE ( 'NONE', #57, #150, #38, .T. ) ;
#94 = DIRECTION ( 'NONE',  ( 0.000000000000000000, 0.000000000000000000, 1.000000000000000000 ) ) ;
#95 = CIRCLE ( 'NONE', #263, 0.1999999999999996503 ) ;
#96 = PERSON_AND_ORGANIZATION_ROLE ( 'creator' ) ;
#97 = CARTESIAN_POINT ( 'NONE',  ( 0.000000000000000000, 0.000000000000000000, 0.000000000000000000 ) ) ;
#98 = CIRCLE ( 'NONE', #145, 5.000000000000000888 ) ;
#99 = DATE_TIME_ROLE ( 'creation_date' ) ;
#100 = MECHANICAL_CONTEXT ( 'NONE', #14, 'mechanical' ) ;
#101 = EDGE_LOOP ( 'NONE', ( #37, #33, #299, #110 ) ) ;
#102 = PRODUCT_DEFINITION_FORMATION_WITH_SPECIFIED_SOURCE ( 'LIBOVOLNÝ', '', #143, .NOT_KNOWN. ) ;
#103 = EDGE_CURVE ( 'NONE', #150, #129, #192, .T. ) ;
#104 = COORDINATED_UNIVERSAL_TIME_OFFSET ( 1, 0, .AHEAD. ) ;
#105 = ADVANCED_FACE ( 'NONE', ( #214 ), #256, .F. ) ;
#106 = CARTESIAN_POINT ( 'NONE',  ( -8.000000000000000000, 0.000000000000000000, 5.000000000000000000 ) ) ;
#107 = PERSON_AND_ORGANIZATION ( #172, #87 ) ;
#108 = CARTESIAN_POINT ( 'NONE',  ( 0.000000000000000000, 0.000000000000000000, 0.000000000000000000 ) ) ;
#109 = DIRECTION ( 'NONE',  ( 1.000000000000000000, 0.000000000000000000, 0.000000000000000000 ) ) ;
#110 = ORIENTED_EDGE ( 'NONE', *, *, #168, .T. ) ;
#111 = DIRECTION ( 'NONE',  ( 1.000000000000000000, 0.000000000000000000, 0.000000000000000000 ) ) ;
#112 = CARTESIAN_POINT ( 'NONE',  ( 0.000000000000000000, 0.000000000000000000, 5.000000000000000000 ) ) ;
#113 = LOCAL_TIME ( 11, 41, 26.00000000000000000, #151 ) ;
#114 = DIRECTION ( 'NONE',  ( 0.000000000000000000, 0.000000000000000000, 1.000000000000000000 ) ) ;
#115 = FACE_OUTER_BOUND ( 'NONE', #182, .T. ) ;
#116 = DIRECTION ( 'NONE',  ( 1.000000000000000000, 0.000000000000000000, 0.000000000000000000 ) ) ;
#117 = PLANE ( 'NONE',  #188 ) ;
#118 = AXIS2_PLACEMENT_3D ( 'NONE', #13, #261, #259 ) ;
#119 = COORDINATED_UNIVERSAL_TIME_OFFSET ( 1, 0, .AHEAD. ) ;
#120 =( LENGTH_UNIT ( ) NAMED_UNIT ( * ) SI_UNIT ( .MILLI., .METRE. ) );
#121 = ORIENTED_EDGE ( 'NONE', *, *, #103, .T. ) ;
#122 = PERSON_AND_ORGANIZATION ( #172, #87 ) ;
#123 = ORIENTED_EDGE ( 'NONE', *, *, #80, .F. ) ;
#124 = DIRECTION ( 'NONE',  ( 1.000000000000000000, 0.000000000000000000, -0.000000000000000000 ) ) ;
#125 = DIRECTION ( 'NONE',  ( -0.000000000000000000, -0.000000000000000000, -1.000000000000000000 ) ) ;
#126 = EDGE_CURVE ( 'NONE', #184, #275, #156, .T. ) ;
#127 = ADVANCED_FACE ( 'NONE', ( #68 ), #69, .T. ) ;
#128 = SECURITY_CLASSIFICATION_LEVEL ( 'unclassified' ) ;
#129 = VERTEX_POINT ( 'NONE', #302 ) ;
#130 = AXIS2_PLACEMENT_3D ( 'NONE', #301, #279, #134 ) ;
#131 = ORIENTED_EDGE ( 'NONE', *, *, #80, .T. ) ;
#132 = ORIENTED_EDGE ( 'NONE', *, *, #147, .F. ) ;
#133 = VERTEX_POINT ( 'NONE', #163 ) ;
#134 = DIRECTION ( 'NONE',  ( -1.000000000000000000, 0.000000000000000000, 0.000000000000000000 ) ) ;
#135 = DIRECTION ( 'NONE',  ( 0.000000000000000000, 0.000000000000000000, 1.000000000000000000 ) ) ;
#136 = EDGE_CURVE ( 'NONE', #78, #83, #242, .T. ) ;
#137 = CLOSED_SHELL ( 'NONE', ( #153, #73, #158, #15, #169, #282, #217, #127, #105 ) ) ;
#138 = AXIS2_PLACEMENT_3D ( 'NONE', #21, #50, #17 ) ;
#139 = DIRECTION ( 'NONE',  ( 0.000000000000000000, 0.000000000000000000, 1.000000000000000000 ) ) ;
#140 = CARTESIAN_POINT ( 'NONE',  ( 0.000000000000000000, 0.000000000000000000, 5.200000000000009948 ) ) ;
#141 = APPROVAL_PERSON_ORGANIZATION ( #66, #23, #174 ) ;
#142 = DIRECTION ( 'NONE',  ( 1.000000000000000000, 0.000000000000000000, 0.000000000000000000 ) ) ;
#143 = PRODUCT ( '6034', '6034', '', ( #100 ) ) ;
#144 = APPROVAL_STATUS ( 'not_yet_approved' ) ;
#145 = AXIS2_PLACEMENT_3D ( 'NONE', #213, #114, #86 ) ;
#146 = ORIENTED_EDGE ( 'NONE', *, *, #46, .F. ) ;
#147 = EDGE_CURVE ( 'NONE', #228, #253, #216, .T. ) ;
#148 = EDGE_LOOP ( 'NONE', ( #81, #41 ) ) ;
#149 = PERSON_AND_ORGANIZATION ( #172, #87 ) ;
#150 = VERTEX_POINT ( 'NONE', #155 ) ;
#151 = COORDINATED_UNIVERSAL_TIME_OFFSET ( 1, 0, .AHEAD. ) ;
#152 = ORIENTED_EDGE ( 'NONE', *, *, #185, .F. ) ;
#153 = ADVANCED_FACE ( 'NONE', ( #88 ), #237, .F. ) ;
#154 = FACE_OUTER_BOUND ( 'NONE', #223, .T. ) ;
#155 = CARTESIAN_POINT ( 'NONE',  ( 8.000000000000000000, 9.797174393178825657E-16, 5.000000000000000000 ) ) ;
#156 = CIRCLE ( 'NONE', #252, 5.200000000000001066 ) ;
#157 = FACE_OUTER_BOUND ( 'NONE', #204, .T. ) ;
#158 = ADVANCED_FACE ( 'NONE', ( #115 ), #19, .T. ) ;
#159 = DIRECTION ( 'NONE',  ( 0.000000000000000000, -1.000000000000000000, 0.000000000000000000 ) ) ;
#160 = CARTESIAN_POINT ( 'NONE',  ( 0.000000000000000000, 0.000000000000000000, 205.0000000000000284 ) ) ;
#161 = AXIS2_PLACEMENT_3D ( 'NONE', #294, #273, #284 ) ;
#162 = CC_DESIGN_APPROVAL ( #23, ( #244 ) ) ;
#163 = CARTESIAN_POINT ( 'NONE',  ( -8.000000000000000000, 0.000000000000000000, 0.000000000000000000 ) ) ;
#164 = CARTESIAN_POINT ( 'NONE',  ( -8.000000000000000000, 0.000000000000000000, 5.000000000000000000 ) ) ;
#165 = AXIS2_PLACEMENT_3D ( 'NONE', #108, #206, #109 ) ;
#166 = APPROVAL_ROLE ( '' ) ;
#167 = CIRCLE ( 'NONE', #235, 5.200000000000001066 ) ;
#168 = EDGE_CURVE ( 'NONE', #133, #129, #303, .T. ) ;
#169 = ADVANCED_FACE ( 'NONE', ( #189, #190 ), #262, .T. ) ;
#170 = ORIENTED_EDGE ( 'NONE', *, *, #239, .T. ) ;
#171 = APPROVAL ( #173, 'NEURÈENÝ' ) ;
#172 = PERSON ( 'NEURÈENÝ', 'NEURÈENÝ', 'NEURÈENÝ', ('NEURÈENÝ'), ('NEURÈENÝ'), ('NEURÈENÝ') ) ;
#173 = APPROVAL_STATUS ( 'not_yet_approved' ) ;
#174 = APPROVAL_ROLE ( '' ) ;
#175 = ORIENTED_EDGE ( 'NONE', *, *, #147, .T. ) ;
#176 = AXIS2_PLACEMENT_3D ( 'NONE', #97, #94, #193 ) ;
#177 = DIRECTION ( 'NONE',  ( 1.224646799147353207E-16, 1.000000000000000000, -0.000000000000000000 ) ) ;
#178 = CIRCLE ( 'NONE', #48, 8.000000000000000000 ) ;
#179 = APPROVAL_DATE_TIME ( #39, #171 ) ;
#180 = CYLINDRICAL_SURFACE ( 'NONE', #53, 8.000000000000000000 ) ;
#181 = PERSON_AND_ORGANIZATION_ROLE ( 'creator' ) ;
#182 = EDGE_LOOP ( 'NONE', ( #146, #121, #29, #60 ) ) ;
#183 = CARTESIAN_POINT ( 'NONE',  ( -5.200000000000001066, 6.368163355566237368E-16, 5.200000000000009948 ) ) ;
#184 = VERTEX_POINT ( 'NONE', #283 ) ;
#185 = EDGE_CURVE ( 'NONE', #83, #78, #98, .T. ) ;
#186 = EDGE_CURVE ( 'NONE', #228, #184, #71, .T. ) ;
#187 = CARTESIAN_POINT ( 'NONE',  ( 5.200000000000001066, 0.000000000000000000, 5.200000000000009948 ) ) ;
#188 = AXIS2_PLACEMENT_3D ( 'NONE', #269, #218, #124 ) ;
#189 = FACE_BOUND ( 'NONE', #201, .T. ) ;
#190 = FACE_OUTER_BOUND ( 'NONE', #62, .T. ) ;
#191 = DIRECTION ( 'NONE',  ( -1.000000000000000000, 0.000000000000000000, 0.000000000000000000 ) ) ;
#192 = LINE ( 'NONE', #236, #18 ) ;
#193 = DIRECTION ( 'NONE',  ( 1.000000000000000000, 0.000000000000000000, 0.000000000000000000 ) ) ;
#194 = AXIS2_PLACEMENT_3D ( 'NONE', #281, #139, #49 ) ;
#195 = EDGE_CURVE ( 'NONE', #275, #184, #167, .T. ) ;
#196 = CALENDAR_DATE ( 2022, 20, 6 ) ;
#197 = DATE_AND_TIME ( #196, #92 ) ;
#198 = CC_DESIGN_SECURITY_CLASSIFICATION ( #244, ( #102 ) ) ;
#199 = DIRECTION ( 'NONE',  ( 0.000000000000000000, 0.000000000000000000, 1.000000000000000000 ) ) ;
#200 = ORIENTED_EDGE ( 'NONE', *, *, #16, .T. ) ;
#201 = EDGE_LOOP ( 'NONE', ( #82, #84 ) ) ;
#202 = ORIENTED_EDGE ( 'NONE', *, *, #260, .T. ) ;
#203 = CALENDAR_DATE ( 2022, 20, 6 ) ;
#204 = EDGE_LOOP ( 'NONE', ( #123, #225, #202, #170 ) ) ;
#205 = ADVANCED_BREP_SHAPE_REPRESENTATION ( '6034', ( #7, #176 ), #44 ) ;
#206 = DIRECTION ( 'NONE',  ( 0.000000000000000000, 0.000000000000000000, 1.000000000000000000 ) ) ;
#207 = EDGE_LOOP ( 'NONE', ( #230, #293 ) ) ;
#208 = DIRECTION ( 'NONE',  ( -0.000000000000000000, -0.000000000000000000, -1.000000000000000000 ) ) ;
#209 = DIRECTION ( 'NONE',  ( 1.000000000000000000, 0.000000000000000000, 0.000000000000000000 ) ) ;
#210 = DIRECTION ( 'NONE',  ( 0.000000000000000000, 0.000000000000000000, 1.000000000000000000 ) ) ;
#211 = LOCAL_TIME ( 11, 41, 26.00000000000000000, #74 ) ;
#212 = CARTESIAN_POINT ( 'NONE',  ( 0.000000000000000000, 0.000000000000000000, 205.0000000000000284 ) ) ;
#213 = CARTESIAN_POINT ( 'NONE',  ( 0.000000000000000000, 0.000000000000000000, 205.0000000000000284 ) ) ;
#214 = FACE_OUTER_BOUND ( 'NONE', #229, .T. ) ;
#215 = CIRCLE ( 'NONE', #20, 5.000000000000000888 ) ;
#216 = CIRCLE ( 'NONE', #194, 5.000000000000000888 ) ;
#217 = ADVANCED_FACE ( 'NONE', ( #157 ), #258, .T. ) ;
#218 = DIRECTION ( 'NONE',  ( 0.000000000000000000, 0.000000000000000000, 1.000000000000000000 ) ) ;
#219 = AXIS2_PLACEMENT_3D ( 'NONE', #305, #233, #257 ) ;
#220 = PERSON_AND_ORGANIZATION ( #172, #87 ) ;
#221 = ORIENTED_EDGE ( 'NONE', *, *, #126, .F. ) ;
#222 = APPROVAL_DATE_TIME ( #6, #23 ) ;
#223 = EDGE_LOOP ( 'NONE', ( #152, #131, #175, #42 ) ) ;
#224 = DATE_AND_TIME ( #203, #64 ) ;
#225 = ORIENTED_EDGE ( 'NONE', *, *, #136, .F. ) ;
#226 = CC_DESIGN_APPROVAL ( #251, ( #56 ) ) ;
#227 = DATE_TIME_ROLE ( 'classification_date' ) ;
#228 = VERTEX_POINT ( 'NONE', #52 ) ;
#229 = EDGE_LOOP ( 'NONE', ( #246, #132, #277, #291 ) ) ;
#230 = ORIENTED_EDGE ( 'NONE', *, *, #136, .T. ) ;
#231 = APPROVAL_PERSON_ORGANIZATION ( #75, #171, #243 ) ;
#232 = CARTESIAN_POINT ( 'NONE',  ( 0.000000000000000000, 0.000000000000000000, 0.000000000000000000 ) ) ;
#233 = DIRECTION ( 'NONE',  ( 0.000000000000000000, 0.000000000000000000, 1.000000000000000000 ) ) ;
#234 = DIRECTION ( 'NONE',  ( -0.000000000000000000, -0.000000000000000000, -1.000000000000000000 ) ) ;
#235 = AXIS2_PLACEMENT_3D ( 'NONE', #306, #234, #91 ) ;
#236 = CARTESIAN_POINT ( 'NONE',  ( 8.000000000000000000, 9.797174393178825657E-16, 5.000000000000000000 ) ) ;
#237 = TOROIDAL_SURFACE ( 'NONE', #28, 5.200000000000001066, 0.2000000000000000111 ) ;
#238 =( NAMED_UNIT ( * ) SI_UNIT ( $, .STERADIAN. ) SOLID_ANGLE_UNIT ( ) );
#239 = EDGE_CURVE ( 'NONE', #253, #228, #215, .T. ) ;
#240 = CC_DESIGN_PERSON_AND_ORGANIZATION_ASSIGNMENT ( #122, #96, ( #56 ) ) ;
#241 = CARTESIAN_POINT ( 'NONE',  ( -5.000000000000000888, 0.000000000000000000, 5.200000000000009948 ) ) ;
#242 = CIRCLE ( 'NONE', #285, 5.000000000000000888 ) ;
#243 = APPROVAL_ROLE ( '' ) ;
#244 = SECURITY_CLASSIFICATION ( '', '', #128 ) ;
#245 = CC_DESIGN_DATE_AND_TIME_ASSIGNMENT ( #4, #99, ( #56 ) ) ;
#246 = ORIENTED_EDGE ( 'NONE', *, *, #16, .F. ) ;
#247 = DIRECTION ( 'NONE',  ( -1.000000000000000000, 0.000000000000000000, 0.000000000000000000 ) ) ;
#248 = ORIENTED_EDGE ( 'NONE', *, *, #93, .T. ) ;
#249 = EDGE_CURVE ( 'NONE', #57, #133, #287, .T. ) ;
#250 = PRODUCT_DEFINITION_SHAPE ( 'NONE', 'NONE',  #56 ) ;
#251 = APPROVAL ( #144, 'NEURÈENÝ' ) ;
#252 = AXIS2_PLACEMENT_3D ( 'NONE', #112, #304, #209 ) ;
#253 = VERTEX_POINT ( 'NONE', #241 ) ;
#254 = FACE_OUTER_BOUND ( 'NONE', #101, .T. ) ;
#255 = CYLINDRICAL_SURFACE ( 'NONE', #288, 5.000000000000000888 ) ;
#256 = TOROIDAL_SURFACE ( 'NONE', #219, 5.200000000000001066, 0.2000000000000000111 ) ;
#257 = DIRECTION ( 'NONE',  ( 1.000000000000000000, 0.000000000000000000, 0.000000000000000000 ) ) ;
#258 = CYLINDRICAL_SURFACE ( 'NONE', #292, 5.000000000000000888 ) ;
#259 = DIRECTION ( 'NONE',  ( 1.000000000000000000, 0.000000000000000000, -0.000000000000000000 ) ) ;
#260 = EDGE_CURVE ( 'NONE', #78, #253, #27, .T. ) ;
#261 = DIRECTION ( 'NONE',  ( 0.000000000000000000, 0.000000000000000000, 1.000000000000000000 ) ) ;
#262 = PLANE ( 'NONE',  #118 ) ;
#263 = AXIS2_PLACEMENT_3D ( 'NONE', #183, #177, #11 ) ;
#264 = FACE_OUTER_BOUND ( 'NONE', #148, .T. ) ;
#265 = LOCAL_TIME ( 11, 41, 26.00000000000000000, #104 ) ;
#266 = UNCERTAINTY_MEASURE_WITH_UNIT (LENGTH_MEASURE( 1.000000000000000082E-05 ), #120, 'distance_accuracy_value', 'NONE');
#267 = APPLICATION_PROTOCOL_DEFINITION ( 'international standard', 'config_control_design', 1994, #14 ) ;
#268 = ORIENTED_EDGE ( 'NONE', *, *, #239, .F. ) ;
#269 = CARTESIAN_POINT ( 'NONE',  ( 0.000000000000000000, 0.000000000000000000, 0.000000000000000000 ) ) ;
#270 = DIRECTION ( 'NONE',  ( 0.000000000000000000, 0.000000000000000000, 1.000000000000000000 ) ) ;
#271 = CC_DESIGN_PERSON_AND_ORGANIZATION_ASSIGNMENT ( #72, #25, ( #143 ) ) ;
#272 = PERSON_AND_ORGANIZATION_ROLE ( 'design_supplier' ) ;
#273 = DIRECTION ( 'NONE',  ( 0.000000000000000000, 0.000000000000000000, 1.000000000000000000 ) ) ;
#274 = CALENDAR_DATE ( 2022, 20, 6 ) ;
#275 = VERTEX_POINT ( 'NONE', #59 ) ;
#276 = COORDINATED_UNIVERSAL_TIME_OFFSET ( 1, 0, .AHEAD. ) ;
#277 = ORIENTED_EDGE ( 'NONE', *, *, #186, .T. ) ;
#278 = LINE ( 'NONE', #35, #79 ) ;
#279 = DIRECTION ( 'NONE',  ( -0.000000000000000000, -0.000000000000000000, -1.000000000000000000 ) ) ;
#280 = VECTOR ( 'NONE', #1, 1000.000000000000000 ) ;
#281 = CARTESIAN_POINT ( 'NONE',  ( 0.000000000000000000, 0.000000000000000000, 5.200000000000009948 ) ) ;
#282 = ADVANCED_FACE ( 'NONE', ( #264 ), #117, .F. ) ;
#283 = CARTESIAN_POINT ( 'NONE',  ( 5.200000000000001066, 0.000000000000000000, 5.000000000000005329 ) ) ;
#284 = DIRECTION ( 'NONE',  ( 1.000000000000000000, 0.000000000000000000, 0.000000000000000000 ) ) ;
#285 = AXIS2_PLACEMENT_3D ( 'NONE', #160, #210, #89 ) ;
#286 = DESIGN_CONTEXT ( 'detailed design', #36, 'design' ) ;
#287 = LINE ( 'NONE', #164, #280 ) ;
#288 = AXIS2_PLACEMENT_3D ( 'NONE', #12, #43, #247 ) ;
#289 = CARTESIAN_POINT ( 'NONE',  ( -5.000000000000000888, 0.000000000000000000, 205.0000000000000284 ) ) ;
#290 = DIRECTION ( 'NONE',  ( -0.000000000000000000, -0.000000000000000000, -1.000000000000000000 ) ) ;
#291 = ORIENTED_EDGE ( 'NONE', *, *, #195, .F. ) ;
#292 = AXIS2_PLACEMENT_3D ( 'NONE', #212, #70, #191 ) ;
#293 = ORIENTED_EDGE ( 'NONE', *, *, #185, .T. ) ;
#294 = CARTESIAN_POINT ( 'NONE',  ( 0.000000000000000000, 0.000000000000000000, 5.000000000000000000 ) ) ;
#295 = PERSON_AND_ORGANIZATION_ROLE ( 'classification_officer' ) ;
#296 = CARTESIAN_POINT ( 'NONE',  ( -5.000000000000000888, 0.000000000000000000, 205.0000000000000284 ) ) ;
#297 = AXIS2_PLACEMENT_3D ( 'NONE', #232, #22, #116 ) ;
#298 = CARTESIAN_POINT ( 'NONE',  ( 0.000000000000000000, 0.000000000000000000, 5.000000000000000000 ) ) ;
#299 = ORIENTED_EDGE ( 'NONE', *, *, #249, .T. ) ;
#300 = CIRCLE ( 'NONE', #165, 8.000000000000000000 ) ;
#301 = CARTESIAN_POINT ( 'NONE',  ( 0.000000000000000000, 0.000000000000000000, 5.000000000000000000 ) ) ;
#302 = CARTESIAN_POINT ( 'NONE',  ( 8.000000000000000000, 9.797174393178825657E-16, 0.000000000000000000 ) ) ;
#303 = CIRCLE ( 'NONE', #297, 8.000000000000000000 ) ;
#304 = DIRECTION ( 'NONE',  ( -0.000000000000000000, -0.000000000000000000, -1.000000000000000000 ) ) ;
#305 = CARTESIAN_POINT ( 'NONE',  ( 0.000000000000000000, 0.000000000000000000, 5.200000000000009948 ) ) ;
#306 = CARTESIAN_POINT ( 'NONE',  ( 0.000000000000000000, 0.000000000000000000, 5.000000000000000000 ) ) ;
#307 = CC_DESIGN_DATE_AND_TIME_ASSIGNMENT ( #224, #227, ( #244 ) ) ;
ENDSEC;
END-ISO-10303-21;
