ISO-10303-21;
HEADER;
FILE_DESCRIPTION (( 'STEP AP203' ),
    '1' );
FILE_NAME ('fa87.STEP',
    '2022-06-20T10:04:32',
    ( '' ),
    ( '' ),
    'SwSTEP 2.0',
    'SolidWorks 2019',
    '' );
FILE_SCHEMA (( 'CONFIG_CONTROL_DESIGN' ));
ENDSEC;

DATA;
#1 = CARTESIAN_POINT ( 'NONE',  ( 0.000000000000000000, 0.000000000000000000, 1002.999999999999886 ) ) ;
#2 = DIRECTION ( 'NONE',  ( 0.000000000000000000, 0.000000000000000000, 1.000000000000000000 ) ) ;
#3 = EDGE_CURVE ( 'NONE', #280, #41, #230, .T. ) ;
#4 = CARTESIAN_POINT ( 'NONE',  ( -2.250000000000000000, 0.000000000000000000, 3.199999999999980638 ) ) ;
#5 = VECTOR ( 'NONE', #305, 1000.000000000000000 ) ;
#6 = PRODUCT_RELATED_PRODUCT_CATEGORY ( 'detail', '', ( #36 ) ) ;
#7 = APPROVAL ( #156, 'NEURÈENÝ' ) ;
#8 = DIRECTION ( 'NONE',  ( -1.000000000000000000, 0.000000000000000000, 0.000000000000000000 ) ) ;
#9 = CC_DESIGN_PERSON_AND_ORGANIZATION_ASSIGNMENT ( #61, #291, ( #36 ) ) ;
#10 = COORDINATED_UNIVERSAL_TIME_OFFSET ( 1, 0, .AHEAD. ) ;
#11 = ORIENTED_EDGE ( 'NONE', *, *, #186, .T. ) ;
#12 = LOCAL_TIME ( 12, 4, 32.00000000000000000, #14 ) ;
#13 = ADVANCED_FACE ( 'NONE', ( #214 ), #276, .T. ) ;
#14 = COORDINATED_UNIVERSAL_TIME_OFFSET ( 1, 0, .AHEAD. ) ;
#15 = PERSON_AND_ORGANIZATION ( #142, #141 ) ;
#16 = ORIENTED_EDGE ( 'NONE', *, *, #113, .T. ) ;
#17 = APPROVAL_PERSON_ORGANIZATION ( #270, #46, #64 ) ;
#18 = ADVANCED_FACE ( 'NONE', ( #100 ), #121, .F. ) ;
#19 = AXIS2_PLACEMENT_3D ( 'NONE', #262, #123, #164 ) ;
#20 = ORIENTED_EDGE ( 'NONE', *, *, #32, .F. ) ;
#21 = ADVANCED_FACE ( 'NONE', ( #68 ), #117, .T. ) ;
#22 = DIRECTION ( 'NONE',  ( -1.000000000000000000, 0.000000000000000000, 0.000000000000000000 ) ) ;
#23 = DIRECTION ( 'NONE',  ( -1.000000000000000000, 1.224646799147353207E-16, 0.000000000000000000 ) ) ;
#24 = DIRECTION ( 'NONE',  ( 1.000000000000000000, 0.000000000000000000, 0.000000000000000000 ) ) ;
#25 = DIRECTION ( 'NONE',  ( 1.000000000000000000, 0.000000000000000000, 0.000000000000000000 ) ) ;
#26 = DIRECTION ( 'NONE',  ( 0.000000000000000000, 0.000000000000000000, 1.000000000000000000 ) ) ;
#27 = DIRECTION ( 'NONE',  ( -0.000000000000000000, -0.000000000000000000, -1.000000000000000000 ) ) ;
#28 = PLANE ( 'NONE',  #251 ) ;
#29 = EDGE_CURVE ( 'NONE', #213, #274, #97, .T. ) ;
#30 = TOROIDAL_SURFACE ( 'NONE', #53, 2.449999999999999734, 0.2000000000000000111 ) ;
#31 = CARTESIAN_POINT ( 'NONE',  ( 0.000000000000000000, 0.000000000000000000, 3.000000000000000000 ) ) ;
#32 = EDGE_CURVE ( 'NONE', #41, #86, #188, .T. ) ;
#33 = APPROVAL_STATUS ( 'not_yet_approved' ) ;
#34 =( NAMED_UNIT ( * ) PLANE_ANGLE_UNIT ( ) SI_UNIT ( $, .RADIAN. ) );
#35 = ORIENTED_EDGE ( 'NONE', *, *, #138, .T. ) ;
#36 = PRODUCT ( 'fa87', 'fa87', '', ( #40 ) ) ;
#37 = APPROVAL_DATE_TIME ( #206, #7 ) ;
#38 = CC_DESIGN_SECURITY_CLASSIFICATION ( #298, ( #269 ) ) ;
#39 = EDGE_LOOP ( 'NONE', ( #166, #229, #72, #210 ) ) ;
#40 = MECHANICAL_CONTEXT ( 'NONE', #240, 'mechanical' ) ;
#41 = VERTEX_POINT ( 'NONE', #212 ) ;
#42 = EDGE_CURVE ( 'NONE', #157, #254, #192, .T. ) ;
#43 = CLOSED_SHELL ( 'NONE', ( #70, #204, #13, #222, #294, #207, #170, #21, #18 ) ) ;
#44 = LOCAL_TIME ( 12, 4, 32.00000000000000000, #10 ) ;
#45 = DIRECTION ( 'NONE',  ( 1.000000000000000000, 0.000000000000000000, 0.000000000000000000 ) ) ;
#46 = APPROVAL ( #33, 'NEURÈENÝ' ) ;
#47 = DIRECTION ( 'NONE',  ( 0.000000000000000000, 0.000000000000000000, 1.000000000000000000 ) ) ;
#48 = ORIENTED_EDGE ( 'NONE', *, *, #89, .T. ) ;
#49 = AXIS2_PLACEMENT_3D ( 'NONE', #56, #107, #200 ) ;
#50 = DIRECTION ( 'NONE',  ( 1.000000000000000000, 0.000000000000000000, 0.000000000000000000 ) ) ;
#51 = CARTESIAN_POINT ( 'NONE',  ( 2.449999999999999734, 0.000000000000000000, 2.999999999999990674 ) ) ;
#52 = CARTESIAN_POINT ( 'NONE',  ( 0.000000000000000000, 0.000000000000000000, 3.199999999999980638 ) ) ;
#53 = AXIS2_PLACEMENT_3D ( 'NONE', #119, #147, #98 ) ;
#54 = DIRECTION ( 'NONE',  ( 0.000000000000000000, 0.000000000000000000, 1.000000000000000000 ) ) ;
#55 = CC_DESIGN_PERSON_AND_ORGANIZATION_ASSIGNMENT ( #83, #178, ( #269 ) ) ;
#56 = CARTESIAN_POINT ( 'NONE',  ( 0.000000000000000000, 0.000000000000000000, 0.000000000000000000 ) ) ;
#57 = DIRECTION ( 'NONE',  ( -0.000000000000000000, -0.000000000000000000, -1.000000000000000000 ) ) ;
#58 = LOCAL_TIME ( 12, 4, 32.00000000000000000, #66 ) ;
#59 = FACE_OUTER_BOUND ( 'NONE', #39, .T. ) ;
#60 = CIRCLE ( 'NONE', #115, 4.000000000000000000 ) ;
#61 = PERSON_AND_ORGANIZATION ( #142, #141 ) ;
#62 = EDGE_LOOP ( 'NONE', ( #187, #136, #292, #185 ) ) ;
#63 = CALENDAR_DATE ( 2022, 20, 6 ) ;
#64 = APPROVAL_ROLE ( '' ) ;
#65 = ORIENTED_EDGE ( 'NONE', *, *, #124, .F. ) ;
#66 = COORDINATED_UNIVERSAL_TIME_OFFSET ( 1, 0, .AHEAD. ) ;
#67 = EDGE_CURVE ( 'NONE', #254, #213, #215, .T. ) ;
#68 = FACE_OUTER_BOUND ( 'NONE', #290, .T. ) ;
#69 = DIRECTION ( 'NONE',  ( 0.000000000000000000, 0.000000000000000000, 1.000000000000000000 ) ) ;
#70 = ADVANCED_FACE ( 'NONE', ( #260 ), #30, .F. ) ;
#71 = DIRECTION ( 'NONE',  ( 0.000000000000000000, 0.000000000000000000, 1.000000000000000000 ) ) ;
#72 = ORIENTED_EDGE ( 'NONE', *, *, #133, .T. ) ;
#73 =( GEOMETRIC_REPRESENTATION_CONTEXT ( 3 ) GLOBAL_UNCERTAINTY_ASSIGNED_CONTEXT ( ( #241 ) ) GLOBAL_UNIT_ASSIGNED_CONTEXT ( ( #106, #34, #273 ) ) REPRESENTATION_CONTEXT ( 'NONE', 'WORKASPACE' ) );
#74 = CARTESIAN_POINT ( 'NONE',  ( -4.000000000000000000, 0.000000000000000000, 0.000000000000000000 ) ) ;
#75 = EDGE_CURVE ( 'NONE', #254, #157, #134, .T. ) ;
#76 = LINE ( 'NONE', #263, #218 ) ;
#77 = DIRECTION ( 'NONE',  ( -0.000000000000000000, -0.000000000000000000, -1.000000000000000000 ) ) ;
#78 = CC_DESIGN_PERSON_AND_ORGANIZATION_ASSIGNMENT ( #180, #228, ( #211 ) ) ;
#79 = AXIS2_PLACEMENT_3D ( 'NONE', #169, #281, #282 ) ;
#80 = CARTESIAN_POINT ( 'NONE',  ( 0.000000000000000000, 0.000000000000000000, 3.000000000000000000 ) ) ;
#81 = CYLINDRICAL_SURFACE ( 'NONE', #126, 2.250000000000000000 ) ;
#82 = LOCAL_TIME ( 12, 4, 32.00000000000000000, #85 ) ;
#83 = PERSON_AND_ORGANIZATION ( #142, #141 ) ;
#84 = ORIENTED_EDGE ( 'NONE', *, *, #286, .F. ) ;
#85 = COORDINATED_UNIVERSAL_TIME_OFFSET ( 1, 0, .AHEAD. ) ;
#86 = VERTEX_POINT ( 'NONE', #74 ) ;
#87 = PERSON_AND_ORGANIZATION ( #142, #141 ) ;
#88 = VERTEX_POINT ( 'NONE', #51 ) ;
#89 = EDGE_CURVE ( 'NONE', #274, #296, #277, .T. ) ;
#90 = CALENDAR_DATE ( 2022, 20, 6 ) ;
#91 = AXIS2_PLACEMENT_3D ( 'NONE', #80, #103, #248 ) ;
#92 = EDGE_LOOP ( 'NONE', ( #234, #181, #165, #190 ) ) ;
#93 = APPROVAL_DATE_TIME ( #139, #46 ) ;
#94 = ADVANCED_BREP_SHAPE_REPRESENTATION ( 'fa87', ( #227, #153 ), #73 ) ;
#95 = ORIENTED_EDGE ( 'NONE', *, *, #42, .T. ) ;
#96 = DIRECTION ( 'NONE',  ( 1.000000000000000000, 0.000000000000000000, 0.000000000000000000 ) ) ;
#97 = CIRCLE ( 'NONE', #129, 2.250000000000000000 ) ;
#98 = DIRECTION ( 'NONE',  ( 1.000000000000000000, 0.000000000000000000, 0.000000000000000000 ) ) ;
#99 = CARTESIAN_POINT ( 'NONE',  ( 0.000000000000000000, 0.000000000000000000, 3.000000000000000000 ) ) ;
#100 = FACE_OUTER_BOUND ( 'NONE', #92, .T. ) ;
#101 = AXIS2_PLACEMENT_3D ( 'NONE', #99, #258, #45 ) ;
#102 = AXIS2_PLACEMENT_3D ( 'NONE', #52, #54, #176 ) ;
#103 = DIRECTION ( 'NONE',  ( -0.000000000000000000, -0.000000000000000000, -1.000000000000000000 ) ) ;
#104 = PLANE ( 'NONE',  #160 ) ;
#105 = CARTESIAN_POINT ( 'NONE',  ( 0.000000000000000000, 0.000000000000000000, 3.000000000000000000 ) ) ;
#106 =( LENGTH_UNIT ( ) NAMED_UNIT ( * ) SI_UNIT ( .MILLI., .METRE. ) );
#107 = DIRECTION ( 'NONE',  ( 0.000000000000000000, 0.000000000000000000, 1.000000000000000000 ) ) ;
#108 = AXIS2_PLACEMENT_3D ( 'NONE', #145, #239, #23 ) ;
#109 = DATE_TIME_ROLE ( 'classification_date' ) ;
#110 = APPROVAL ( #295, 'NEURÈENÝ' ) ;
#111 = PERSON_AND_ORGANIZATION ( #142, #141 ) ;
#112 = PERSON_AND_ORGANIZATION_ROLE ( 'classification_officer' ) ;
#113 = EDGE_CURVE ( 'NONE', #296, #88, #193, .T. ) ;
#114 = PERSON_AND_ORGANIZATION_ROLE ( 'design_supplier' ) ;
#115 = AXIS2_PLACEMENT_3D ( 'NONE', #223, #2, #25 ) ;
#116 = EDGE_LOOP ( 'NONE', ( #191, #279, #11, #20 ) ) ;
#117 = PLANE ( 'NONE',  #19 ) ;
#118 = EDGE_CURVE ( 'NONE', #280, #271, #76, .T. ) ;
#119 = CARTESIAN_POINT ( 'NONE',  ( 0.000000000000000000, 0.000000000000000000, 3.199999999999980638 ) ) ;
#120 = CARTESIAN_POINT ( 'NONE',  ( -4.000000000000000000, 0.000000000000000000, 3.000000000000000000 ) ) ;
#121 = TOROIDAL_SURFACE ( 'NONE', #284, 2.449999999999999734, 0.2000000000000000111 ) ;
#122 = ORIENTED_EDGE ( 'NONE', *, *, #186, .F. ) ;
#123 = DIRECTION ( 'NONE',  ( 0.000000000000000000, 0.000000000000000000, 1.000000000000000000 ) ) ;
#124 = EDGE_CURVE ( 'NONE', #41, #280, #249, .T. ) ;
#125 = DIRECTION ( 'NONE',  ( -0.000000000000000000, -0.000000000000000000, -1.000000000000000000 ) ) ;
#126 = AXIS2_PLACEMENT_3D ( 'NONE', #130, #125, #225 ) ;
#127 = CYLINDRICAL_SURFACE ( 'NONE', #297, 2.250000000000000000 ) ;
#128 = CARTESIAN_POINT ( 'NONE',  ( 4.000000000000000000, 4.898587196589412829E-16, 0.000000000000000000 ) ) ;
#129 = AXIS2_PLACEMENT_3D ( 'NONE', #143, #278, #168 ) ;
#130 = CARTESIAN_POINT ( 'NONE',  ( 0.000000000000000000, 0.000000000000000000, 1002.999999999999886 ) ) ;
#131 = DATE_AND_TIME ( #90, #82 ) ;
#132 = ORIENTED_EDGE ( 'NONE', *, *, #124, .T. ) ;
#133 = EDGE_CURVE ( 'NONE', #157, #274, #268, .T. ) ;
#134 = CIRCLE ( 'NONE', #158, 2.250000000000000000 ) ;
#135 = APPROVAL_DATE_TIME ( #201, #110 ) ;
#136 = ORIENTED_EDGE ( 'NONE', *, *, #67, .T. ) ;
#137 = COORDINATED_UNIVERSAL_TIME_OFFSET ( 1, 0, .AHEAD. ) ;
#138 = EDGE_CURVE ( 'NONE', #88, #296, #172, .T. ) ;
#139 = DATE_AND_TIME ( #63, #58 ) ;
#140 = ORIENTED_EDGE ( 'NONE', *, *, #275, .F. ) ;
#141 = ORGANIZATION ( 'NEURÈENÝ', 'NEURÈENÝ', '' ) ;
#142 = PERSON ( 'NEURÈENÝ', 'NEURÈENÝ', 'NEURÈENÝ', ('NEURÈENÝ'), ('NEURÈENÝ'), ('NEURÈENÝ') ) ;
#143 = CARTESIAN_POINT ( 'NONE',  ( 0.000000000000000000, 0.000000000000000000, 3.199999999999980638 ) ) ;
#144 = CC_DESIGN_DATE_AND_TIME_ASSIGNMENT ( #182, #109, ( #298 ) ) ;
#145 = CARTESIAN_POINT ( 'NONE',  ( -2.449999999999999734, 3.000384657911015370E-16, 3.199999999999980638 ) ) ;
#146 = ORIENTED_EDGE ( 'NONE', *, *, #32, .T. ) ;
#147 = DIRECTION ( 'NONE',  ( 0.000000000000000000, 0.000000000000000000, 1.000000000000000000 ) ) ;
#148 = FACE_OUTER_BOUND ( 'NONE', #62, .T. ) ;
#149 = AXIS2_PLACEMENT_3D ( 'NONE', #285, #26, #199 ) ;
#150 = CARTESIAN_POINT ( 'NONE',  ( 4.000000000000000000, 4.898587196589412829E-16, 3.000000000000000000 ) ) ;
#151 = FACE_OUTER_BOUND ( 'NONE', #261, .T. ) ;
#152 = DIRECTION ( 'NONE',  ( -0.000000000000000000, -0.000000000000000000, -1.000000000000000000 ) ) ;
#153 = AXIS2_PLACEMENT_3D ( 'NONE', #233, #255, #293 ) ;
#154 = DIRECTION ( 'NONE',  ( -1.000000000000000000, 0.000000000000000000, 0.000000000000000000 ) ) ;
#155 = APPROVAL_ROLE ( '' ) ;
#156 = APPROVAL_STATUS ( 'not_yet_approved' ) ;
#157 = VERTEX_POINT ( 'NONE', #174 ) ;
#158 = AXIS2_PLACEMENT_3D ( 'NONE', #238, #71, #50 ) ;
#159 = EDGE_LOOP ( 'NONE', ( #256, #65, #146, #304 ) ) ;
#160 = AXIS2_PLACEMENT_3D ( 'NONE', #195, #175, #247 ) ;
#161 = EDGE_LOOP ( 'NONE', ( #84, #122 ) ) ;
#162 = APPLICATION_CONTEXT ( 'configuration controlled 3d designs of mechanical parts and assemblies' ) ;
#163 = DESIGN_CONTEXT ( 'detailed design', #162, 'design' ) ;
#164 = DIRECTION ( 'NONE',  ( 1.000000000000000000, 0.000000000000000000, -0.000000000000000000 ) ) ;
#165 = ORIENTED_EDGE ( 'NONE', *, *, #265, .T. ) ;
#166 = ORIENTED_EDGE ( 'NONE', *, *, #67, .F. ) ;
#167 = AXIS2_PLACEMENT_3D ( 'NONE', #300, #47, #24 ) ;
#168 = DIRECTION ( 'NONE',  ( 1.000000000000000000, 0.000000000000000000, 0.000000000000000000 ) ) ;
#169 = CARTESIAN_POINT ( 'NONE',  ( 2.449999999999999734, 0.000000000000000000, 3.199999999999980638 ) ) ;
#170 = ADVANCED_FACE ( 'NONE', ( #59 ), #127, .T. ) ;
#171 = CARTESIAN_POINT ( 'NONE',  ( -2.250000000000000000, 0.000000000000000000, 1002.999999999999886 ) ) ;
#172 = CIRCLE ( 'NONE', #91, 2.449999999999999734 ) ;
#173 = CC_DESIGN_APPROVAL ( #7, ( #298 ) ) ;
#174 = CARTESIAN_POINT ( 'NONE',  ( -2.250000000000000000, 0.000000000000000000, 1002.999999999999886 ) ) ;
#175 = DIRECTION ( 'NONE',  ( 0.000000000000000000, 0.000000000000000000, 1.000000000000000000 ) ) ;
#176 = DIRECTION ( 'NONE',  ( 1.000000000000000000, 0.000000000000000000, 0.000000000000000000 ) ) ;
#177 = LOCAL_TIME ( 12, 4, 32.00000000000000000, #137 ) ;
#178 = PERSON_AND_ORGANIZATION_ROLE ( 'creator' ) ;
#179 = ORIENTED_EDGE ( 'NONE', *, *, #3, .T. ) ;
#180 = PERSON_AND_ORGANIZATION ( #142, #141 ) ;
#181 = ORIENTED_EDGE ( 'NONE', *, *, #29, .F. ) ;
#182 = DATE_AND_TIME ( #209, #44 ) ;
#183 = CIRCLE ( 'NONE', #49, 4.000000000000000000 ) ;
#184 = SHAPE_DEFINITION_REPRESENTATION ( #288, #94 ) ;
#185 = ORIENTED_EDGE ( 'NONE', *, *, #133, .F. ) ;
#186 = EDGE_CURVE ( 'NONE', #271, #86, #60, .T. ) ;
#187 = ORIENTED_EDGE ( 'NONE', *, *, #75, .F. ) ;
#188 = LINE ( 'NONE', #120, #257 ) ;
#189 = ORIENTED_EDGE ( 'NONE', *, *, #75, .T. ) ;
#190 = ORIENTED_EDGE ( 'NONE', *, *, #113, .F. ) ;
#191 = ORIENTED_EDGE ( 'NONE', *, *, #3, .F. ) ;
#192 = CIRCLE ( 'NONE', #167, 2.250000000000000000 ) ;
#193 = CIRCLE ( 'NONE', #289, 2.449999999999999734 ) ;
#194 = FACE_OUTER_BOUND ( 'NONE', #161, .T. ) ;
#195 = CARTESIAN_POINT ( 'NONE',  ( 0.000000000000000000, 0.000000000000000000, 0.000000000000000000 ) ) ;
#196 = DIRECTION ( 'NONE',  ( 1.000000000000000000, 0.000000000000000000, -0.000000000000000000 ) ) ;
#197 = CC_DESIGN_PERSON_AND_ORGANIZATION_ASSIGNMENT ( #87, #112, ( #298 ) ) ;
#198 = AXIS2_PLACEMENT_3D ( 'NONE', #242, #301, #22 ) ;
#199 = DIRECTION ( 'NONE',  ( 1.000000000000000000, 0.000000000000000000, 0.000000000000000000 ) ) ;
#200 = DIRECTION ( 'NONE',  ( 1.000000000000000000, 0.000000000000000000, 0.000000000000000000 ) ) ;
#201 = DATE_AND_TIME ( #226, #177 ) ;
#202 = ORIENTED_EDGE ( 'NONE', *, *, #138, .F. ) ;
#203 = PERSON_AND_ORGANIZATION ( #142, #141 ) ;
#204 = ADVANCED_FACE ( 'NONE', ( #148 ), #81, .T. ) ;
#205 = EDGE_LOOP ( 'NONE', ( #140, #48, #202, #306 ) ) ;
#206 = DATE_AND_TIME ( #250, #12 ) ;
#207 = ADVANCED_FACE ( 'NONE', ( #194 ), #104, .F. ) ;
#208 = CIRCLE ( 'NONE', #79, 0.2000000000000000944 ) ;
#209 = CALENDAR_DATE ( 2022, 20, 6 ) ;
#210 = ORIENTED_EDGE ( 'NONE', *, *, #275, .T. ) ;
#211 = PRODUCT_DEFINITION ( 'NEZNÁMÝ', '', #269, #163 ) ;
#212 = CARTESIAN_POINT ( 'NONE',  ( -4.000000000000000000, 0.000000000000000000, 3.000000000000000000 ) ) ;
#213 = VERTEX_POINT ( 'NONE', #266 ) ;
#214 = FACE_OUTER_BOUND ( 'NONE', #116, .T. ) ;
#215 = LINE ( 'NONE', #237, #5 ) ;
#216 = CARTESIAN_POINT ( 'NONE',  ( 0.000000000000000000, 0.000000000000000000, 3.199999999999980638 ) ) ;
#217 = DIRECTION ( 'NONE',  ( 1.000000000000000000, 0.000000000000000000, 0.000000000000000000 ) ) ;
#218 = VECTOR ( 'NONE', #152, 1000.000000000000000 ) ;
#219 = DIRECTION ( 'NONE',  ( -0.000000000000000000, -0.000000000000000000, -1.000000000000000000 ) ) ;
#220 = CC_DESIGN_DATE_AND_TIME_ASSIGNMENT ( #131, #272, ( #211 ) ) ;
#221 = FACE_BOUND ( 'NONE', #243, .T. ) ;
#222 = ADVANCED_FACE ( 'NONE', ( #246 ), #267, .T. ) ;
#223 = CARTESIAN_POINT ( 'NONE',  ( 0.000000000000000000, 0.000000000000000000, 0.000000000000000000 ) ) ;
#224 = CIRCLE ( 'NONE', #102, 2.250000000000000000 ) ;
#225 = DIRECTION ( 'NONE',  ( -1.000000000000000000, 0.000000000000000000, 0.000000000000000000 ) ) ;
#226 = CALENDAR_DATE ( 2022, 20, 6 ) ;
#227 = MANIFOLD_SOLID_BREP ( 'Zaoblit1', #43 ) ;
#228 = PERSON_AND_ORGANIZATION_ROLE ( 'creator' ) ;
#229 = ORIENTED_EDGE ( 'NONE', *, *, #42, .F. ) ;
#230 = CIRCLE ( 'NONE', #101, 4.000000000000000000 ) ;
#231 = SECURITY_CLASSIFICATION_LEVEL ( 'unclassified' ) ;
#232 = APPROVAL_ROLE ( '' ) ;
#233 = CARTESIAN_POINT ( 'NONE',  ( 0.000000000000000000, 0.000000000000000000, 0.000000000000000000 ) ) ;
#234 = ORIENTED_EDGE ( 'NONE', *, *, #89, .F. ) ;
#235 = CC_DESIGN_APPROVAL ( #46, ( #211 ) ) ;
#236 = AXIS2_PLACEMENT_3D ( 'NONE', #264, #27, #8 ) ;
#237 = CARTESIAN_POINT ( 'NONE',  ( 2.250000000000000000, 2.755455298081544285E-16, 1002.999999999999886 ) ) ;
#238 = CARTESIAN_POINT ( 'NONE',  ( 0.000000000000000000, 0.000000000000000000, 1002.999999999999886 ) ) ;
#239 = DIRECTION ( 'NONE',  ( 1.224646799147353207E-16, 1.000000000000000000, -0.000000000000000000 ) ) ;
#240 = APPLICATION_CONTEXT ( 'configuration controlled 3d designs of mechanical parts and assemblies' ) ;
#241 = UNCERTAINTY_MEASURE_WITH_UNIT (LENGTH_MEASURE( 1.000000000000000082E-05 ), #106, 'distance_accuracy_value', 'NONE');
#242 = CARTESIAN_POINT ( 'NONE',  ( 0.000000000000000000, 0.000000000000000000, 3.000000000000000000 ) ) ;
#243 = EDGE_LOOP ( 'NONE', ( #35, #16 ) ) ;
#244 = CARTESIAN_POINT ( 'NONE',  ( 2.250000000000000000, 2.755455298081544285E-16, 1002.999999999999886 ) ) ;
#245 = CC_DESIGN_APPROVAL ( #110, ( #269 ) ) ;
#246 = FACE_OUTER_BOUND ( 'NONE', #159, .T. ) ;
#247 = DIRECTION ( 'NONE',  ( 1.000000000000000000, 0.000000000000000000, -0.000000000000000000 ) ) ;
#248 = DIRECTION ( 'NONE',  ( 1.000000000000000000, 0.000000000000000000, 0.000000000000000000 ) ) ;
#249 = CIRCLE ( 'NONE', #149, 4.000000000000000000 ) ;
#250 = CALENDAR_DATE ( 2022, 20, 6 ) ;
#251 = AXIS2_PLACEMENT_3D ( 'NONE', #105, #287, #196 ) ;
#252 = CC_DESIGN_PERSON_AND_ORGANIZATION_ASSIGNMENT ( #15, #114, ( #269 ) ) ;
#253 = APPLICATION_PROTOCOL_DEFINITION ( 'international standard', 'config_control_design', 1994, #162 ) ;
#254 = VERTEX_POINT ( 'NONE', #244 ) ;
#255 = DIRECTION ( 'NONE',  ( 0.000000000000000000, 0.000000000000000000, 1.000000000000000000 ) ) ;
#256 = ORIENTED_EDGE ( 'NONE', *, *, #118, .F. ) ;
#257 = VECTOR ( 'NONE', #259, 1000.000000000000000 ) ;
#258 = DIRECTION ( 'NONE',  ( 0.000000000000000000, 0.000000000000000000, 1.000000000000000000 ) ) ;
#259 = DIRECTION ( 'NONE',  ( -0.000000000000000000, -0.000000000000000000, -1.000000000000000000 ) ) ;
#260 = FACE_OUTER_BOUND ( 'NONE', #205, .T. ) ;
#261 = EDGE_LOOP ( 'NONE', ( #132, #179 ) ) ;
#262 = CARTESIAN_POINT ( 'NONE',  ( 0.000000000000000000, 0.000000000000000000, 1002.999999999999886 ) ) ;
#263 = CARTESIAN_POINT ( 'NONE',  ( 4.000000000000000000, 4.898587196589412829E-16, 3.000000000000000000 ) ) ;
#264 = CARTESIAN_POINT ( 'NONE',  ( 0.000000000000000000, 0.000000000000000000, 3.000000000000000000 ) ) ;
#265 = EDGE_CURVE ( 'NONE', #213, #88, #208, .T. ) ;
#266 = CARTESIAN_POINT ( 'NONE',  ( 2.250000000000000000, 2.755455298081544285E-16, 3.199999999999980638 ) ) ;
#267 = CYLINDRICAL_SURFACE ( 'NONE', #236, 4.000000000000000000 ) ;
#268 = LINE ( 'NONE', #171, #302 ) ;
#269 = PRODUCT_DEFINITION_FORMATION_WITH_SPECIFIED_SOURCE ( 'LIBOVOLNÝ', '', #36, .NOT_KNOWN. ) ;
#270 = PERSON_AND_ORGANIZATION ( #142, #141 ) ;
#271 = VERTEX_POINT ( 'NONE', #128 ) ;
#272 = DATE_TIME_ROLE ( 'creation_date' ) ;
#273 =( NAMED_UNIT ( * ) SI_UNIT ( $, .STERADIAN. ) SOLID_ANGLE_UNIT ( ) );
#274 = VERTEX_POINT ( 'NONE', #4 ) ;
#275 = EDGE_CURVE ( 'NONE', #274, #213, #224, .T. ) ;
#276 = CYLINDRICAL_SURFACE ( 'NONE', #198, 4.000000000000000000 ) ;
#277 = CIRCLE ( 'NONE', #108, 0.2000000000000000944 ) ;
#278 = DIRECTION ( 'NONE',  ( 0.000000000000000000, 0.000000000000000000, 1.000000000000000000 ) ) ;
#279 = ORIENTED_EDGE ( 'NONE', *, *, #118, .T. ) ;
#280 = VERTEX_POINT ( 'NONE', #150 ) ;
#281 = DIRECTION ( 'NONE',  ( 0.000000000000000000, -1.000000000000000000, 0.000000000000000000 ) ) ;
#282 = DIRECTION ( 'NONE',  ( 0.000000000000000000, 0.000000000000000000, -1.000000000000000000 ) ) ;
#283 = CARTESIAN_POINT ( 'NONE',  ( -2.449999999999999734, 3.000384657911015370E-16, 2.999999999999990674 ) ) ;
#284 = AXIS2_PLACEMENT_3D ( 'NONE', #216, #69, #96 ) ;
#285 = CARTESIAN_POINT ( 'NONE',  ( 0.000000000000000000, 0.000000000000000000, 3.000000000000000000 ) ) ;
#286 = EDGE_CURVE ( 'NONE', #86, #271, #183, .T. ) ;
#287 = DIRECTION ( 'NONE',  ( 0.000000000000000000, 0.000000000000000000, 1.000000000000000000 ) ) ;
#288 = PRODUCT_DEFINITION_SHAPE ( 'NONE', 'NONE',  #211 ) ;
#289 = AXIS2_PLACEMENT_3D ( 'NONE', #31, #77, #217 ) ;
#290 = EDGE_LOOP ( 'NONE', ( #95, #189 ) ) ;
#291 = PERSON_AND_ORGANIZATION_ROLE ( 'design_owner' ) ;
#292 = ORIENTED_EDGE ( 'NONE', *, *, #29, .T. ) ;
#293 = DIRECTION ( 'NONE',  ( 1.000000000000000000, 0.000000000000000000, 0.000000000000000000 ) ) ;
#294 = ADVANCED_FACE ( 'NONE', ( #221, #151 ), #28, .T. ) ;
#295 = APPROVAL_STATUS ( 'not_yet_approved' ) ;
#296 = VERTEX_POINT ( 'NONE', #283 ) ;
#297 = AXIS2_PLACEMENT_3D ( 'NONE', #1, #57, #154 ) ;
#298 = SECURITY_CLASSIFICATION ( '', '', #231 ) ;
#299 = APPLICATION_PROTOCOL_DEFINITION ( 'international standard', 'config_control_design', 1994, #240 ) ;
#300 = CARTESIAN_POINT ( 'NONE',  ( 0.000000000000000000, 0.000000000000000000, 1002.999999999999886 ) ) ;
#301 = DIRECTION ( 'NONE',  ( -0.000000000000000000, -0.000000000000000000, -1.000000000000000000 ) ) ;
#302 = VECTOR ( 'NONE', #219, 1000.000000000000000 ) ;
#303 = APPROVAL_PERSON_ORGANIZATION ( #203, #7, #232 ) ;
#304 = ORIENTED_EDGE ( 'NONE', *, *, #286, .T. ) ;
#305 = DIRECTION ( 'NONE',  ( -0.000000000000000000, -0.000000000000000000, -1.000000000000000000 ) ) ;
#306 = ORIENTED_EDGE ( 'NONE', *, *, #265, .F. ) ;
#307 = APPROVAL_PERSON_ORGANIZATION ( #111, #110, #155 ) ;
ENDSEC;
END-ISO-10303-21;
