ISO-10303-21;
HEADER;
FILE_DESCRIPTION (( 'STEP AP203' ),
    '1' );
FILE_NAME ('c6c7.STEP',
    '2022-06-20T10:28:01',
    ( '' ),
    ( '' ),
    'SwSTEP 2.0',
    'SolidWorks 2019',
    '' );
FILE_SCHEMA (( 'CONFIG_CONTROL_DESIGN' ));
ENDSEC;

DATA;
#1 = ADVANCED_FACE ( 'NONE', ( #191, #2 ), #289, .T. ) ;
#2 = FACE_OUTER_BOUND ( 'NONE', #68, .T. ) ;
#3 = TOROIDAL_SURFACE ( 'NONE', #288, 0.6999999999999999556, 0.2000000000000000111 ) ;
#4 = PRODUCT ( 'c6c7', 'c6c7', '', ( #140 ) ) ;
#5 = ADVANCED_FACE ( 'NONE', ( #166 ), #3, .F. ) ;
#6 = AXIS2_PLACEMENT_3D ( 'NONE', #85, #233, #282 ) ;
#7 = CARTESIAN_POINT ( 'NONE',  ( 1.250000000000000000, 1.530808498934191571E-16, 0.000000000000000000 ) ) ;
#8 = DIRECTION ( 'NONE',  ( 0.000000000000000000, 0.000000000000000000, 1.000000000000000000 ) ) ;
#9 = PERSON_AND_ORGANIZATION ( #25, #264 ) ;
#10 = CIRCLE ( 'NONE', #82, 0.5000000000000000000 ) ;
#11 = COORDINATED_UNIVERSAL_TIME_OFFSET ( 1, 0, .AHEAD. ) ;
#12 = APPROVAL_ROLE ( '' ) ;
#13 = COORDINATED_UNIVERSAL_TIME_OFFSET ( 1, 0, .AHEAD. ) ;
#14 = CARTESIAN_POINT ( 'NONE',  ( 1.250000000000000000, 1.530808498934191571E-16, 1.199999999999999956 ) ) ;
#15 = CIRCLE ( 'NONE', #109, 1.250000000000000000 ) ;
#16 = DIRECTION ( 'NONE',  ( -1.000000000000000000, 0.000000000000000000, 0.000000000000000000 ) ) ;
#17 = VERTEX_POINT ( 'NONE', #27 ) ;
#18 = EDGE_LOOP ( 'NONE', ( #266, #160, #110, #141 ) ) ;
#19 = DIRECTION ( 'NONE',  ( 0.000000000000000000, 0.000000000000000000, 1.000000000000000000 ) ) ;
#20 = EDGE_LOOP ( 'NONE', ( #182, #94 ) ) ;
#21 = CIRCLE ( 'NONE', #190, 0.1999999999999999833 ) ;
#22 = ORIENTED_EDGE ( 'NONE', *, *, #301, .F. ) ;
#23 = EDGE_CURVE ( 'NONE', #75, #278, #15, .T. ) ;
#24 = CYLINDRICAL_SURFACE ( 'NONE', #165, 0.5000000000000000000 ) ;
#25 = PERSON ( 'NEURÈENÝ', 'NEURÈENÝ', 'NEURÈENÝ', ('NEURÈENÝ'), ('NEURÈENÝ'), ('NEURÈENÝ') ) ;
#26 = ORIENTED_EDGE ( 'NONE', *, *, #114, .T. ) ;
#27 = CARTESIAN_POINT ( 'NONE',  ( -0.5000000000000000000, 0.000000000000000000, 1.399999999999998579 ) ) ;
#28 = AXIS2_PLACEMENT_3D ( 'NONE', #255, #229, #46 ) ;
#29 = CARTESIAN_POINT ( 'NONE',  ( 0.000000000000000000, 0.000000000000000000, 1.399999999999998579 ) ) ;
#30 = DIRECTION ( 'NONE',  ( 0.000000000000000000, 0.000000000000000000, 1.000000000000000000 ) ) ;
#31 = DIRECTION ( 'NONE',  ( 1.000000000000000000, 0.000000000000000000, 0.000000000000000000 ) ) ;
#32 = AXIS2_PLACEMENT_3D ( 'NONE', #66, #249, #108 ) ;
#33 = CC_DESIGN_APPROVAL ( #156, ( #232 ) ) ;
#34 = DIRECTION ( 'NONE',  ( 1.000000000000000000, 0.000000000000000000, 0.000000000000000000 ) ) ;
#35 = EDGE_CURVE ( 'NONE', #260, #206, #265, .T. ) ;
#36 = PERSON_AND_ORGANIZATION_ROLE ( 'design_owner' ) ;
#37 = LINE ( 'NONE', #14, #40 ) ;
#38 = APPROVAL ( #246, 'NEURÈENÝ' ) ;
#39 = DATE_TIME_ROLE ( 'classification_date' ) ;
#40 = VECTOR ( 'NONE', #218, 1000.000000000000000 ) ;
#41 = CARTESIAN_POINT ( 'NONE',  ( 0.000000000000000000, 0.000000000000000000, 0.000000000000000000 ) ) ;
#42 = CALENDAR_DATE ( 2022, 20, 6 ) ;
#43 = DIRECTION ( 'NONE',  ( 0.000000000000000000, 0.000000000000000000, 1.000000000000000000 ) ) ;
#44 = AXIS2_PLACEMENT_3D ( 'NONE', #300, #154, #130 ) ;
#45 = EDGE_CURVE ( 'NONE', #206, #17, #167, .T. ) ;
#46 = DIRECTION ( 'NONE',  ( 1.000000000000000000, 0.000000000000000000, 0.000000000000000000 ) ) ;
#47 = FACE_OUTER_BOUND ( 'NONE', #228, .T. ) ;
#48 = DIRECTION ( 'NONE',  ( -0.000000000000000000, -0.000000000000000000, -1.000000000000000000 ) ) ;
#49 = ORIENTED_EDGE ( 'NONE', *, *, #83, .T. ) ;
#50 = APPROVAL_PERSON_ORGANIZATION ( #81, #168, #120 ) ;
#51 = CARTESIAN_POINT ( 'NONE',  ( 0.000000000000000000, 0.000000000000000000, 1.199999999999999956 ) ) ;
#52 = AXIS2_PLACEMENT_3D ( 'NONE', #29, #208, #31 ) ;
#53 = CARTESIAN_POINT ( 'NONE',  ( 0.000000000000000000, 0.000000000000000000, 101.2000000000000171 ) ) ;
#54 = DIRECTION ( 'NONE',  ( 0.000000000000000000, 0.000000000000000000, 1.000000000000000000 ) ) ;
#55 = ADVANCED_FACE ( 'NONE', ( #116 ), #71, .T. ) ;
#56 = AXIS2_PLACEMENT_3D ( 'NONE', #259, #111, #306 ) ;
#57 = SHAPE_DEFINITION_REPRESENTATION ( #212, #161 ) ;
#58 = APPROVAL_PERSON_ORGANIZATION ( #197, #38, #12 ) ;
#59 = CC_DESIGN_PERSON_AND_ORGANIZATION_ASSIGNMENT ( #122, #194, ( #298 ) ) ;
#60 = DIRECTION ( 'NONE',  ( 0.000000000000000000, 0.000000000000000000, 1.000000000000000000 ) ) ;
#61 = ORIENTED_EDGE ( 'NONE', *, *, #74, .T. ) ;
#62 = ORIENTED_EDGE ( 'NONE', *, *, #162, .T. ) ;
#63 = CARTESIAN_POINT ( 'NONE',  ( 0.000000000000000000, 0.000000000000000000, 1.199999999999999956 ) ) ;
#64 = CARTESIAN_POINT ( 'NONE',  ( 0.5000000000000000000, 6.123233995736766036E-17, 1.399999999999998579 ) ) ;
#65 = EDGE_LOOP ( 'NONE', ( #299, #283 ) ) ;
#66 = CARTESIAN_POINT ( 'NONE',  ( 0.000000000000000000, 0.000000000000000000, 101.2000000000000171 ) ) ;
#67 = CC_DESIGN_APPROVAL ( #168, ( #226 ) ) ;
#68 = EDGE_LOOP ( 'NONE', ( #279, #61 ) ) ;
#69 = ORIENTED_EDGE ( 'NONE', *, *, #152, .F. ) ;
#70 =( LENGTH_UNIT ( ) NAMED_UNIT ( * ) SI_UNIT ( .MILLI., .METRE. ) );
#71 = PLANE ( 'NONE',  #127 ) ;
#72 = LOCAL_TIME ( 12, 28, 1.000000000000000000, #13 ) ;
#73 = SECURITY_CLASSIFICATION_LEVEL ( 'unclassified' ) ;
#74 = EDGE_CURVE ( 'NONE', #163, #86, #115, .T. ) ;
#75 = VERTEX_POINT ( 'NONE', #96 ) ;
#76 = DATE_AND_TIME ( #222, #304 ) ;
#77 = VECTOR ( 'NONE', #187, 1000.000000000000000 ) ;
#78 = APPROVAL_ROLE ( '' ) ;
#79 = APPROVAL_STATUS ( 'not_yet_approved' ) ;
#80 = CC_DESIGN_DATE_AND_TIME_ASSIGNMENT ( #76, #217, ( #226 ) ) ;
#81 = PERSON_AND_ORGANIZATION ( #25, #264 ) ;
#82 = AXIS2_PLACEMENT_3D ( 'NONE', #231, #19, #138 ) ;
#83 = EDGE_CURVE ( 'NONE', #17, #206, #124, .T. ) ;
#84 = EDGE_LOOP ( 'NONE', ( #202, #87, #88, #134 ) ) ;
#85 = CARTESIAN_POINT ( 'NONE',  ( 0.000000000000000000, 0.000000000000000000, 101.2000000000000171 ) ) ;
#86 = VERTEX_POINT ( 'NONE', #173 ) ;
#87 = ORIENTED_EDGE ( 'NONE', *, *, #45, .F. ) ;
#88 = ORIENTED_EDGE ( 'NONE', *, *, #188, .T. ) ;
#89 = CLOSED_SHELL ( 'NONE', ( #5, #239, #106, #196, #1, #215, #277, #55, #244 ) ) ;
#90 = DIRECTION ( 'NONE',  ( 0.000000000000000000, 0.000000000000000000, 1.000000000000000000 ) ) ;
#91 =( NAMED_UNIT ( * ) SI_UNIT ( $, .STERADIAN. ) SOLID_ANGLE_UNIT ( ) );
#92 = DIRECTION ( 'NONE',  ( 0.000000000000000000, 0.000000000000000000, 1.000000000000000000 ) ) ;
#93 = DESIGN_CONTEXT ( 'detailed design', #251, 'design' ) ;
#94 = ORIENTED_EDGE ( 'NONE', *, *, #257, .T. ) ;
#95 = CIRCLE ( 'NONE', #132, 0.6999999999999999556 ) ;
#96 = CARTESIAN_POINT ( 'NONE',  ( -1.250000000000000000, 0.000000000000000000, 0.000000000000000000 ) ) ;
#97 = PERSON_AND_ORGANIZATION ( #25, #264 ) ;
#98 = DIRECTION ( 'NONE',  ( -0.000000000000000000, -0.000000000000000000, -1.000000000000000000 ) ) ;
#99 = PERSON_AND_ORGANIZATION ( #25, #264 ) ;
#100 = CARTESIAN_POINT ( 'NONE',  ( 0.000000000000000000, 0.000000000000000000, 1.199999999999999956 ) ) ;
#101 = AXIS2_PLACEMENT_3D ( 'NONE', #183, #48, #16 ) ;
#102 = DATE_AND_TIME ( #42, #204 ) ;
#103 = DATE_AND_TIME ( #171, #72 ) ;
#104 = PERSON_AND_ORGANIZATION ( #25, #264 ) ;
#105 = AXIS2_PLACEMENT_3D ( 'NONE', #139, #8, #145 ) ;
#106 = ADVANCED_FACE ( 'NONE', ( #297 ), #269, .T. ) ;
#107 = FACE_OUTER_BOUND ( 'NONE', #84, .T. ) ;
#108 = DIRECTION ( 'NONE',  ( 1.000000000000000000, 0.000000000000000000, 0.000000000000000000 ) ) ;
#109 = AXIS2_PLACEMENT_3D ( 'NONE', #164, #92, #287 ) ;
#110 = ORIENTED_EDGE ( 'NONE', *, *, #301, .T. ) ;
#111 = DIRECTION ( 'NONE',  ( 0.000000000000000000, -1.000000000000000000, 0.000000000000000000 ) ) ;
#112 = ORIENTED_EDGE ( 'NONE', *, *, #35, .F. ) ;
#113 = DIRECTION ( 'NONE',  ( 1.000000000000000000, 0.000000000000000000, 0.000000000000000000 ) ) ;
#114 = EDGE_CURVE ( 'NONE', #163, #278, #37, .T. ) ;
#115 = CIRCLE ( 'NONE', #146, 1.250000000000000000 ) ;
#116 = FACE_OUTER_BOUND ( 'NONE', #20, .T. ) ;
#117 = MANIFOLD_SOLID_BREP ( 'Zaoblit1', #89 ) ;
#118 = DIRECTION ( 'NONE',  ( -1.000000000000000000, 0.000000000000000000, 0.000000000000000000 ) ) ;
#119 = AXIS2_PLACEMENT_3D ( 'NONE', #41, #193, #147 ) ;
#120 = APPROVAL_ROLE ( '' ) ;
#121 = CARTESIAN_POINT ( 'NONE',  ( 1.250000000000000000, 1.530808498934191571E-16, 1.199999999999999956 ) ) ;
#122 = PERSON_AND_ORGANIZATION ( #25, #264 ) ;
#123 = DIRECTION ( 'NONE',  ( 1.000000000000000000, 0.000000000000000000, 0.000000000000000000 ) ) ;
#124 = CIRCLE ( 'NONE', #105, 0.5000000000000000000 ) ;
#125 = APPROVAL_DATE_TIME ( #102, #168 ) ;
#126 = APPLICATION_PROTOCOL_DEFINITION ( 'international standard', 'config_control_design', 1994, #251 ) ;
#127 = AXIS2_PLACEMENT_3D ( 'NONE', #53, #90, #137 ) ;
#128 = ORIENTED_EDGE ( 'NONE', *, *, #219, .F. ) ;
#129 = EDGE_CURVE ( 'NONE', #17, #230, #21, .T. ) ;
#130 = DIRECTION ( 'NONE',  ( 1.000000000000000000, 0.000000000000000000, 0.000000000000000000 ) ) ;
#131 = VERTEX_POINT ( 'NONE', #247 ) ;
#132 = AXIS2_PLACEMENT_3D ( 'NONE', #100, #294, #123 ) ;
#133 = CARTESIAN_POINT ( 'NONE',  ( -0.5000000000000000000, 0.000000000000000000, 101.2000000000000171 ) ) ;
#134 = ORIENTED_EDGE ( 'NONE', *, *, #250, .F. ) ;
#135 = AXIS2_PLACEMENT_3D ( 'NONE', #223, #295, #34 ) ;
#136 = DIRECTION ( 'NONE',  ( 0.000000000000000000, 0.000000000000000000, 1.000000000000000000 ) ) ;
#137 = DIRECTION ( 'NONE',  ( 1.000000000000000000, 0.000000000000000000, -0.000000000000000000 ) ) ;
#138 = DIRECTION ( 'NONE',  ( 1.000000000000000000, 0.000000000000000000, 0.000000000000000000 ) ) ;
#139 = CARTESIAN_POINT ( 'NONE',  ( 0.000000000000000000, 0.000000000000000000, 1.399999999999998579 ) ) ;
#140 = MECHANICAL_CONTEXT ( 'NONE', #186, 'mechanical' ) ;
#141 = ORIENTED_EDGE ( 'NONE', *, *, #23, .T. ) ;
#142 = LOCAL_TIME ( 12, 28, 1.000000000000000000, #170 ) ;
#143 = CALENDAR_DATE ( 2022, 20, 6 ) ;
#144 = APPLICATION_PROTOCOL_DEFINITION ( 'international standard', 'config_control_design', 1994, #186 ) ;
#145 = DIRECTION ( 'NONE',  ( 1.000000000000000000, 0.000000000000000000, 0.000000000000000000 ) ) ;
#146 = AXIS2_PLACEMENT_3D ( 'NONE', #237, #30, #213 ) ;
#147 = DIRECTION ( 'NONE',  ( 1.000000000000000000, 0.000000000000000000, 0.000000000000000000 ) ) ;
#148 = DIRECTION ( 'NONE',  ( -1.000000000000000000, 1.224646799147352714E-16, 0.000000000000000000 ) ) ;
#149 = DIRECTION ( 'NONE',  ( -1.000000000000000000, 0.000000000000000000, 0.000000000000000000 ) ) ;
#150 = DIRECTION ( 'NONE',  ( -0.000000000000000000, -0.000000000000000000, -1.000000000000000000 ) ) ;
#151 = VERTEX_POINT ( 'NONE', #276 ) ;
#152 = EDGE_CURVE ( 'NONE', #131, #230, #95, .T. ) ;
#153 = CIRCLE ( 'NONE', #28, 0.6999999999999999556 ) ;
#154 = DIRECTION ( 'NONE',  ( 0.000000000000000000, 0.000000000000000000, 1.000000000000000000 ) ) ;
#155 = EDGE_LOOP ( 'NONE', ( #112, #303, #234, #49 ) ) ;
#156 = APPROVAL ( #198, 'NEURÈENÝ' ) ;
#157 = DIRECTION ( 'NONE',  ( 1.000000000000000000, 0.000000000000000000, 0.000000000000000000 ) ) ;
#158 = ORIENTED_EDGE ( 'NONE', *, *, #74, .F. ) ;
#159 = DIRECTION ( 'NONE',  ( 1.000000000000000000, 0.000000000000000000, -0.000000000000000000 ) ) ;
#160 = ORIENTED_EDGE ( 'NONE', *, *, #210, .F. ) ;
#161 = ADVANCED_BREP_SHAPE_REPRESENTATION ( 'c6c7', ( #117, #119 ), #178 ) ;
#162 = EDGE_CURVE ( 'NONE', #278, #75, #200, .T. ) ;
#163 = VERTEX_POINT ( 'NONE', #121 ) ;
#164 = CARTESIAN_POINT ( 'NONE',  ( 0.000000000000000000, 0.000000000000000000, 0.000000000000000000 ) ) ;
#165 = AXIS2_PLACEMENT_3D ( 'NONE', #238, #235, #118 ) ;
#166 = FACE_OUTER_BOUND ( 'NONE', #205, .T. ) ;
#167 = CIRCLE ( 'NONE', #52, 0.5000000000000000000 ) ;
#168 = APPROVAL ( #79, 'NEURÈENÝ' ) ;
#169 = CC_DESIGN_SECURITY_CLASSIFICATION ( #232, ( #298 ) ) ;
#170 = COORDINATED_UNIVERSAL_TIME_OFFSET ( 1, 0, .AHEAD. ) ;
#171 = CALENDAR_DATE ( 2022, 20, 6 ) ;
#172 = PERSON_AND_ORGANIZATION_ROLE ( 'classification_officer' ) ;
#173 = CARTESIAN_POINT ( 'NONE',  ( -1.250000000000000000, 0.000000000000000000, 1.199999999999999956 ) ) ;
#174 = VECTOR ( 'NONE', #185, 1000.000000000000000 ) ;
#175 = PLANE ( 'NONE',  #225 ) ;
#176 = ORIENTED_EDGE ( 'NONE', *, *, #83, .F. ) ;
#177 = CC_DESIGN_DATE_AND_TIME_ASSIGNMENT ( #293, #39, ( #232 ) ) ;
#178 =( GEOMETRIC_REPRESENTATION_CONTEXT ( 3 ) GLOBAL_UNCERTAINTY_ASSIGNED_CONTEXT ( ( #214 ) ) GLOBAL_UNIT_ASSIGNED_CONTEXT ( ( #70, #286, #91 ) ) REPRESENTATION_CONTEXT ( 'NONE', 'WORKASPACE' ) );
#179 = CARTESIAN_POINT ( 'NONE',  ( -0.6999999999999999556, 8.572527594031473190E-17, 1.199999999999999289 ) ) ;
#180 = ORIENTED_EDGE ( 'NONE', *, *, #23, .F. ) ;
#181 = FACE_OUTER_BOUND ( 'NONE', #18, .T. ) ;
#182 = ORIENTED_EDGE ( 'NONE', *, *, #270, .T. ) ;
#183 = CARTESIAN_POINT ( 'NONE',  ( 0.000000000000000000, 0.000000000000000000, 1.199999999999999956 ) ) ;
#184 = CIRCLE ( 'NONE', #209, 1.250000000000000000 ) ;
#185 = DIRECTION ( 'NONE',  ( -0.000000000000000000, -0.000000000000000000, -1.000000000000000000 ) ) ;
#186 = APPLICATION_CONTEXT ( 'configuration controlled 3d designs of mechanical parts and assemblies' ) ;
#187 = DIRECTION ( 'NONE',  ( -0.000000000000000000, -0.000000000000000000, -1.000000000000000000 ) ) ;
#188 = EDGE_CURVE ( 'NONE', #206, #131, #292, .T. ) ;
#189 = CC_DESIGN_PERSON_AND_ORGANIZATION_ASSIGNMENT ( #99, #172, ( #232 ) ) ;
#190 = AXIS2_PLACEMENT_3D ( 'NONE', #199, #274, #148 ) ;
#191 = FACE_BOUND ( 'NONE', #65, .T. ) ;
#192 = CARTESIAN_POINT ( 'NONE',  ( -1.250000000000000000, 0.000000000000000000, 1.199999999999999956 ) ) ;
#193 = DIRECTION ( 'NONE',  ( 0.000000000000000000, 0.000000000000000000, 1.000000000000000000 ) ) ;
#194 = PERSON_AND_ORGANIZATION_ROLE ( 'design_supplier' ) ;
#195 = CIRCLE ( 'NONE', #32, 0.5000000000000000000 ) ;
#196 = ADVANCED_FACE ( 'NONE', ( #181 ), #227, .T. ) ;
#197 = PERSON_AND_ORGANIZATION ( #25, #264 ) ;
#198 = APPROVAL_STATUS ( 'not_yet_approved' ) ;
#199 = CARTESIAN_POINT ( 'NONE',  ( -0.6999999999999999556, 8.572527594031471957E-17, 1.399999999999998579 ) ) ;
#200 = CIRCLE ( 'NONE', #135, 1.250000000000000000 ) ;
#201 = FACE_OUTER_BOUND ( 'NONE', #256, .T. ) ;
#202 = ORIENTED_EDGE ( 'NONE', *, *, #129, .F. ) ;
#203 = LINE ( 'NONE', #133, #261 ) ;
#204 = LOCAL_TIME ( 12, 28, 1.000000000000000000, #11 ) ;
#205 = EDGE_LOOP ( 'NONE', ( #176, #305, #69, #258 ) ) ;
#206 = VERTEX_POINT ( 'NONE', #64 ) ;
#207 = LINE ( 'NONE', #192, #174 ) ;
#208 = DIRECTION ( 'NONE',  ( 0.000000000000000000, 0.000000000000000000, 1.000000000000000000 ) ) ;
#209 = AXIS2_PLACEMENT_3D ( 'NONE', #63, #43, #157 ) ;
#210 = EDGE_CURVE ( 'NONE', #86, #163, #184, .T. ) ;
#211 = DIRECTION ( 'NONE',  ( 1.000000000000000000, 0.000000000000000000, -0.000000000000000000 ) ) ;
#212 = PRODUCT_DEFINITION_SHAPE ( 'NONE', 'NONE',  #226 ) ;
#213 = DIRECTION ( 'NONE',  ( 1.000000000000000000, 0.000000000000000000, 0.000000000000000000 ) ) ;
#214 = UNCERTAINTY_MEASURE_WITH_UNIT (LENGTH_MEASURE( 1.000000000000000082E-05 ), #70, 'distance_accuracy_value', 'NONE');
#215 = ADVANCED_FACE ( 'NONE', ( #201 ), #175, .F. ) ;
#216 = PERSON_AND_ORGANIZATION ( #25, #264 ) ;
#217 = DATE_TIME_ROLE ( 'creation_date' ) ;
#218 = DIRECTION ( 'NONE',  ( -0.000000000000000000, -0.000000000000000000, -1.000000000000000000 ) ) ;
#219 = EDGE_CURVE ( 'NONE', #151, #17, #203, .T. ) ;
#220 = TOROIDAL_SURFACE ( 'NONE', #44, 0.6999999999999999556, 0.2000000000000000111 ) ;
#221 = COORDINATED_UNIVERSAL_TIME_OFFSET ( 1, 0, .AHEAD. ) ;
#222 = CALENDAR_DATE ( 2022, 20, 6 ) ;
#223 = CARTESIAN_POINT ( 'NONE',  ( 0.000000000000000000, 0.000000000000000000, 0.000000000000000000 ) ) ;
#224 = CARTESIAN_POINT ( 'NONE',  ( 0.000000000000000000, 0.000000000000000000, 0.000000000000000000 ) ) ;
#225 = AXIS2_PLACEMENT_3D ( 'NONE', #224, #60, #159 ) ;
#226 = PRODUCT_DEFINITION ( 'NEZNÁMÝ', '', #298, #93 ) ;
#227 = CYLINDRICAL_SURFACE ( 'NONE', #101, 1.250000000000000000 ) ;
#228 = EDGE_LOOP ( 'NONE', ( #280, #307, #281, #128 ) ) ;
#229 = DIRECTION ( 'NONE',  ( -0.000000000000000000, -0.000000000000000000, -1.000000000000000000 ) ) ;
#230 = VERTEX_POINT ( 'NONE', #179 ) ;
#231 = CARTESIAN_POINT ( 'NONE',  ( 0.000000000000000000, 0.000000000000000000, 101.2000000000000171 ) ) ;
#232 = SECURITY_CLASSIFICATION ( '', '', #73 ) ;
#233 = DIRECTION ( 'NONE',  ( -0.000000000000000000, -0.000000000000000000, -1.000000000000000000 ) ) ;
#234 = ORIENTED_EDGE ( 'NONE', *, *, #219, .T. ) ;
#235 = DIRECTION ( 'NONE',  ( -0.000000000000000000, -0.000000000000000000, -1.000000000000000000 ) ) ;
#236 = CARTESIAN_POINT ( 'NONE',  ( 0.5000000000000000000, 6.123233995736766036E-17, 101.2000000000000171 ) ) ;
#237 = CARTESIAN_POINT ( 'NONE',  ( 0.000000000000000000, 0.000000000000000000, 1.199999999999999956 ) ) ;
#238 = CARTESIAN_POINT ( 'NONE',  ( 0.000000000000000000, 0.000000000000000000, 101.2000000000000171 ) ) ;
#239 = ADVANCED_FACE ( 'NONE', ( #47 ), #252, .T. ) ;
#240 = APPROVAL_PERSON_ORGANIZATION ( #104, #156, #78 ) ;
#241 = CARTESIAN_POINT ( 'NONE',  ( 0.000000000000000000, 0.000000000000000000, 1.399999999999998579 ) ) ;
#242 = CC_DESIGN_PERSON_AND_ORGANIZATION_ASSIGNMENT ( #9, #291, ( #226 ) ) ;
#243 = CARTESIAN_POINT ( 'NONE',  ( 0.000000000000000000, 0.000000000000000000, 1.199999999999999956 ) ) ;
#244 = ADVANCED_FACE ( 'NONE', ( #107 ), #220, .F. ) ;
#245 = PERSON_AND_ORGANIZATION_ROLE ( 'creator' ) ;
#246 = APPROVAL_STATUS ( 'not_yet_approved' ) ;
#247 = CARTESIAN_POINT ( 'NONE',  ( 0.6999999999999999556, 0.000000000000000000, 1.199999999999999289 ) ) ;
#248 = CC_DESIGN_APPROVAL ( #38, ( #298 ) ) ;
#249 = DIRECTION ( 'NONE',  ( 0.000000000000000000, 0.000000000000000000, 1.000000000000000000 ) ) ;
#250 = EDGE_CURVE ( 'NONE', #230, #131, #153, .T. ) ;
#251 = APPLICATION_CONTEXT ( 'configuration controlled 3d designs of mechanical parts and assemblies' ) ;
#252 = CYLINDRICAL_SURFACE ( 'NONE', #6, 0.5000000000000000000 ) ;
#253 = EDGE_LOOP ( 'NONE', ( #158, #26, #62, #22 ) ) ;
#254 = AXIS2_PLACEMENT_3D ( 'NONE', #243, #98, #149 ) ;
#255 = CARTESIAN_POINT ( 'NONE',  ( 0.000000000000000000, 0.000000000000000000, 1.199999999999999956 ) ) ;
#256 = EDGE_LOOP ( 'NONE', ( #180, #263 ) ) ;
#257 = EDGE_CURVE ( 'NONE', #260, #151, #195, .T. ) ;
#258 = ORIENTED_EDGE ( 'NONE', *, *, #188, .F. ) ;
#259 = CARTESIAN_POINT ( 'NONE',  ( 0.6999999999999999556, 0.000000000000000000, 1.399999999999998579 ) ) ;
#260 = VERTEX_POINT ( 'NONE', #302 ) ;
#261 = VECTOR ( 'NONE', #150, 1000.000000000000000 ) ;
#262 = FACE_OUTER_BOUND ( 'NONE', #155, .T. ) ;
#263 = ORIENTED_EDGE ( 'NONE', *, *, #162, .F. ) ;
#264 = ORGANIZATION ( 'NEURÈENÝ', 'NEURÈENÝ', '' ) ;
#265 = LINE ( 'NONE', #236, #77 ) ;
#266 = ORIENTED_EDGE ( 'NONE', *, *, #114, .F. ) ;
#267 = AXIS2_PLACEMENT_3D ( 'NONE', #51, #54, #211 ) ;
#268 = COORDINATED_UNIVERSAL_TIME_OFFSET ( 1, 0, .AHEAD. ) ;
#269 = CYLINDRICAL_SURFACE ( 'NONE', #254, 1.250000000000000000 ) ;
#270 = EDGE_CURVE ( 'NONE', #151, #260, #10, .T. ) ;
#271 = APPROVAL_DATE_TIME ( #273, #156 ) ;
#272 = CALENDAR_DATE ( 2022, 20, 6 ) ;
#273 = DATE_AND_TIME ( #272, #142 ) ;
#274 = DIRECTION ( 'NONE',  ( 1.224646799147353207E-16, 1.000000000000000000, -0.000000000000000000 ) ) ;
#275 = LOCAL_TIME ( 12, 28, 1.000000000000000000, #268 ) ;
#276 = CARTESIAN_POINT ( 'NONE',  ( -0.5000000000000000000, 0.000000000000000000, 101.2000000000000171 ) ) ;
#277 = ADVANCED_FACE ( 'NONE', ( #262 ), #24, .T. ) ;
#278 = VERTEX_POINT ( 'NONE', #7 ) ;
#279 = ORIENTED_EDGE ( 'NONE', *, *, #210, .T. ) ;
#280 = ORIENTED_EDGE ( 'NONE', *, *, #257, .F. ) ;
#281 = ORIENTED_EDGE ( 'NONE', *, *, #45, .T. ) ;
#282 = DIRECTION ( 'NONE',  ( -1.000000000000000000, 0.000000000000000000, 0.000000000000000000 ) ) ;
#283 = ORIENTED_EDGE ( 'NONE', *, *, #250, .T. ) ;
#284 = CC_DESIGN_PERSON_AND_ORGANIZATION_ASSIGNMENT ( #216, #36, ( #4 ) ) ;
#285 = PRODUCT_RELATED_PRODUCT_CATEGORY ( 'detail', '', ( #4 ) ) ;
#286 =( NAMED_UNIT ( * ) PLANE_ANGLE_UNIT ( ) SI_UNIT ( $, .RADIAN. ) );
#287 = DIRECTION ( 'NONE',  ( 1.000000000000000000, 0.000000000000000000, 0.000000000000000000 ) ) ;
#288 = AXIS2_PLACEMENT_3D ( 'NONE', #241, #136, #113 ) ;
#289 = PLANE ( 'NONE',  #267 ) ;
#290 = CC_DESIGN_PERSON_AND_ORGANIZATION_ASSIGNMENT ( #97, #245, ( #298 ) ) ;
#291 = PERSON_AND_ORGANIZATION_ROLE ( 'creator' ) ;
#292 = CIRCLE ( 'NONE', #56, 0.2000000000000000944 ) ;
#293 = DATE_AND_TIME ( #143, #275 ) ;
#294 = DIRECTION ( 'NONE',  ( -0.000000000000000000, -0.000000000000000000, -1.000000000000000000 ) ) ;
#295 = DIRECTION ( 'NONE',  ( 0.000000000000000000, 0.000000000000000000, 1.000000000000000000 ) ) ;
#296 = APPROVAL_DATE_TIME ( #103, #38 ) ;
#297 = FACE_OUTER_BOUND ( 'NONE', #253, .T. ) ;
#298 = PRODUCT_DEFINITION_FORMATION_WITH_SPECIFIED_SOURCE ( 'LIBOVOLNÝ', '', #4, .NOT_KNOWN. ) ;
#299 = ORIENTED_EDGE ( 'NONE', *, *, #152, .T. ) ;
#300 = CARTESIAN_POINT ( 'NONE',  ( 0.000000000000000000, 0.000000000000000000, 1.399999999999998579 ) ) ;
#301 = EDGE_CURVE ( 'NONE', #86, #75, #207, .T. ) ;
#302 = CARTESIAN_POINT ( 'NONE',  ( 0.5000000000000000000, 6.123233995736766036E-17, 101.2000000000000171 ) ) ;
#303 = ORIENTED_EDGE ( 'NONE', *, *, #270, .F. ) ;
#304 = LOCAL_TIME ( 12, 28, 1.000000000000000000, #221 ) ;
#305 = ORIENTED_EDGE ( 'NONE', *, *, #129, .T. ) ;
#306 = DIRECTION ( 'NONE',  ( 0.000000000000000000, 0.000000000000000000, -1.000000000000000000 ) ) ;
#307 = ORIENTED_EDGE ( 'NONE', *, *, #35, .T. ) ;
ENDSEC;
END-ISO-10303-21;
