ISO-10303-21;
HEADER;
FILE_DESCRIPTION (( 'STEP AP203' ),
    '1' );
FILE_NAME ('ffc4.STEP',
    '2022-06-20T09:33:45',
    ( '' ),
    ( '' ),
    'SwSTEP 2.0',
    'SolidWorks 2019',
    '' );
FILE_SCHEMA (( 'CONFIG_CONTROL_DESIGN' ));
ENDSEC;

DATA;
#1 = CYLINDRICAL_SURFACE ( 'NONE', #269, 9.000000000000000000 ) ;
#2 = PERSON_AND_ORGANIZATION ( #130, #234 ) ;
#3 = CARTESIAN_POINT ( 'NONE',  ( 6.000000000000000888, 7.347880794884120722E-16, 107.0000000000000142 ) ) ;
#4 = DIRECTION ( 'NONE',  ( 1.000000000000000000, 0.000000000000000000, 0.000000000000000000 ) ) ;
#5 = LOCAL_TIME ( 11, 33, 45.00000000000000000, #218 ) ;
#6 = DATE_TIME_ROLE ( 'classification_date' ) ;
#7 = CC_DESIGN_PERSON_AND_ORGANIZATION_ASSIGNMENT ( #284, #287, ( #304 ) ) ;
#8 = CC_DESIGN_PERSON_AND_ORGANIZATION_ASSIGNMENT ( #215, #195, ( #117 ) ) ;
#9 = CARTESIAN_POINT ( 'NONE',  ( -6.200000000000001066, 7.592810154713590821E-16, 6.999999999999999112 ) ) ;
#10 = PERSON_AND_ORGANIZATION_ROLE ( 'design_owner' ) ;
#11 = EDGE_CURVE ( 'NONE', #274, #133, #92, .T. ) ;
#12 = FACE_OUTER_BOUND ( 'NONE', #204, .T. ) ;
#13 = ORIENTED_EDGE ( 'NONE', *, *, #137, .T. ) ;
#14 = CIRCLE ( 'NONE', #96, 6.000000000000000888 ) ;
#15 = UNCERTAINTY_MEASURE_WITH_UNIT (LENGTH_MEASURE( 1.000000000000000082E-05 ), #271, 'distance_accuracy_value', 'NONE');
#16 = ADVANCED_BREP_SHAPE_REPRESENTATION ( 'ffc4', ( #211, #58 ), #202 ) ;
#17 = ORIENTED_EDGE ( 'NONE', *, *, #11, .T. ) ;
#18 = CIRCLE ( 'NONE', #116, 9.000000000000000000 ) ;
#19 = DIRECTION ( 'NONE',  ( -0.000000000000000000, -0.000000000000000000, -1.000000000000000000 ) ) ;
#20 = DIRECTION ( 'NONE',  ( 1.000000000000000000, 0.000000000000000000, 0.000000000000000000 ) ) ;
#21 = EDGE_LOOP ( 'NONE', ( #153, #69 ) ) ;
#22 = FACE_OUTER_BOUND ( 'NONE', #82, .T. ) ;
#23 = CARTESIAN_POINT ( 'NONE',  ( 0.000000000000000000, 0.000000000000000000, 7.199999999999998401 ) ) ;
#24 = ADVANCED_FACE ( 'NONE', ( #163 ), #64, .F. ) ;
#25 = COORDINATED_UNIVERSAL_TIME_OFFSET ( 1, 0, .AHEAD. ) ;
#26 = DIRECTION ( 'NONE',  ( -1.000000000000000000, 0.000000000000000000, 0.000000000000000000 ) ) ;
#27 = AXIS2_PLACEMENT_3D ( 'NONE', #245, #101, #192 ) ;
#28 = DATE_TIME_ROLE ( 'creation_date' ) ;
#29 = DIRECTION ( 'NONE',  ( 1.000000000000000000, 0.000000000000000000, 0.000000000000000000 ) ) ;
#30 = APPROVAL_STATUS ( 'not_yet_approved' ) ;
#31 =( NAMED_UNIT ( * ) SI_UNIT ( $, .STERADIAN. ) SOLID_ANGLE_UNIT ( ) );
#32 = AXIS2_PLACEMENT_3D ( 'NONE', #235, #210, #118 ) ;
#33 = DIRECTION ( 'NONE',  ( -0.000000000000000000, -0.000000000000000000, -1.000000000000000000 ) ) ;
#34 = ORIENTED_EDGE ( 'NONE', *, *, #272, .F. ) ;
#35 = AXIS2_PLACEMENT_3D ( 'NONE', #263, #170, #56 ) ;
#36 = ORIENTED_EDGE ( 'NONE', *, *, #59, .F. ) ;
#37 = ADVANCED_FACE ( 'NONE', ( #158 ), #68, .T. ) ;
#38 = ORIENTED_EDGE ( 'NONE', *, *, #200, .F. ) ;
#39 = VERTEX_POINT ( 'NONE', #240 ) ;
#40 = VECTOR ( 'NONE', #33, 1000.000000000000000 ) ;
#41 = FACE_OUTER_BOUND ( 'NONE', #105, .T. ) ;
#42 = EDGE_LOOP ( 'NONE', ( #38, #132, #131, #13 ) ) ;
#43 = CC_DESIGN_SECURITY_CLASSIFICATION ( #54, ( #304 ) ) ;
#44 = FACE_OUTER_BOUND ( 'NONE', #85, .T. ) ;
#45 = TOROIDAL_SURFACE ( 'NONE', #144, 6.200000000000001066, 0.2000000000000000111 ) ;
#46 = DIRECTION ( 'NONE',  ( -1.000000000000000000, 0.000000000000000000, 0.000000000000000000 ) ) ;
#47 = CC_DESIGN_DATE_AND_TIME_ASSIGNMENT ( #246, #28, ( #117 ) ) ;
#48 = DIRECTION ( 'NONE',  ( -0.000000000000000000, -0.000000000000000000, -1.000000000000000000 ) ) ;
#49 = CIRCLE ( 'NONE', #189, 6.200000000000001066 ) ;
#50 = DIRECTION ( 'NONE',  ( 1.000000000000000000, 0.000000000000000000, 0.000000000000000000 ) ) ;
#51 = AXIS2_PLACEMENT_3D ( 'NONE', #114, #279, #140 ) ;
#52 = FACE_OUTER_BOUND ( 'NONE', #179, .T. ) ;
#53 = DIRECTION ( 'NONE',  ( 0.000000000000000000, -1.000000000000000000, 0.000000000000000000 ) ) ;
#54 = SECURITY_CLASSIFICATION ( '', '', #266 ) ;
#55 = DATE_AND_TIME ( #191, #249 ) ;
#56 = DIRECTION ( 'NONE',  ( 1.000000000000000000, 0.000000000000000000, 0.000000000000000000 ) ) ;
#57 = ORIENTED_EDGE ( 'NONE', *, *, #290, .F. ) ;
#58 = AXIS2_PLACEMENT_3D ( 'NONE', #141, #239, #243 ) ;
#59 = EDGE_CURVE ( 'NONE', #276, #155, #212, .T. ) ;
#60 = ADVANCED_FACE ( 'NONE', ( #41 ), #45, .F. ) ;
#61 = ORIENTED_EDGE ( 'NONE', *, *, #178, .T. ) ;
#62 = ADVANCED_FACE ( 'NONE', ( #44 ), #1, .T. ) ;
#63 = AXIS2_PLACEMENT_3D ( 'NONE', #135, #113, #162 ) ;
#64 = PLANE ( 'NONE',  #139 ) ;
#65 = DIRECTION ( 'NONE',  ( 1.000000000000000000, 0.000000000000000000, 0.000000000000000000 ) ) ;
#66 = DIRECTION ( 'NONE',  ( -0.000000000000000000, -0.000000000000000000, -1.000000000000000000 ) ) ;
#67 = LOCAL_TIME ( 11, 33, 45.00000000000000000, #164 ) ;
#68 = CYLINDRICAL_SURFACE ( 'NONE', #126, 6.000000000000000888 ) ;
#69 = ORIENTED_EDGE ( 'NONE', *, *, #72, .F. ) ;
#70 = PLANE ( 'NONE',  #124 ) ;
#71 = PERSON_AND_ORGANIZATION ( #130, #234 ) ;
#72 = EDGE_CURVE ( 'NONE', #303, #252, #157, .T. ) ;
#73 = APPROVAL_PERSON_ORGANIZATION ( #100, #147, #102 ) ;
#74 = DIRECTION ( 'NONE',  ( 1.000000000000000000, 0.000000000000000000, 0.000000000000000000 ) ) ;
#75 = DATE_AND_TIME ( #123, #67 ) ;
#76 = PRODUCT ( 'ffc4', 'ffc4', '', ( #98 ) ) ;
#77 = DIRECTION ( 'NONE',  ( 0.000000000000000000, 0.000000000000000000, 1.000000000000000000 ) ) ;
#78 = FACE_OUTER_BOUND ( 'NONE', #42, .T. ) ;
#79 = APPROVAL_DATE_TIME ( #75, #148 ) ;
#80 =( NAMED_UNIT ( * ) PLANE_ANGLE_UNIT ( ) SI_UNIT ( $, .RADIAN. ) );
#81 = AXIS2_PLACEMENT_3D ( 'NONE', #184, #233, #46 ) ;
#82 = EDGE_LOOP ( 'NONE', ( #227, #93, #299, #107 ) ) ;
#83 = CC_DESIGN_PERSON_AND_ORGANIZATION_ASSIGNMENT ( #221, #10, ( #76 ) ) ;
#84 = AXIS2_PLACEMENT_3D ( 'NONE', #288, #77, #50 ) ;
#85 = EDGE_LOOP ( 'NONE', ( #180, #186, #199, #275 ) ) ;
#86 = ORIENTED_EDGE ( 'NONE', *, *, #302, .F. ) ;
#87 = ORIENTED_EDGE ( 'NONE', *, *, #262, .T. ) ;
#88 = AXIS2_PLACEMENT_3D ( 'NONE', #146, #53, #194 ) ;
#89 = DIRECTION ( 'NONE',  ( 1.000000000000000000, 0.000000000000000000, 0.000000000000000000 ) ) ;
#90 = DIRECTION ( 'NONE',  ( 1.000000000000000000, 0.000000000000000000, 0.000000000000000000 ) ) ;
#91 = DIRECTION ( 'NONE',  ( 0.000000000000000000, 0.000000000000000000, 1.000000000000000000 ) ) ;
#92 = LINE ( 'NONE', #185, #236 ) ;
#93 = ORIENTED_EDGE ( 'NONE', *, *, #250, .F. ) ;
#94 = COORDINATED_UNIVERSAL_TIME_OFFSET ( 1, 0, .AHEAD. ) ;
#95 = PRODUCT_DEFINITION_SHAPE ( 'NONE', 'NONE',  #117 ) ;
#96 = AXIS2_PLACEMENT_3D ( 'NONE', #128, #223, #29 ) ;
#97 = CARTESIAN_POINT ( 'NONE',  ( 9.000000000000000000, 1.102182119232617714E-15, 0.000000000000000000 ) ) ;
#98 = MECHANICAL_CONTEXT ( 'NONE', #198, 'mechanical' ) ;
#99 = CARTESIAN_POINT ( 'NONE',  ( 0.000000000000000000, 0.000000000000000000, 7.000000000000000000 ) ) ;
#100 = PERSON_AND_ORGANIZATION ( #130, #234 ) ;
#101 = DIRECTION ( 'NONE',  ( 0.000000000000000000, 0.000000000000000000, 1.000000000000000000 ) ) ;
#102 = APPROVAL_ROLE ( '' ) ;
#103 = VECTOR ( 'NONE', #19, 1000.000000000000000 ) ;
#104 = CARTESIAN_POINT ( 'NONE',  ( 0.000000000000000000, 0.000000000000000000, 107.0000000000000142 ) ) ;
#105 = EDGE_LOOP ( 'NONE', ( #174, #176, #214, #224 ) ) ;
#106 = EDGE_LOOP ( 'NONE', ( #34, #17, #248, #36 ) ) ;
#107 = ORIENTED_EDGE ( 'NONE', *, *, #258, .T. ) ;
#108 = ORIENTED_EDGE ( 'NONE', *, *, #168, .T. ) ;
#109 = CARTESIAN_POINT ( 'NONE',  ( 0.000000000000000000, 0.000000000000000000, 7.000000000000000000 ) ) ;
#110 = FACE_BOUND ( 'NONE', #203, .T. ) ;
#111 = EDGE_CURVE ( 'NONE', #155, #301, #181, .T. ) ;
#112 = ADVANCED_FACE ( 'NONE', ( #22 ), #260, .T. ) ;
#113 = DIRECTION ( 'NONE',  ( 0.000000000000000000, 0.000000000000000000, 1.000000000000000000 ) ) ;
#114 = CARTESIAN_POINT ( 'NONE',  ( -6.200000000000001066, 7.592810154713590821E-16, 7.199999999999998401 ) ) ;
#115 = AXIS2_PLACEMENT_3D ( 'NONE', #99, #268, #74 ) ;
#116 = AXIS2_PLACEMENT_3D ( 'NONE', #207, #305, #89 ) ;
#117 = PRODUCT_DEFINITION ( 'NEZNÁMÝ', '', #304, #298 ) ;
#118 = DIRECTION ( 'NONE',  ( 1.000000000000000000, 0.000000000000000000, 0.000000000000000000 ) ) ;
#119 = APPLICATION_PROTOCOL_DEFINITION ( 'international standard', 'config_control_design', 1994, #198 ) ;
#120 = PLANE ( 'NONE',  #149 ) ;
#121 = APPROVAL_DATE_TIME ( #55, #226 ) ;
#122 = CARTESIAN_POINT ( 'NONE',  ( 0.000000000000000000, 0.000000000000000000, 7.000000000000000000 ) ) ;
#123 = CALENDAR_DATE ( 2022, 20, 6 ) ;
#124 = AXIS2_PLACEMENT_3D ( 'NONE', #169, #187, #242 ) ;
#125 = APPROVAL_STATUS ( 'not_yet_approved' ) ;
#126 = AXIS2_PLACEMENT_3D ( 'NONE', #143, #254, #136 ) ;
#127 = APPLICATION_PROTOCOL_DEFINITION ( 'international standard', 'config_control_design', 1994, #259 ) ;
#128 = CARTESIAN_POINT ( 'NONE',  ( 0.000000000000000000, 0.000000000000000000, 7.199999999999998401 ) ) ;
#129 = LOCAL_TIME ( 11, 33, 45.00000000000000000, #193 ) ;
#130 = PERSON ( 'NEURÈENÝ', 'NEURÈENÝ', 'NEURÈENÝ', ('NEURÈENÝ'), ('NEURÈENÝ'), ('NEURÈENÝ') ) ;
#131 = ORIENTED_EDGE ( 'NONE', *, *, #238, .T. ) ;
#132 = ORIENTED_EDGE ( 'NONE', *, *, #168, .F. ) ;
#133 = VERTEX_POINT ( 'NONE', #307 ) ;
#134 = CC_DESIGN_APPROVAL ( #147, ( #117 ) ) ;
#135 = CARTESIAN_POINT ( 'NONE',  ( 0.000000000000000000, 0.000000000000000000, 0.000000000000000000 ) ) ;
#136 = DIRECTION ( 'NONE',  ( -1.000000000000000000, 0.000000000000000000, 0.000000000000000000 ) ) ;
#137 = EDGE_CURVE ( 'NONE', #252, #303, #225, .T. ) ;
#138 = CC_DESIGN_APPROVAL ( #226, ( #304 ) ) ;
#139 = AXIS2_PLACEMENT_3D ( 'NONE', #160, #142, #282 ) ;
#140 = DIRECTION ( 'NONE',  ( -1.000000000000000000, 1.224646799147353454E-16, 0.000000000000000000 ) ) ;
#141 = CARTESIAN_POINT ( 'NONE',  ( 0.000000000000000000, 0.000000000000000000, 0.000000000000000000 ) ) ;
#142 = DIRECTION ( 'NONE',  ( 0.000000000000000000, 0.000000000000000000, 1.000000000000000000 ) ) ;
#143 = CARTESIAN_POINT ( 'NONE',  ( 0.000000000000000000, 0.000000000000000000, 107.0000000000000142 ) ) ;
#144 = AXIS2_PLACEMENT_3D ( 'NONE', #306, #91, #90 ) ;
#145 = PERSON_AND_ORGANIZATION ( #130, #234 ) ;
#146 = CARTESIAN_POINT ( 'NONE',  ( 6.200000000000001066, 0.000000000000000000, 7.199999999999998401 ) ) ;
#147 = APPROVAL ( #222, 'NEURÈENÝ' ) ;
#148 = APPROVAL ( #30, 'NEURÈENÝ' ) ;
#149 = AXIS2_PLACEMENT_3D ( 'NONE', #104, #190, #291 ) ;
#150 = CALENDAR_DATE ( 2022, 20, 6 ) ;
#151 = FACE_OUTER_BOUND ( 'NONE', #156, .T. ) ;
#152 = APPROVAL_ROLE ( '' ) ;
#153 = ORIENTED_EDGE ( 'NONE', *, *, #137, .F. ) ;
#154 = ORIENTED_EDGE ( 'NONE', *, *, #290, .T. ) ;
#155 = VERTEX_POINT ( 'NONE', #261 ) ;
#156 = EDGE_LOOP ( 'NONE', ( #197, #86, #87, #57 ) ) ;
#157 = CIRCLE ( 'NONE', #63, 9.000000000000000000 ) ;
#158 = FACE_OUTER_BOUND ( 'NONE', #106, .T. ) ;
#159 = LINE ( 'NONE', #255, #103 ) ;
#160 = CARTESIAN_POINT ( 'NONE',  ( 0.000000000000000000, 0.000000000000000000, 0.000000000000000000 ) ) ;
#161 = CIRCLE ( 'NONE', #294, 6.000000000000000888 ) ;
#162 = DIRECTION ( 'NONE',  ( 1.000000000000000000, 0.000000000000000000, 0.000000000000000000 ) ) ;
#163 = FACE_OUTER_BOUND ( 'NONE', #21, .T. ) ;
#164 = COORDINATED_UNIVERSAL_TIME_OFFSET ( 1, 0, .AHEAD. ) ;
#165 = CIRCLE ( 'NONE', #115, 6.200000000000001066 ) ;
#166 = CALENDAR_DATE ( 2022, 20, 6 ) ;
#167 = EDGE_CURVE ( 'NONE', #273, #39, #209, .T. ) ;
#168 = EDGE_CURVE ( 'NONE', #39, #273, #18, .T. ) ;
#169 = CARTESIAN_POINT ( 'NONE',  ( 0.000000000000000000, 0.000000000000000000, 7.000000000000000000 ) ) ;
#170 = DIRECTION ( 'NONE',  ( 0.000000000000000000, 0.000000000000000000, 1.000000000000000000 ) ) ;
#171 = DATE_AND_TIME ( #166, #280 ) ;
#172 = CIRCLE ( 'NONE', #84, 6.000000000000000888 ) ;
#173 = APPROVAL_ROLE ( '' ) ;
#174 = ORIENTED_EDGE ( 'NONE', *, *, #258, .F. ) ;
#175 = APPROVAL_PERSON_ORGANIZATION ( #71, #148, #173 ) ;
#176 = ORIENTED_EDGE ( 'NONE', *, *, #111, .T. ) ;
#177 = VECTOR ( 'NONE', #48, 1000.000000000000000 ) ;
#178 = EDGE_CURVE ( 'NONE', #251, #301, #49, .T. ) ;
#179 = EDGE_LOOP ( 'NONE', ( #231, #281 ) ) ;
#180 = ORIENTED_EDGE ( 'NONE', *, *, #167, .F. ) ;
#181 = CIRCLE ( 'NONE', #51, 0.1999999999999996503 ) ;
#182 = CARTESIAN_POINT ( 'NONE',  ( 0.000000000000000000, 0.000000000000000000, 7.000000000000000000 ) ) ;
#183 = DIRECTION ( 'NONE',  ( -0.000000000000000000, -0.000000000000000000, -1.000000000000000000 ) ) ;
#184 = CARTESIAN_POINT ( 'NONE',  ( 0.000000000000000000, 0.000000000000000000, 107.0000000000000142 ) ) ;
#185 = CARTESIAN_POINT ( 'NONE',  ( 6.000000000000000888, 7.347880794884120722E-16, 107.0000000000000142 ) ) ;
#186 = ORIENTED_EDGE ( 'NONE', *, *, #200, .T. ) ;
#187 = DIRECTION ( 'NONE',  ( 0.000000000000000000, 0.000000000000000000, 1.000000000000000000 ) ) ;
#188 = DATE_AND_TIME ( #150, #5 ) ;
#189 = AXIS2_PLACEMENT_3D ( 'NONE', #182, #277, #65 ) ;
#190 = DIRECTION ( 'NONE',  ( 0.000000000000000000, 0.000000000000000000, 1.000000000000000000 ) ) ;
#191 = CALENDAR_DATE ( 2022, 20, 6 ) ;
#192 = DIRECTION ( 'NONE',  ( 1.000000000000000000, 0.000000000000000000, 0.000000000000000000 ) ) ;
#193 = COORDINATED_UNIVERSAL_TIME_OFFSET ( 1, 0, .AHEAD. ) ;
#194 = DIRECTION ( 'NONE',  ( 0.000000000000000000, 0.000000000000000000, -1.000000000000000000 ) ) ;
#195 = PERSON_AND_ORGANIZATION_ROLE ( 'creator' ) ;
#196 = CLOSED_SHELL ( 'NONE', ( #60, #37, #62, #278, #217, #24, #112, #228, #232 ) ) ;
#197 = ORIENTED_EDGE ( 'NONE', *, *, #111, .F. ) ;
#198 = APPLICATION_CONTEXT ( 'configuration controlled 3d designs of mechanical parts and assemblies' ) ;
#199 = ORIENTED_EDGE ( 'NONE', *, *, #72, .T. ) ;
#200 = EDGE_CURVE ( 'NONE', #273, #303, #159, .T. ) ;
#201 = CC_DESIGN_PERSON_AND_ORGANIZATION_ASSIGNMENT ( #289, #292, ( #304 ) ) ;
#202 =( GEOMETRIC_REPRESENTATION_CONTEXT ( 3 ) GLOBAL_UNCERTAINTY_ASSIGNED_CONTEXT ( ( #15 ) ) GLOBAL_UNIT_ASSIGNED_CONTEXT ( ( #271, #80, #31 ) ) REPRESENTATION_CONTEXT ( 'NONE', 'WORKASPACE' ) );
#203 = EDGE_LOOP ( 'NONE', ( #61, #154 ) ) ;
#204 = EDGE_LOOP ( 'NONE', ( #108, #229 ) ) ;
#205 = CC_DESIGN_PERSON_AND_ORGANIZATION_ASSIGNMENT ( #145, #295, ( #54 ) ) ;
#206 = APPROVAL_PERSON_ORGANIZATION ( #2, #226, #152 ) ;
#207 = CARTESIAN_POINT ( 'NONE',  ( 0.000000000000000000, 0.000000000000000000, 7.000000000000000000 ) ) ;
#208 = CARTESIAN_POINT ( 'NONE',  ( -6.000000000000000888, 0.000000000000000000, 107.0000000000000142 ) ) ;
#209 = CIRCLE ( 'NONE', #32, 9.000000000000000000 ) ;
#210 = DIRECTION ( 'NONE',  ( 0.000000000000000000, 0.000000000000000000, 1.000000000000000000 ) ) ;
#211 = MANIFOLD_SOLID_BREP ( 'Zaoblit1', #196 ) ;
#212 = LINE ( 'NONE', #208, #177 ) ;
#213 = AXIS2_PLACEMENT_3D ( 'NONE', #122, #285, #26 ) ;
#214 = ORIENTED_EDGE ( 'NONE', *, *, #178, .F. ) ;
#215 = PERSON_AND_ORGANIZATION ( #130, #234 ) ;
#216 = CARTESIAN_POINT ( 'NONE',  ( 9.000000000000000000, 1.102182119232617714E-15, 7.000000000000000000 ) ) ;
#217 = ADVANCED_FACE ( 'NONE', ( #110, #12 ), #70, .T. ) ;
#218 = COORDINATED_UNIVERSAL_TIME_OFFSET ( 1, 0, .AHEAD. ) ;
#219 = DIRECTION ( 'NONE',  ( 0.000000000000000000, 0.000000000000000000, 1.000000000000000000 ) ) ;
#220 = CARTESIAN_POINT ( 'NONE',  ( -9.000000000000000000, 0.000000000000000000, 0.000000000000000000 ) ) ;
#221 = PERSON_AND_ORGANIZATION ( #130, #234 ) ;
#222 = APPROVAL_STATUS ( 'not_yet_approved' ) ;
#223 = DIRECTION ( 'NONE',  ( 0.000000000000000000, 0.000000000000000000, 1.000000000000000000 ) ) ;
#224 = ORIENTED_EDGE ( 'NONE', *, *, #262, .F. ) ;
#225 = CIRCLE ( 'NONE', #253, 9.000000000000000000 ) ;
#226 = APPROVAL ( #125, 'NEURÈENÝ' ) ;
#227 = ORIENTED_EDGE ( 'NONE', *, *, #11, .F. ) ;
#228 = ADVANCED_FACE ( 'NONE', ( #52 ), #120, .T. ) ;
#229 = ORIENTED_EDGE ( 'NONE', *, *, #167, .T. ) ;
#230 = CC_DESIGN_APPROVAL ( #148, ( #54 ) ) ;
#231 = ORIENTED_EDGE ( 'NONE', *, *, #250, .T. ) ;
#232 = ADVANCED_FACE ( 'NONE', ( #151 ), #286, .F. ) ;
#233 = DIRECTION ( 'NONE',  ( -0.000000000000000000, -0.000000000000000000, -1.000000000000000000 ) ) ;
#234 = ORGANIZATION ( 'NEURÈENÝ', 'NEURÈENÝ', '' ) ;
#235 = CARTESIAN_POINT ( 'NONE',  ( 0.000000000000000000, 0.000000000000000000, 7.000000000000000000 ) ) ;
#236 = VECTOR ( 'NONE', #66, 1000.000000000000000 ) ;
#237 = DIRECTION ( 'NONE',  ( 0.000000000000000000, 0.000000000000000000, 1.000000000000000000 ) ) ;
#238 = EDGE_CURVE ( 'NONE', #39, #252, #264, .T. ) ;
#239 = DIRECTION ( 'NONE',  ( 0.000000000000000000, 0.000000000000000000, 1.000000000000000000 ) ) ;
#240 = CARTESIAN_POINT ( 'NONE',  ( -9.000000000000000000, 0.000000000000000000, 7.000000000000000000 ) ) ;
#241 = DIRECTION ( 'NONE',  ( -1.000000000000000000, 0.000000000000000000, 0.000000000000000000 ) ) ;
#242 = DIRECTION ( 'NONE',  ( 1.000000000000000000, 0.000000000000000000, -0.000000000000000000 ) ) ;
#243 = DIRECTION ( 'NONE',  ( 1.000000000000000000, 0.000000000000000000, 0.000000000000000000 ) ) ;
#244 = CARTESIAN_POINT ( 'NONE',  ( -9.000000000000000000, 0.000000000000000000, 7.000000000000000000 ) ) ;
#245 = CARTESIAN_POINT ( 'NONE',  ( 0.000000000000000000, 0.000000000000000000, 7.199999999999998401 ) ) ;
#246 = DATE_AND_TIME ( #267, #129 ) ;
#247 = CYLINDRICAL_SURFACE ( 'NONE', #213, 9.000000000000000000 ) ;
#248 = ORIENTED_EDGE ( 'NONE', *, *, #302, .T. ) ;
#249 = LOCAL_TIME ( 11, 33, 45.00000000000000000, #94 ) ;
#250 = EDGE_CURVE ( 'NONE', #276, #274, #172, .T. ) ;
#251 = VERTEX_POINT ( 'NONE', #283 ) ;
#252 = VERTEX_POINT ( 'NONE', #220 ) ;
#253 = AXIS2_PLACEMENT_3D ( 'NONE', #257, #237, #20 ) ;
#254 = DIRECTION ( 'NONE',  ( -0.000000000000000000, -0.000000000000000000, -1.000000000000000000 ) ) ;
#255 = CARTESIAN_POINT ( 'NONE',  ( 9.000000000000000000, 1.102182119232617714E-15, 7.000000000000000000 ) ) ;
#256 = PRODUCT_RELATED_PRODUCT_CATEGORY ( 'detail', '', ( #76 ) ) ;
#257 = CARTESIAN_POINT ( 'NONE',  ( 0.000000000000000000, 0.000000000000000000, 0.000000000000000000 ) ) ;
#258 = EDGE_CURVE ( 'NONE', #155, #133, #14, .T. ) ;
#259 = APPLICATION_CONTEXT ( 'configuration controlled 3d designs of mechanical parts and assemblies' ) ;
#260 = CYLINDRICAL_SURFACE ( 'NONE', #81, 6.000000000000000888 ) ;
#261 = CARTESIAN_POINT ( 'NONE',  ( -6.000000000000000888, 0.000000000000000000, 7.199999999999998401 ) ) ;
#262 = EDGE_CURVE ( 'NONE', #133, #251, #296, .T. ) ;
#263 = CARTESIAN_POINT ( 'NONE',  ( 0.000000000000000000, 0.000000000000000000, 107.0000000000000142 ) ) ;
#264 = LINE ( 'NONE', #244, #40 ) ;
#265 = APPROVAL_DATE_TIME ( #171, #147 ) ;
#266 = SECURITY_CLASSIFICATION_LEVEL ( 'unclassified' ) ;
#267 = CALENDAR_DATE ( 2022, 20, 6 ) ;
#268 = DIRECTION ( 'NONE',  ( -0.000000000000000000, -0.000000000000000000, -1.000000000000000000 ) ) ;
#269 = AXIS2_PLACEMENT_3D ( 'NONE', #109, #183, #241 ) ;
#270 = SHAPE_DEFINITION_REPRESENTATION ( #95, #16 ) ;
#271 =( LENGTH_UNIT ( ) NAMED_UNIT ( * ) SI_UNIT ( .MILLI., .METRE. ) );
#272 = EDGE_CURVE ( 'NONE', #274, #276, #300, .T. ) ;
#273 = VERTEX_POINT ( 'NONE', #216 ) ;
#274 = VERTEX_POINT ( 'NONE', #3 ) ;
#275 = ORIENTED_EDGE ( 'NONE', *, *, #238, .F. ) ;
#276 = VERTEX_POINT ( 'NONE', #293 ) ;
#277 = DIRECTION ( 'NONE',  ( -0.000000000000000000, -0.000000000000000000, -1.000000000000000000 ) ) ;
#278 = ADVANCED_FACE ( 'NONE', ( #78 ), #247, .T. ) ;
#279 = DIRECTION ( 'NONE',  ( 1.224646799147353207E-16, 1.000000000000000000, -0.000000000000000000 ) ) ;
#280 = LOCAL_TIME ( 11, 33, 45.00000000000000000, #25 ) ;
#281 = ORIENTED_EDGE ( 'NONE', *, *, #272, .T. ) ;
#282 = DIRECTION ( 'NONE',  ( 1.000000000000000000, 0.000000000000000000, -0.000000000000000000 ) ) ;
#283 = CARTESIAN_POINT ( 'NONE',  ( 6.200000000000001066, 0.000000000000000000, 6.999999999999999112 ) ) ;
#284 = PERSON_AND_ORGANIZATION ( #130, #234 ) ;
#285 = DIRECTION ( 'NONE',  ( -0.000000000000000000, -0.000000000000000000, -1.000000000000000000 ) ) ;
#286 = TOROIDAL_SURFACE ( 'NONE', #27, 6.200000000000001066, 0.2000000000000000111 ) ;
#287 = PERSON_AND_ORGANIZATION_ROLE ( 'design_supplier' ) ;
#288 = CARTESIAN_POINT ( 'NONE',  ( 0.000000000000000000, 0.000000000000000000, 107.0000000000000142 ) ) ;
#289 = PERSON_AND_ORGANIZATION ( #130, #234 ) ;
#290 = EDGE_CURVE ( 'NONE', #301, #251, #165, .T. ) ;
#291 = DIRECTION ( 'NONE',  ( 1.000000000000000000, 0.000000000000000000, -0.000000000000000000 ) ) ;
#292 = PERSON_AND_ORGANIZATION_ROLE ( 'creator' ) ;
#293 = CARTESIAN_POINT ( 'NONE',  ( -6.000000000000000888, 0.000000000000000000, 107.0000000000000142 ) ) ;
#294 = AXIS2_PLACEMENT_3D ( 'NONE', #23, #219, #4 ) ;
#295 = PERSON_AND_ORGANIZATION_ROLE ( 'classification_officer' ) ;
#296 = CIRCLE ( 'NONE', #88, 0.1999999999999996503 ) ;
#297 = CC_DESIGN_DATE_AND_TIME_ASSIGNMENT ( #188, #6, ( #54 ) ) ;
#298 = DESIGN_CONTEXT ( 'detailed design', #259, 'design' ) ;
#299 = ORIENTED_EDGE ( 'NONE', *, *, #59, .T. ) ;
#300 = CIRCLE ( 'NONE', #35, 6.000000000000000888 ) ;
#301 = VERTEX_POINT ( 'NONE', #9 ) ;
#302 = EDGE_CURVE ( 'NONE', #133, #155, #161, .T. ) ;
#303 = VERTEX_POINT ( 'NONE', #97 ) ;
#304 = PRODUCT_DEFINITION_FORMATION_WITH_SPECIFIED_SOURCE ( 'LIBOVOLNÝ', '', #76, .NOT_KNOWN. ) ;
#305 = DIRECTION ( 'NONE',  ( 0.000000000000000000, 0.000000000000000000, 1.000000000000000000 ) ) ;
#306 = CARTESIAN_POINT ( 'NONE',  ( 0.000000000000000000, 0.000000000000000000, 7.199999999999998401 ) ) ;
#307 = CARTESIAN_POINT ( 'NONE',  ( 6.000000000000000888, 7.347880794884120722E-16, 7.199999999999998401 ) ) ;
ENDSEC;
END-ISO-10303-21;
