ISO-10303-21;
HEADER;
FILE_DESCRIPTION (( 'STEP AP203' ),
    '1' );
FILE_NAME ('a73d.STEP',
    '2022-06-20T09:46:43',
    ( '' ),
    ( '' ),
    'SwSTEP 2.0',
    'SolidWorks 2019',
    '' );
FILE_SCHEMA (( 'CONFIG_CONTROL_DESIGN' ));
ENDSEC;

DATA;
#1 = CYLINDRICAL_SURFACE ( 'NONE', #149, 4.099999999999999645 ) ;
#2 = AXIS2_PLACEMENT_3D ( 'NONE', #172, #58, #107 ) ;
#3 = VERTEX_POINT ( 'NONE', #119 ) ;
#4 = VERTEX_POINT ( 'NONE', #211 ) ;
#5 = CIRCLE ( 'NONE', #241, 4.099999999999999645 ) ;
#6 = CARTESIAN_POINT ( 'NONE',  ( 4.099999999999999645, 5.021051876504147385E-16, 405.0000000000000000 ) ) ;
#7 = DIRECTION ( 'NONE',  ( -1.000000000000000000, 0.000000000000000000, 0.000000000000000000 ) ) ;
#8 = DIRECTION ( 'NONE',  ( 1.000000000000000000, 0.000000000000000000, 0.000000000000000000 ) ) ;
#9 = CALENDAR_DATE ( 2022, 20, 6 ) ;
#10 = APPROVAL_PERSON_ORGANIZATION ( #157, #11, #22 ) ;
#11 = APPROVAL ( #20, 'NEURÈENÝ' ) ;
#12 = COORDINATED_UNIVERSAL_TIME_OFFSET ( 1, 0, .AHEAD. ) ;
#13 = CARTESIAN_POINT ( 'NONE',  ( -7.000000000000000000, 0.000000000000000000, 0.000000000000000000 ) ) ;
#14 = VERTEX_POINT ( 'NONE', #61 ) ;
#15 = CARTESIAN_POINT ( 'NONE',  ( 0.000000000000000000, 0.000000000000000000, 405.0000000000000000 ) ) ;
#16 = EDGE_CURVE ( 'NONE', #232, #4, #193, .T. ) ;
#17 = CARTESIAN_POINT ( 'NONE',  ( 0.000000000000000000, 0.000000000000000000, 0.000000000000000000 ) ) ;
#18 = TOROIDAL_SURFACE ( 'NONE', #180, 4.299999999999998934, 0.2000000000000000111 ) ;
#19 = CARTESIAN_POINT ( 'NONE',  ( -7.000000000000000000, 0.000000000000000000, 5.000000000000000000 ) ) ;
#20 = APPROVAL_STATUS ( 'not_yet_approved' ) ;
#21 = EDGE_CURVE ( 'NONE', #32, #48, #188, .T. ) ;
#22 = APPROVAL_ROLE ( '' ) ;
#23 = CARTESIAN_POINT ( 'NONE',  ( 0.000000000000000000, 0.000000000000000000, 5.000000000000000000 ) ) ;
#24 = VERTEX_POINT ( 'NONE', #263 ) ;
#25 = MANIFOLD_SOLID_BREP ( 'Zaoblit1', #29 ) ;
#26 = DIRECTION ( 'NONE',  ( -0.000000000000000000, -0.000000000000000000, -1.000000000000000000 ) ) ;
#27 = CARTESIAN_POINT ( 'NONE',  ( 0.000000000000000000, 0.000000000000000000, 5.199999999999982414 ) ) ;
#28 = EDGE_CURVE ( 'NONE', #4, #232, #120, .T. ) ;
#29 = CLOSED_SHELL ( 'NONE', ( #204, #220, #215, #56, #106, #49, #260, #108, #142 ) ) ;
#30 = VECTOR ( 'NONE', #55, 1000.000000000000000 ) ;
#31 = EDGE_LOOP ( 'NONE', ( #87, #117 ) ) ;
#32 = VERTEX_POINT ( 'NONE', #294 ) ;
#33 = VECTOR ( 'NONE', #210, 1000.000000000000000 ) ;
#34 = CARTESIAN_POINT ( 'NONE',  ( -4.099999999999999645, 0.000000000000000000, 405.0000000000000000 ) ) ;
#35 = APPROVAL_ROLE ( '' ) ;
#36 = DIRECTION ( 'NONE',  ( 1.000000000000000000, 0.000000000000000000, 0.000000000000000000 ) ) ;
#37 = DIRECTION ( 'NONE',  ( 0.000000000000000000, 0.000000000000000000, 1.000000000000000000 ) ) ;
#38 = PRODUCT_DEFINITION ( 'NEZNÁMÝ', '', #236, #282 ) ;
#39 = PERSON_AND_ORGANIZATION ( #277, #44 ) ;
#40 = LOCAL_TIME ( 11, 46, 43.00000000000000000, #12 ) ;
#41 = CALENDAR_DATE ( 2022, 20, 6 ) ;
#42 = ORIENTED_EDGE ( 'NONE', *, *, #268, .T. ) ;
#43 = DIRECTION ( 'NONE',  ( -1.000000000000000000, 1.224646799147353454E-16, 0.000000000000000000 ) ) ;
#44 = ORGANIZATION ( 'NEURÈENÝ', 'NEURÈENÝ', '' ) ;
#45 = FACE_OUTER_BOUND ( 'NONE', #129, .T. ) ;
#46 = CARTESIAN_POINT ( 'NONE',  ( 0.000000000000000000, 0.000000000000000000, 5.199999999999982414 ) ) ;
#47 = AXIS2_PLACEMENT_3D ( 'NONE', #140, #183, #306 ) ;
#48 = VERTEX_POINT ( 'NONE', #265 ) ;
#49 = ADVANCED_FACE ( 'NONE', ( #298 ), #103, .F. ) ;
#50 = EDGE_LOOP ( 'NONE', ( #160, #197, #42, #248 ) ) ;
#51 = AXIS2_PLACEMENT_3D ( 'NONE', #15, #293, #7 ) ;
#52 = DIRECTION ( 'NONE',  ( -0.000000000000000000, -0.000000000000000000, -1.000000000000000000 ) ) ;
#53 = AXIS2_PLACEMENT_3D ( 'NONE', #23, #110, #182 ) ;
#54 = ORIENTED_EDGE ( 'NONE', *, *, #153, .T. ) ;
#55 = DIRECTION ( 'NONE',  ( -0.000000000000000000, -0.000000000000000000, -1.000000000000000000 ) ) ;
#56 = ADVANCED_FACE ( 'NONE', ( #296 ), #245, .T. ) ;
#57 = PERSON_AND_ORGANIZATION ( #277, #44 ) ;
#58 = DIRECTION ( 'NONE',  ( 0.000000000000000000, 0.000000000000000000, 1.000000000000000000 ) ) ;
#59 = CIRCLE ( 'NONE', #251, 4.099999999999999645 ) ;
#60 = ORIENTED_EDGE ( 'NONE', *, *, #97, .F. ) ;
#61 = CARTESIAN_POINT ( 'NONE',  ( 7.000000000000000000, 8.572527594031473190E-16, 5.000000000000000000 ) ) ;
#62 = EDGE_LOOP ( 'NONE', ( #134, #83 ) ) ;
#63 = FACE_OUTER_BOUND ( 'NONE', #303, .T. ) ;
#64 = TOROIDAL_SURFACE ( 'NONE', #290, 4.299999999999998934, 0.2000000000000000111 ) ;
#65 = DATE_AND_TIME ( #224, #143 ) ;
#66 = EDGE_CURVE ( 'NONE', #250, #24, #98, .T. ) ;
#67 = CARTESIAN_POINT ( 'NONE',  ( -4.299999999999998934, 5.265981236333617484E-16, 5.199999999999982414 ) ) ;
#68 = APPROVAL_DATE_TIME ( #89, #11 ) ;
#69 = CARTESIAN_POINT ( 'NONE',  ( 0.000000000000000000, 0.000000000000000000, 5.199999999999982414 ) ) ;
#70 = CIRCLE ( 'NONE', #133, 7.000000000000000000 ) ;
#71 = DIRECTION ( 'NONE',  ( 1.000000000000000000, 0.000000000000000000, 0.000000000000000000 ) ) ;
#72 = ORIENTED_EDGE ( 'NONE', *, *, #246, .F. ) ;
#73 = LINE ( 'NONE', #6, #33 ) ;
#74 = CC_DESIGN_SECURITY_CLASSIFICATION ( #90, ( #236 ) ) ;
#75 = DIRECTION ( 'NONE',  ( 0.000000000000000000, 0.000000000000000000, 1.000000000000000000 ) ) ;
#76 = APPROVAL ( #295, 'NEURÈENÝ' ) ;
#77 = DIRECTION ( 'NONE',  ( -0.000000000000000000, -0.000000000000000000, -1.000000000000000000 ) ) ;
#78 = EDGE_CURVE ( 'NONE', #139, #14, #271, .T. ) ;
#79 = APPLICATION_PROTOCOL_DEFINITION ( 'international standard', 'config_control_design', 1994, #299 ) ;
#80 = CIRCLE ( 'NONE', #138, 4.099999999999999645 ) ;
#81 =( NAMED_UNIT ( * ) PLANE_ANGLE_UNIT ( ) SI_UNIT ( $, .RADIAN. ) );
#82 = FACE_OUTER_BOUND ( 'NONE', #226, .T. ) ;
#83 = ORIENTED_EDGE ( 'NONE', *, *, #164, .T. ) ;
#84 = MECHANICAL_CONTEXT ( 'NONE', #284, 'mechanical' ) ;
#85 = CC_DESIGN_PERSON_AND_ORGANIZATION_ASSIGNMENT ( #39, #216, ( #105 ) ) ;
#86 = CIRCLE ( 'NONE', #191, 7.000000000000000000 ) ;
#87 = ORIENTED_EDGE ( 'NONE', *, *, #78, .T. ) ;
#88 = ORIENTED_EDGE ( 'NONE', *, *, #16, .T. ) ;
#89 = DATE_AND_TIME ( #178, #181 ) ;
#90 = SECURITY_CLASSIFICATION ( '', '', #253 ) ;
#91 = FACE_OUTER_BOUND ( 'NONE', #31, .T. ) ;
#92 = PERSON_AND_ORGANIZATION_ROLE ( 'classification_officer' ) ;
#93 = ADVANCED_BREP_SHAPE_REPRESENTATION ( 'a73d', ( #25, #2 ), #218 ) ;
#94 = ORIENTED_EDGE ( 'NONE', *, *, #164, .F. ) ;
#95 = LINE ( 'NONE', #192, #286 ) ;
#96 = ORIENTED_EDGE ( 'NONE', *, *, #228, .T. ) ;
#97 = EDGE_CURVE ( 'NONE', #3, #232, #156, .T. ) ;
#98 = CIRCLE ( 'NONE', #146, 7.000000000000000000 ) ;
#99 = CARTESIAN_POINT ( 'NONE',  ( 4.299999999999998934, 0.000000000000000000, 4.999999999999991118 ) ) ;
#100 = CARTESIAN_POINT ( 'NONE',  ( 4.299999999999998934, 0.000000000000000000, 5.199999999999982414 ) ) ;
#101 = AXIS2_PLACEMENT_3D ( 'NONE', #239, #26, #291 ) ;
#102 = LOCAL_TIME ( 11, 46, 43.00000000000000000, #214 ) ;
#103 = PLANE ( 'NONE',  #209 ) ;
#104 = APPROVAL_STATUS ( 'not_yet_approved' ) ;
#105 = PRODUCT ( 'a73d', 'a73d', '', ( #84 ) ) ;
#106 = ADVANCED_FACE ( 'NONE', ( #231, #91 ), #137, .T. ) ;
#107 = DIRECTION ( 'NONE',  ( 1.000000000000000000, 0.000000000000000000, 0.000000000000000000 ) ) ;
#108 = ADVANCED_FACE ( 'NONE', ( #135 ), #234, .T. ) ;
#109 = ORIENTED_EDGE ( 'NONE', *, *, #238, .T. ) ;
#110 = DIRECTION ( 'NONE',  ( 0.000000000000000000, 0.000000000000000000, 1.000000000000000000 ) ) ;
#111 = DIRECTION ( 'NONE',  ( 0.000000000000000000, 0.000000000000000000, -1.000000000000000000 ) ) ;
#112 = UNCERTAINTY_MEASURE_WITH_UNIT (LENGTH_MEASURE( 1.000000000000000082E-05 ), #267, 'distance_accuracy_value', 'NONE');
#113 = CC_DESIGN_PERSON_AND_ORGANIZATION_ASSIGNMENT ( #57, #244, ( #38 ) ) ;
#114 = CARTESIAN_POINT ( 'NONE',  ( 0.000000000000000000, 0.000000000000000000, 5.000000000000000000 ) ) ;
#115 = ORIENTED_EDGE ( 'NONE', *, *, #66, .F. ) ;
#116 = APPROVAL_PERSON_ORGANIZATION ( #171, #76, #266 ) ;
#117 = ORIENTED_EDGE ( 'NONE', *, *, #121, .T. ) ;
#118 = DIRECTION ( 'NONE',  ( -1.000000000000000000, 0.000000000000000000, 0.000000000000000000 ) ) ;
#119 = CARTESIAN_POINT ( 'NONE',  ( 4.099999999999999645, 5.021051876504147385E-16, 5.199999999999982414 ) ) ;
#120 = CIRCLE ( 'NONE', #256, 4.299999999999998934 ) ;
#121 = EDGE_CURVE ( 'NONE', #14, #139, #70, .T. ) ;
#122 = DIRECTION ( 'NONE',  ( -0.000000000000000000, -0.000000000000000000, -1.000000000000000000 ) ) ;
#123 = DATE_AND_TIME ( #41, #40 ) ;
#124 = DIRECTION ( 'NONE',  ( 0.000000000000000000, 0.000000000000000000, 1.000000000000000000 ) ) ;
#125 =( NAMED_UNIT ( * ) SI_UNIT ( $, .STERADIAN. ) SOLID_ANGLE_UNIT ( ) );
#126 = AXIS2_PLACEMENT_3D ( 'NONE', #100, #225, #111 ) ;
#127 = DIRECTION ( 'NONE',  ( 1.000000000000000000, 0.000000000000000000, -0.000000000000000000 ) ) ;
#128 = DATE_TIME_ROLE ( 'creation_date' ) ;
#129 = EDGE_LOOP ( 'NONE', ( #72, #165, #287, #60 ) ) ;
#130 = APPROVAL_DATE_TIME ( #272, #76 ) ;
#131 = SHAPE_DEFINITION_REPRESENTATION ( #270, #93 ) ;
#132 = EDGE_CURVE ( 'NONE', #3, #48, #80, .T. ) ;
#133 = AXIS2_PLACEMENT_3D ( 'NONE', #114, #227, #200 ) ;
#134 = ORIENTED_EDGE ( 'NONE', *, *, #233, .T. ) ;
#135 = FACE_OUTER_BOUND ( 'NONE', #62, .T. ) ;
#136 = COORDINATED_UNIVERSAL_TIME_OFFSET ( 1, 0, .AHEAD. ) ;
#137 = PLANE ( 'NONE',  #53 ) ;
#138 = AXIS2_PLACEMENT_3D ( 'NONE', #69, #229, #307 ) ;
#139 = VERTEX_POINT ( 'NONE', #19 ) ;
#140 = CARTESIAN_POINT ( 'NONE',  ( 0.000000000000000000, 0.000000000000000000, 405.0000000000000000 ) ) ;
#141 = EDGE_LOOP ( 'NONE', ( #115, #269 ) ) ;
#142 = ADVANCED_FACE ( 'NONE', ( #63 ), #18, .F. ) ;
#143 = LOCAL_TIME ( 11, 46, 43.00000000000000000, #202 ) ;
#144 = EDGE_LOOP ( 'NONE', ( #88, #259 ) ) ;
#145 = FACE_OUTER_BOUND ( 'NONE', #207, .T. ) ;
#146 = AXIS2_PLACEMENT_3D ( 'NONE', #17, #275, #36 ) ;
#147 = COORDINATED_UNIVERSAL_TIME_OFFSET ( 1, 0, .AHEAD. ) ;
#148 = CARTESIAN_POINT ( 'NONE',  ( -7.000000000000000000, 0.000000000000000000, 5.000000000000000000 ) ) ;
#149 = AXIS2_PLACEMENT_3D ( 'NONE', #187, #122, #118 ) ;
#150 = DIRECTION ( 'NONE',  ( -0.000000000000000000, -0.000000000000000000, -1.000000000000000000 ) ) ;
#151 = DIRECTION ( 'NONE',  ( 1.000000000000000000, 0.000000000000000000, 0.000000000000000000 ) ) ;
#152 = DIRECTION ( 'NONE',  ( -0.000000000000000000, -0.000000000000000000, -1.000000000000000000 ) ) ;
#153 = EDGE_CURVE ( 'NONE', #24, #250, #86, .T. ) ;
#154 = DIRECTION ( 'NONE',  ( -1.000000000000000000, 0.000000000000000000, 0.000000000000000000 ) ) ;
#155 = DIRECTION ( 'NONE',  ( 0.000000000000000000, 0.000000000000000000, 1.000000000000000000 ) ) ;
#156 = CIRCLE ( 'NONE', #126, 0.1999999999999996503 ) ;
#157 = PERSON_AND_ORGANIZATION ( #277, #44 ) ;
#158 = DIRECTION ( 'NONE',  ( 1.000000000000000000, 0.000000000000000000, 0.000000000000000000 ) ) ;
#159 = CARTESIAN_POINT ( 'NONE',  ( 0.000000000000000000, 0.000000000000000000, 405.0000000000000000 ) ) ;
#160 = ORIENTED_EDGE ( 'NONE', *, *, #238, .F. ) ;
#161 = CARTESIAN_POINT ( 'NONE',  ( 0.000000000000000000, 0.000000000000000000, 5.199999999999982414 ) ) ;
#162 = AXIS2_PLACEMENT_3D ( 'NONE', #190, #235, #240 ) ;
#163 = ORIENTED_EDGE ( 'NONE', *, *, #28, .F. ) ;
#164 = EDGE_CURVE ( 'NONE', #186, #32, #5, .T. ) ;
#165 = ORIENTED_EDGE ( 'NONE', *, *, #206, .T. ) ;
#166 = LOCAL_TIME ( 11, 46, 43.00000000000000000, #147 ) ;
#167 = DIRECTION ( 'NONE',  ( 1.000000000000000000, 0.000000000000000000, 0.000000000000000000 ) ) ;
#168 = APPLICATION_PROTOCOL_DEFINITION ( 'international standard', 'config_control_design', 1994, #284 ) ;
#169 = CYLINDRICAL_SURFACE ( 'NONE', #51, 4.099999999999999645 ) ;
#170 = CC_DESIGN_DATE_AND_TIME_ASSIGNMENT ( #65, #274, ( #90 ) ) ;
#171 = PERSON_AND_ORGANIZATION ( #277, #44 ) ;
#172 = CARTESIAN_POINT ( 'NONE',  ( 0.000000000000000000, 0.000000000000000000, 0.000000000000000000 ) ) ;
#173 = EDGE_LOOP ( 'NONE', ( #94, #96, #189, #201 ) ) ;
#174 = AXIS2_PLACEMENT_3D ( 'NONE', #273, #152, #154 ) ;
#175 = CARTESIAN_POINT ( 'NONE',  ( 0.000000000000000000, 0.000000000000000000, 0.000000000000000000 ) ) ;
#176 = ORIENTED_EDGE ( 'NONE', *, *, #132, .F. ) ;
#177 = ORIENTED_EDGE ( 'NONE', *, *, #206, .F. ) ;
#178 = CALENDAR_DATE ( 2022, 20, 6 ) ;
#179 = DIRECTION ( 'NONE',  ( 0.000000000000000000, 0.000000000000000000, 1.000000000000000000 ) ) ;
#180 = AXIS2_PLACEMENT_3D ( 'NONE', #161, #203, #255 ) ;
#181 = LOCAL_TIME ( 11, 46, 43.00000000000000000, #136 ) ;
#182 = DIRECTION ( 'NONE',  ( 1.000000000000000000, 0.000000000000000000, -0.000000000000000000 ) ) ;
#183 = DIRECTION ( 'NONE',  ( 0.000000000000000000, 0.000000000000000000, 1.000000000000000000 ) ) ;
#184 = CARTESIAN_POINT ( 'NONE',  ( 0.000000000000000000, 0.000000000000000000, 0.000000000000000000 ) ) ;
#185 = PRODUCT_RELATED_PRODUCT_CATEGORY ( 'detail', '', ( #105 ) ) ;
#186 = VERTEX_POINT ( 'NONE', #254 ) ;
#187 = CARTESIAN_POINT ( 'NONE',  ( 0.000000000000000000, 0.000000000000000000, 405.0000000000000000 ) ) ;
#188 = LINE ( 'NONE', #34, #280 ) ;
#189 = ORIENTED_EDGE ( 'NONE', *, *, #132, .T. ) ;
#190 = CARTESIAN_POINT ( 'NONE',  ( 0.000000000000000000, 0.000000000000000000, 5.000000000000000000 ) ) ;
#191 = AXIS2_PLACEMENT_3D ( 'NONE', #184, #155, #304 ) ;
#192 = CARTESIAN_POINT ( 'NONE',  ( 7.000000000000000000, 8.572527594031473190E-16, 5.000000000000000000 ) ) ;
#193 = CIRCLE ( 'NONE', #101, 4.299999999999998934 ) ;
#194 = APPROVAL_PERSON_ORGANIZATION ( #264, #212, #35 ) ;
#195 = CALENDAR_DATE ( 2022, 20, 6 ) ;
#196 = DATE_AND_TIME ( #195, #102 ) ;
#197 = ORIENTED_EDGE ( 'NONE', *, *, #78, .F. ) ;
#198 = CIRCLE ( 'NONE', #205, 4.099999999999999645 ) ;
#199 = CARTESIAN_POINT ( 'NONE',  ( 0.000000000000000000, 0.000000000000000000, 5.000000000000000000 ) ) ;
#200 = DIRECTION ( 'NONE',  ( 1.000000000000000000, 0.000000000000000000, 0.000000000000000000 ) ) ;
#201 = ORIENTED_EDGE ( 'NONE', *, *, #21, .F. ) ;
#202 = COORDINATED_UNIVERSAL_TIME_OFFSET ( 1, 0, .AHEAD. ) ;
#203 = DIRECTION ( 'NONE',  ( 0.000000000000000000, 0.000000000000000000, 1.000000000000000000 ) ) ;
#204 = ADVANCED_FACE ( 'NONE', ( #45 ), #64, .F. ) ;
#205 = AXIS2_PLACEMENT_3D ( 'NONE', #289, #75, #167 ) ;
#206 = EDGE_CURVE ( 'NONE', #48, #4, #213, .T. ) ;
#207 = EDGE_LOOP ( 'NONE', ( #300, #109, #54, #219 ) ) ;
#208 = DIRECTION ( 'NONE',  ( 0.000000000000000000, 0.000000000000000000, 1.000000000000000000 ) ) ;
#209 = AXIS2_PLACEMENT_3D ( 'NONE', #175, #37, #127 ) ;
#210 = DIRECTION ( 'NONE',  ( -0.000000000000000000, -0.000000000000000000, -1.000000000000000000 ) ) ;
#211 = CARTESIAN_POINT ( 'NONE',  ( -4.299999999999998934, 5.265981236333617484E-16, 4.999999999999991118 ) ) ;
#212 = APPROVAL ( #104, 'NEURÈENÝ' ) ;
#213 = CIRCLE ( 'NONE', #301, 0.1999999999999996503 ) ;
#214 = COORDINATED_UNIVERSAL_TIME_OFFSET ( 1, 0, .AHEAD. ) ;
#215 = ADVANCED_FACE ( 'NONE', ( #145 ), #257, .T. ) ;
#216 = PERSON_AND_ORGANIZATION_ROLE ( 'design_owner' ) ;
#217 = CARTESIAN_POINT ( 'NONE',  ( 0.000000000000000000, 0.000000000000000000, 5.000000000000000000 ) ) ;
#218 =( GEOMETRIC_REPRESENTATION_CONTEXT ( 3 ) GLOBAL_UNCERTAINTY_ASSIGNED_CONTEXT ( ( #112 ) ) GLOBAL_UNIT_ASSIGNED_CONTEXT ( ( #267, #81, #125 ) ) REPRESENTATION_CONTEXT ( 'NONE', 'WORKASPACE' ) );
#219 = ORIENTED_EDGE ( 'NONE', *, *, #268, .F. ) ;
#220 = ADVANCED_FACE ( 'NONE', ( #258 ), #1, .T. ) ;
#221 = PERSON_AND_ORGANIZATION_ROLE ( 'creator' ) ;
#222 = DIRECTION ( 'NONE',  ( 1.000000000000000000, 0.000000000000000000, 0.000000000000000000 ) ) ;
#223 = ORIENTED_EDGE ( 'NONE', *, *, #21, .T. ) ;
#224 = CALENDAR_DATE ( 2022, 20, 6 ) ;
#225 = DIRECTION ( 'NONE',  ( 0.000000000000000000, -1.000000000000000000, 0.000000000000000000 ) ) ;
#226 = EDGE_LOOP ( 'NONE', ( #237, #276, #223, #262 ) ) ;
#227 = DIRECTION ( 'NONE',  ( 0.000000000000000000, 0.000000000000000000, 1.000000000000000000 ) ) ;
#228 = EDGE_CURVE ( 'NONE', #186, #3, #73, .T. ) ;
#229 = DIRECTION ( 'NONE',  ( 0.000000000000000000, 0.000000000000000000, 1.000000000000000000 ) ) ;
#230 = PERSON_AND_ORGANIZATION ( #277, #44 ) ;
#231 = FACE_BOUND ( 'NONE', #144, .T. ) ;
#232 = VERTEX_POINT ( 'NONE', #99 ) ;
#233 = EDGE_CURVE ( 'NONE', #32, #186, #198, .T. ) ;
#234 = PLANE ( 'NONE',  #47 ) ;
#235 = DIRECTION ( 'NONE',  ( -0.000000000000000000, -0.000000000000000000, -1.000000000000000000 ) ) ;
#236 = PRODUCT_DEFINITION_FORMATION_WITH_SPECIFIED_SOURCE ( 'LIBOVOLNÝ', '', #105, .NOT_KNOWN. ) ;
#237 = ORIENTED_EDGE ( 'NONE', *, *, #228, .F. ) ;
#238 = EDGE_CURVE ( 'NONE', #14, #24, #95, .T. ) ;
#239 = CARTESIAN_POINT ( 'NONE',  ( 0.000000000000000000, 0.000000000000000000, 5.000000000000000000 ) ) ;
#240 = DIRECTION ( 'NONE',  ( -1.000000000000000000, 0.000000000000000000, 0.000000000000000000 ) ) ;
#241 = AXIS2_PLACEMENT_3D ( 'NONE', #159, #179, #158 ) ;
#242 = CC_DESIGN_PERSON_AND_ORGANIZATION_ASSIGNMENT ( #283, #92, ( #90 ) ) ;
#243 = APPROVAL_DATE_TIME ( #196, #212 ) ;
#244 = PERSON_AND_ORGANIZATION_ROLE ( 'creator' ) ;
#245 = CYLINDRICAL_SURFACE ( 'NONE', #174, 7.000000000000000000 ) ;
#246 = EDGE_CURVE ( 'NONE', #48, #3, #59, .T. ) ;
#247 = LINE ( 'NONE', #148, #30 ) ;
#248 = ORIENTED_EDGE ( 'NONE', *, *, #66, .T. ) ;
#249 = DIRECTION ( 'NONE',  ( 1.224646799147353207E-16, 1.000000000000000000, -0.000000000000000000 ) ) ;
#250 = VERTEX_POINT ( 'NONE', #13 ) ;
#251 = AXIS2_PLACEMENT_3D ( 'NONE', #27, #208, #151 ) ;
#252 = CC_DESIGN_PERSON_AND_ORGANIZATION_ASSIGNMENT ( #230, #279, ( #236 ) ) ;
#253 = SECURITY_CLASSIFICATION_LEVEL ( 'unclassified' ) ;
#254 = CARTESIAN_POINT ( 'NONE',  ( 4.099999999999999645, 5.021051876504147385E-16, 405.0000000000000000 ) ) ;
#255 = DIRECTION ( 'NONE',  ( 1.000000000000000000, 0.000000000000000000, 0.000000000000000000 ) ) ;
#256 = AXIS2_PLACEMENT_3D ( 'NONE', #199, #150, #222 ) ;
#257 = CYLINDRICAL_SURFACE ( 'NONE', #162, 7.000000000000000000 ) ;
#258 = FACE_OUTER_BOUND ( 'NONE', #173, .T. ) ;
#259 = ORIENTED_EDGE ( 'NONE', *, *, #28, .T. ) ;
#260 = ADVANCED_FACE ( 'NONE', ( #82 ), #169, .T. ) ;
#261 = CC_DESIGN_APPROVAL ( #11, ( #90 ) ) ;
#262 = ORIENTED_EDGE ( 'NONE', *, *, #246, .T. ) ;
#263 = CARTESIAN_POINT ( 'NONE',  ( 7.000000000000000000, 8.572527594031473190E-16, 0.000000000000000000 ) ) ;
#264 = PERSON_AND_ORGANIZATION ( #277, #44 ) ;
#265 = CARTESIAN_POINT ( 'NONE',  ( -4.099999999999999645, 0.000000000000000000, 5.199999999999982414 ) ) ;
#266 = APPROVAL_ROLE ( '' ) ;
#267 =( LENGTH_UNIT ( ) NAMED_UNIT ( * ) SI_UNIT ( .MILLI., .METRE. ) );
#268 = EDGE_CURVE ( 'NONE', #139, #250, #247, .T. ) ;
#269 = ORIENTED_EDGE ( 'NONE', *, *, #153, .F. ) ;
#270 = PRODUCT_DEFINITION_SHAPE ( 'NONE', 'NONE',  #38 ) ;
#271 = CIRCLE ( 'NONE', #305, 7.000000000000000000 ) ;
#272 = DATE_AND_TIME ( #9, #166 ) ;
#273 = CARTESIAN_POINT ( 'NONE',  ( 0.000000000000000000, 0.000000000000000000, 5.000000000000000000 ) ) ;
#274 = DATE_TIME_ROLE ( 'classification_date' ) ;
#275 = DIRECTION ( 'NONE',  ( 0.000000000000000000, 0.000000000000000000, 1.000000000000000000 ) ) ;
#276 = ORIENTED_EDGE ( 'NONE', *, *, #233, .F. ) ;
#277 = PERSON ( 'NEURÈENÝ', 'NEURÈENÝ', 'NEURÈENÝ', ('NEURÈENÝ'), ('NEURÈENÝ'), ('NEURÈENÝ') ) ;
#278 = CC_DESIGN_PERSON_AND_ORGANIZATION_ASSIGNMENT ( #297, #221, ( #236 ) ) ;
#279 = PERSON_AND_ORGANIZATION_ROLE ( 'design_supplier' ) ;
#280 = VECTOR ( 'NONE', #77, 1000.000000000000000 ) ;
#281 = CC_DESIGN_APPROVAL ( #212, ( #236 ) ) ;
#282 = DESIGN_CONTEXT ( 'detailed design', #299, 'design' ) ;
#283 = PERSON_AND_ORGANIZATION ( #277, #44 ) ;
#284 = APPLICATION_CONTEXT ( 'configuration controlled 3d designs of mechanical parts and assemblies' ) ;
#285 = DIRECTION ( 'NONE',  ( 0.000000000000000000, 0.000000000000000000, 1.000000000000000000 ) ) ;
#286 = VECTOR ( 'NONE', #52, 1000.000000000000000 ) ;
#287 = ORIENTED_EDGE ( 'NONE', *, *, #16, .F. ) ;
#288 = ORIENTED_EDGE ( 'NONE', *, *, #97, .T. ) ;
#289 = CARTESIAN_POINT ( 'NONE',  ( 0.000000000000000000, 0.000000000000000000, 405.0000000000000000 ) ) ;
#290 = AXIS2_PLACEMENT_3D ( 'NONE', #46, #285, #71 ) ;
#291 = DIRECTION ( 'NONE',  ( 1.000000000000000000, 0.000000000000000000, 0.000000000000000000 ) ) ;
#292 = CC_DESIGN_APPROVAL ( #76, ( #38 ) ) ;
#293 = DIRECTION ( 'NONE',  ( -0.000000000000000000, -0.000000000000000000, -1.000000000000000000 ) ) ;
#294 = CARTESIAN_POINT ( 'NONE',  ( -4.099999999999999645, 0.000000000000000000, 405.0000000000000000 ) ) ;
#295 = APPROVAL_STATUS ( 'not_yet_approved' ) ;
#296 = FACE_OUTER_BOUND ( 'NONE', #50, .T. ) ;
#297 = PERSON_AND_ORGANIZATION ( #277, #44 ) ;
#298 = FACE_OUTER_BOUND ( 'NONE', #141, .T. ) ;
#299 = APPLICATION_CONTEXT ( 'configuration controlled 3d designs of mechanical parts and assemblies' ) ;
#300 = ORIENTED_EDGE ( 'NONE', *, *, #121, .F. ) ;
#301 = AXIS2_PLACEMENT_3D ( 'NONE', #67, #249, #43 ) ;
#302 = CC_DESIGN_DATE_AND_TIME_ASSIGNMENT ( #123, #128, ( #38 ) ) ;
#303 = EDGE_LOOP ( 'NONE', ( #177, #176, #288, #163 ) ) ;
#304 = DIRECTION ( 'NONE',  ( 1.000000000000000000, 0.000000000000000000, 0.000000000000000000 ) ) ;
#305 = AXIS2_PLACEMENT_3D ( 'NONE', #217, #124, #8 ) ;
#306 = DIRECTION ( 'NONE',  ( 1.000000000000000000, 0.000000000000000000, -0.000000000000000000 ) ) ;
#307 = DIRECTION ( 'NONE',  ( 1.000000000000000000, 0.000000000000000000, 0.000000000000000000 ) ) ;
ENDSEC;
END-ISO-10303-21;
