ISO-10303-21;
HEADER;
FILE_DESCRIPTION (( 'STEP AP203' ),
    '1' );
FILE_NAME ('d79c.STEP',
    '2022-06-20T10:02:21',
    ( '' ),
    ( '' ),
    'SwSTEP 2.0',
    'SolidWorks 2019',
    '' );
FILE_SCHEMA (( 'CONFIG_CONTROL_DESIGN' ));
ENDSEC;

DATA;
#1 = DIRECTION ( 'NONE',  ( 1.000000000000000000, 0.000000000000000000, 0.000000000000000000 ) ) ;
#2 = PERSON_AND_ORGANIZATION ( #155, #271 ) ;
#3 = DIRECTION ( 'NONE',  ( -0.000000000000000000, -0.000000000000000000, -1.000000000000000000 ) ) ;
#4 = VECTOR ( 'NONE', #29, 1000.000000000000000 ) ;
#5 = CARTESIAN_POINT ( 'NONE',  ( 0.000000000000000000, 0.000000000000000000, 128.0000000000000000 ) ) ;
#6 = EDGE_CURVE ( 'NONE', #198, #255, #183, .T. ) ;
#7 = APPROVAL_ROLE ( '' ) ;
#8 = ORIENTED_EDGE ( 'NONE', *, *, #123, .F. ) ;
#9 = SECURITY_CLASSIFICATION_LEVEL ( 'unclassified' ) ;
#10 = MANIFOLD_SOLID_BREP ( 'Zaoblit1', #300 ) ;
#11 = VERTEX_POINT ( 'NONE', #230 ) ;
#12 = CALENDAR_DATE ( 2022, 20, 6 ) ;
#13 = ORIENTED_EDGE ( 'NONE', *, *, #119, .T. ) ;
#14 = EDGE_LOOP ( 'NONE', ( #139, #160, #279, #56 ) ) ;
#15 = AXIS2_PLACEMENT_3D ( 'NONE', #286, #210, #94 ) ;
#16 = ORIENTED_EDGE ( 'NONE', *, *, #25, .T. ) ;
#17 = CC_DESIGN_PERSON_AND_ORGANIZATION_ASSIGNMENT ( #2, #289, ( #242 ) ) ;
#18 = UNCERTAINTY_MEASURE_WITH_UNIT (LENGTH_MEASURE( 1.000000000000000082E-05 ), #77, 'distance_accuracy_value', 'NONE');
#19 = CARTESIAN_POINT ( 'NONE',  ( -2.799999999999999822, 3.429011037612588783E-16, 3.199999999999994404 ) ) ;
#20 = DIRECTION ( 'NONE',  ( 0.000000000000000000, 0.000000000000000000, 1.000000000000000000 ) ) ;
#21 = CC_DESIGN_APPROVAL ( #251, ( #65 ) ) ;
#22 = CARTESIAN_POINT ( 'NONE',  ( -2.600000000000000089, 0.000000000000000000, 128.0000000000000000 ) ) ;
#23 = LOCAL_TIME ( 12, 2, 21.00000000000000000, #126 ) ;
#24 = FACE_OUTER_BOUND ( 'NONE', #161, .T. ) ;
#25 = EDGE_CURVE ( 'NONE', #141, #233, #129, .T. ) ;
#26 = DIRECTION ( 'NONE',  ( 1.000000000000000000, 0.000000000000000000, -0.000000000000000000 ) ) ;
#27 = FACE_OUTER_BOUND ( 'NONE', #14, .T. ) ;
#28 = AXIS2_PLACEMENT_3D ( 'NONE', #216, #175, #26 ) ;
#29 = DIRECTION ( 'NONE',  ( -0.000000000000000000, -0.000000000000000000, -1.000000000000000000 ) ) ;
#30 = ADVANCED_FACE ( 'NONE', ( #118 ), #306, .T. ) ;
#31 = AXIS2_PLACEMENT_3D ( 'NONE', #168, #114, #285 ) ;
#32 = PERSON_AND_ORGANIZATION_ROLE ( 'design_supplier' ) ;
#33 = DIRECTION ( 'NONE',  ( 1.000000000000000000, 0.000000000000000000, 0.000000000000000000 ) ) ;
#34 = APPROVAL_DATE_TIME ( #83, #218 ) ;
#35 = APPROVAL_DATE_TIME ( #252, #251 ) ;
#36 = VERTEX_POINT ( 'NONE', #288 ) ;
#37 = PERSON_AND_ORGANIZATION ( #155, #271 ) ;
#38 = ORIENTED_EDGE ( 'NONE', *, *, #127, .T. ) ;
#39 = ORIENTED_EDGE ( 'NONE', *, *, #123, .T. ) ;
#40 = EDGE_CURVE ( 'NONE', #106, #36, #132, .T. ) ;
#41 = CARTESIAN_POINT ( 'NONE',  ( 5.000000000000000000, 6.123233995736766282E-16, 3.000000000000000000 ) ) ;
#42 = DIRECTION ( 'NONE',  ( 0.000000000000000000, 0.000000000000000000, -1.000000000000000000 ) ) ;
#43 = EDGE_CURVE ( 'NONE', #233, #11, #54, .T. ) ;
#44 = DIRECTION ( 'NONE',  ( 1.000000000000000000, 0.000000000000000000, 0.000000000000000000 ) ) ;
#45 = AXIS2_PLACEMENT_3D ( 'NONE', #215, #170, #167 ) ;
#46 = CARTESIAN_POINT ( 'NONE',  ( 0.000000000000000000, 0.000000000000000000, 3.000000000000000000 ) ) ;
#47 = DIRECTION ( 'NONE',  ( 1.000000000000000000, 0.000000000000000000, 0.000000000000000000 ) ) ;
#48 = CYLINDRICAL_SURFACE ( 'NONE', #234, 2.600000000000000089 ) ;
#49 = PRODUCT_DEFINITION ( 'NEZNÁMÝ', '', #140, #165 ) ;
#50 = DIRECTION ( 'NONE',  ( -0.000000000000000000, -0.000000000000000000, -1.000000000000000000 ) ) ;
#51 = PRODUCT_RELATED_PRODUCT_CATEGORY ( 'detail', '', ( #242 ) ) ;
#52 = DIRECTION ( 'NONE',  ( -0.000000000000000000, -0.000000000000000000, -1.000000000000000000 ) ) ;
#53 = CARTESIAN_POINT ( 'NONE',  ( -5.000000000000000000, 0.000000000000000000, 0.000000000000000000 ) ) ;
#54 = CIRCLE ( 'NONE', #45, 2.600000000000000089 ) ;
#55 = CALENDAR_DATE ( 2022, 20, 6 ) ;
#56 = ORIENTED_EDGE ( 'NONE', *, *, #284, .F. ) ;
#57 = ORIENTED_EDGE ( 'NONE', *, *, #43, .F. ) ;
#58 = COORDINATED_UNIVERSAL_TIME_OFFSET ( 1, 0, .AHEAD. ) ;
#59 = ORIENTED_EDGE ( 'NONE', *, *, #43, .T. ) ;
#60 = VERTEX_POINT ( 'NONE', #143 ) ;
#61 = ADVANCED_FACE ( 'NONE', ( #264 ), #144, .F. ) ;
#62 = ORIENTED_EDGE ( 'NONE', *, *, #135, .F. ) ;
#63 = PRODUCT_DEFINITION_SHAPE ( 'NONE', 'NONE',  #49 ) ;
#64 = DIRECTION ( 'NONE',  ( 1.000000000000000000, 0.000000000000000000, 0.000000000000000000 ) ) ;
#65 = SECURITY_CLASSIFICATION ( '', '', #9 ) ;
#66 = CIRCLE ( 'NONE', #223, 5.000000000000000000 ) ;
#67 = CARTESIAN_POINT ( 'NONE',  ( -5.000000000000000000, 0.000000000000000000, 3.000000000000000000 ) ) ;
#68 = DIRECTION ( 'NONE',  ( 1.000000000000000000, 0.000000000000000000, -0.000000000000000000 ) ) ;
#69 = CARTESIAN_POINT ( 'NONE',  ( 0.000000000000000000, 0.000000000000000000, 128.0000000000000000 ) ) ;
#70 = AXIS2_PLACEMENT_3D ( 'NONE', #193, #221, #265 ) ;
#71 = DIRECTION ( 'NONE',  ( -0.000000000000000000, -0.000000000000000000, -1.000000000000000000 ) ) ;
#72 = ADVANCED_FACE ( 'NONE', ( #115 ), #238, .T. ) ;
#73 = MECHANICAL_CONTEXT ( 'NONE', #220, 'mechanical' ) ;
#74 = DIRECTION ( 'NONE',  ( 1.000000000000000000, 0.000000000000000000, 0.000000000000000000 ) ) ;
#75 = CC_DESIGN_PERSON_AND_ORGANIZATION_ASSIGNMENT ( #229, #275, ( #140 ) ) ;
#76 = APPROVAL_PERSON_ORGANIZATION ( #266, #218, #185 ) ;
#77 =( LENGTH_UNIT ( ) NAMED_UNIT ( * ) SI_UNIT ( .MILLI., .METRE. ) );
#78 = DIRECTION ( 'NONE',  ( -1.000000000000000000, 0.000000000000000000, 0.000000000000000000 ) ) ;
#79 =( GEOMETRIC_REPRESENTATION_CONTEXT ( 3 ) GLOBAL_UNCERTAINTY_ASSIGNED_CONTEXT ( ( #18 ) ) GLOBAL_UNIT_ASSIGNED_CONTEXT ( ( #77, #102, #270 ) ) REPRESENTATION_CONTEXT ( 'NONE', 'WORKASPACE' ) );
#80 = AXIS2_PLACEMENT_3D ( 'NONE', #257, #188, #209 ) ;
#81 = ORIENTED_EDGE ( 'NONE', *, *, #217, .F. ) ;
#82 = EDGE_LOOP ( 'NONE', ( #112, #13 ) ) ;
#83 = DATE_AND_TIME ( #12, #250 ) ;
#84 = EDGE_LOOP ( 'NONE', ( #104, #136, #16, #59 ) ) ;
#85 = AXIS2_PLACEMENT_3D ( 'NONE', #225, #100, #74 ) ;
#86 = ORIENTED_EDGE ( 'NONE', *, *, #150, .F. ) ;
#87 = AXIS2_PLACEMENT_3D ( 'NONE', #117, #305, #303 ) ;
#88 = EDGE_CURVE ( 'NONE', #60, #203, #66, .T. ) ;
#89 = ORIENTED_EDGE ( 'NONE', *, *, #135, .T. ) ;
#90 = APPROVAL ( #181, 'NEURÈENÝ' ) ;
#91 = DIRECTION ( 'NONE',  ( 0.000000000000000000, -1.000000000000000000, 0.000000000000000000 ) ) ;
#92 = CYLINDRICAL_SURFACE ( 'NONE', #261, 2.600000000000000089 ) ;
#93 = CIRCLE ( 'NONE', #87, 2.600000000000000089 ) ;
#94 = DIRECTION ( 'NONE',  ( 1.000000000000000000, 0.000000000000000000, -0.000000000000000000 ) ) ;
#95 = DIRECTION ( 'NONE',  ( -1.000000000000000000, 0.000000000000000000, 0.000000000000000000 ) ) ;
#96 = CARTESIAN_POINT ( 'NONE',  ( 0.000000000000000000, 0.000000000000000000, 3.000000000000000000 ) ) ;
#97 = AXIS2_PLACEMENT_3D ( 'NONE', #154, #99, #1 ) ;
#98 = AXIS2_PLACEMENT_3D ( 'NONE', #240, #283, #307 ) ;
#99 = DIRECTION ( 'NONE',  ( 0.000000000000000000, 0.000000000000000000, 1.000000000000000000 ) ) ;
#100 = DIRECTION ( 'NONE',  ( 0.000000000000000000, 0.000000000000000000, 1.000000000000000000 ) ) ;
#101 = LINE ( 'NONE', #176, #4 ) ;
#102 =( NAMED_UNIT ( * ) PLANE_ANGLE_UNIT ( ) SI_UNIT ( $, .RADIAN. ) );
#103 = EDGE_CURVE ( 'NONE', #141, #200, #93, .T. ) ;
#104 = ORIENTED_EDGE ( 'NONE', *, *, #202, .F. ) ;
#105 = CALENDAR_DATE ( 2022, 20, 6 ) ;
#106 = VERTEX_POINT ( 'NONE', #148 ) ;
#107 = APPROVAL_STATUS ( 'not_yet_approved' ) ;
#108 = ORIENTED_EDGE ( 'NONE', *, *, #208, .F. ) ;
#109 = ADVANCED_FACE ( 'NONE', ( #281 ), #92, .T. ) ;
#110 = PERSON_AND_ORGANIZATION ( #155, #271 ) ;
#111 = CIRCLE ( 'NONE', #287, 2.799999999999999822 ) ;
#112 = ORIENTED_EDGE ( 'NONE', *, *, #103, .T. ) ;
#113 = AXIS2_PLACEMENT_3D ( 'NONE', #19, #237, #190 ) ;
#114 = DIRECTION ( 'NONE',  ( 0.000000000000000000, 0.000000000000000000, 1.000000000000000000 ) ) ;
#115 = FACE_OUTER_BOUND ( 'NONE', #82, .T. ) ;
#116 = CARTESIAN_POINT ( 'NONE',  ( 2.799999999999999822, 0.000000000000000000, 3.199999999999994404 ) ) ;
#117 = CARTESIAN_POINT ( 'NONE',  ( 0.000000000000000000, 0.000000000000000000, 128.0000000000000000 ) ) ;
#118 = FACE_OUTER_BOUND ( 'NONE', #249, .T. ) ;
#119 = EDGE_CURVE ( 'NONE', #200, #141, #268, .T. ) ;
#120 = DIRECTION ( 'NONE',  ( 1.000000000000000000, 0.000000000000000000, 0.000000000000000000 ) ) ;
#121 = AXIS2_PLACEMENT_3D ( 'NONE', #157, #247, #33 ) ;
#122 = APPROVAL_STATUS ( 'not_yet_approved' ) ;
#123 = EDGE_CURVE ( 'NONE', #233, #36, #125, .T. ) ;
#124 = APPLICATION_PROTOCOL_DEFINITION ( 'international standard', 'config_control_design', 1994, #220 ) ;
#125 = CIRCLE ( 'NONE', #113, 0.2000000000000000944 ) ;
#126 = COORDINATED_UNIVERSAL_TIME_OFFSET ( 1, 0, .AHEAD. ) ;
#127 = EDGE_CURVE ( 'NONE', #255, #198, #169, .T. ) ;
#128 = PERSON_AND_ORGANIZATION_ROLE ( 'classification_officer' ) ;
#129 = LINE ( 'NONE', #22, #164 ) ;
#130 = CC_DESIGN_DATE_AND_TIME_ASSIGNMENT ( #232, #134, ( #65 ) ) ;
#131 = PERSON_AND_ORGANIZATION_ROLE ( 'creator' ) ;
#132 = CIRCLE ( 'NONE', #212, 2.799999999999999822 ) ;
#133 = ORIENTED_EDGE ( 'NONE', *, *, #150, .T. ) ;
#134 = DATE_TIME_ROLE ( 'classification_date' ) ;
#135 = EDGE_CURVE ( 'NONE', #11, #233, #177, .T. ) ;
#136 = ORIENTED_EDGE ( 'NONE', *, *, #103, .F. ) ;
#137 = CALENDAR_DATE ( 2022, 20, 6 ) ;
#138 = CC_DESIGN_PERSON_AND_ORGANIZATION_ASSIGNMENT ( #297, #128, ( #65 ) ) ;
#139 = ORIENTED_EDGE ( 'NONE', *, *, #127, .F. ) ;
#140 = PRODUCT_DEFINITION_FORMATION_WITH_SPECIFIED_SOURCE ( 'LIBOVOLNÝ', '', #242, .NOT_KNOWN. ) ;
#141 = VERTEX_POINT ( 'NONE', #211 ) ;
#142 = DIRECTION ( 'NONE',  ( -0.000000000000000000, -0.000000000000000000, -1.000000000000000000 ) ) ;
#143 = CARTESIAN_POINT ( 'NONE',  ( 5.000000000000000000, 6.123233995736766282E-16, 0.000000000000000000 ) ) ;
#144 = PLANE ( 'NONE',  #153 ) ;
#145 = CIRCLE ( 'NONE', #70, 5.000000000000000000 ) ;
#146 = CARTESIAN_POINT ( 'NONE',  ( 0.000000000000000000, 0.000000000000000000, 3.199999999999994404 ) ) ;
#147 = CC_DESIGN_SECURITY_CLASSIFICATION ( #65, ( #140 ) ) ;
#148 = CARTESIAN_POINT ( 'NONE',  ( 2.799999999999999822, 0.000000000000000000, 2.999999999999997335 ) ) ;
#149 = CARTESIAN_POINT ( 'NONE',  ( 0.000000000000000000, 0.000000000000000000, 3.000000000000000000 ) ) ;
#150 = EDGE_CURVE ( 'NONE', #11, #106, #206, .T. ) ;
#151 = DIRECTION ( 'NONE',  ( -1.000000000000000000, 0.000000000000000000, 0.000000000000000000 ) ) ;
#152 = CARTESIAN_POINT ( 'NONE',  ( 5.000000000000000000, 6.123233995736766282E-16, 3.000000000000000000 ) ) ;
#153 = AXIS2_PLACEMENT_3D ( 'NONE', #259, #302, #68 ) ;
#154 = CARTESIAN_POINT ( 'NONE',  ( 0.000000000000000000, 0.000000000000000000, 0.000000000000000000 ) ) ;
#155 = PERSON ( 'NEURÈENÝ', 'NEURÈENÝ', 'NEURÈENÝ', ('NEURÈENÝ'), ('NEURÈENÝ'), ('NEURÈENÝ') ) ;
#156 = DATE_TIME_ROLE ( 'creation_date' ) ;
#157 = CARTESIAN_POINT ( 'NONE',  ( 0.000000000000000000, 0.000000000000000000, 3.000000000000000000 ) ) ;
#158 = ORIENTED_EDGE ( 'NONE', *, *, #6, .T. ) ;
#159 = COORDINATED_UNIVERSAL_TIME_OFFSET ( 1, 0, .AHEAD. ) ;
#160 = ORIENTED_EDGE ( 'NONE', *, *, #194, .T. ) ;
#161 = EDGE_LOOP ( 'NONE', ( #158, #38 ) ) ;
#162 = APPROVAL_PERSON_ORGANIZATION ( #110, #90, #277 ) ;
#163 = LINE ( 'NONE', #41, #295 ) ;
#164 = VECTOR ( 'NONE', #71, 1000.000000000000000 ) ;
#165 = DESIGN_CONTEXT ( 'detailed design', #274, 'design' ) ;
#166 = CARTESIAN_POINT ( 'NONE',  ( 2.600000000000000089, 3.184081677783118191E-16, 128.0000000000000000 ) ) ;
#167 = DIRECTION ( 'NONE',  ( 1.000000000000000000, 0.000000000000000000, 0.000000000000000000 ) ) ;
#168 = CARTESIAN_POINT ( 'NONE',  ( 0.000000000000000000, 0.000000000000000000, 3.000000000000000000 ) ) ;
#169 = CIRCLE ( 'NONE', #31, 5.000000000000000000 ) ;
#170 = DIRECTION ( 'NONE',  ( 0.000000000000000000, 0.000000000000000000, 1.000000000000000000 ) ) ;
#171 = APPLICATION_PROTOCOL_DEFINITION ( 'international standard', 'config_control_design', 1994, #274 ) ;
#172 = TOROIDAL_SURFACE ( 'NONE', #85, 2.799999999999999822, 0.2000000000000000111 ) ;
#173 = ADVANCED_FACE ( 'NONE', ( #260 ), #192, .F. ) ;
#174 = FACE_BOUND ( 'NONE', #276, .T. ) ;
#175 = DIRECTION ( 'NONE',  ( 0.000000000000000000, 0.000000000000000000, 1.000000000000000000 ) ) ;
#176 = CARTESIAN_POINT ( 'NONE',  ( -5.000000000000000000, 0.000000000000000000, 3.000000000000000000 ) ) ;
#177 = CIRCLE ( 'NONE', #80, 2.600000000000000089 ) ;
#178 = ORIENTED_EDGE ( 'NONE', *, *, #194, .F. ) ;
#179 = ADVANCED_BREP_SHAPE_REPRESENTATION ( 'd79c', ( #10, #97 ), #79 ) ;
#180 = EDGE_LOOP ( 'NONE', ( #8, #62, #133, #81 ) ) ;
#181 = APPROVAL_STATUS ( 'not_yet_approved' ) ;
#182 = ORIENTED_EDGE ( 'NONE', *, *, #40, .T. ) ;
#183 = CIRCLE ( 'NONE', #121, 5.000000000000000000 ) ;
#184 = EDGE_LOOP ( 'NONE', ( #57, #39, #298, #86 ) ) ;
#185 = APPROVAL_ROLE ( '' ) ;
#186 = CARTESIAN_POINT ( 'NONE',  ( 0.000000000000000000, 0.000000000000000000, 0.000000000000000000 ) ) ;
#187 = CC_DESIGN_PERSON_AND_ORGANIZATION_ASSIGNMENT ( #246, #32, ( #140 ) ) ;
#188 = DIRECTION ( 'NONE',  ( 0.000000000000000000, 0.000000000000000000, 1.000000000000000000 ) ) ;
#189 = DIRECTION ( 'NONE',  ( -0.000000000000000000, -0.000000000000000000, -1.000000000000000000 ) ) ;
#190 = DIRECTION ( 'NONE',  ( -1.000000000000000000, 1.224646799147353207E-16, 0.000000000000000000 ) ) ;
#191 = DIRECTION ( 'NONE',  ( -1.000000000000000000, 0.000000000000000000, 0.000000000000000000 ) ) ;
#192 = TOROIDAL_SURFACE ( 'NONE', #204, 2.799999999999999822, 0.2000000000000000111 ) ;
#193 = CARTESIAN_POINT ( 'NONE',  ( 0.000000000000000000, 0.000000000000000000, 0.000000000000000000 ) ) ;
#194 = EDGE_CURVE ( 'NONE', #255, #60, #163, .T. ) ;
#195 = CYLINDRICAL_SURFACE ( 'NONE', #299, 5.000000000000000000 ) ;
#196 = FACE_OUTER_BOUND ( 'NONE', #256, .T. ) ;
#197 = CC_DESIGN_PERSON_AND_ORGANIZATION_ASSIGNMENT ( #37, #131, ( #49 ) ) ;
#198 = VERTEX_POINT ( 'NONE', #67 ) ;
#199 = CC_DESIGN_APPROVAL ( #90, ( #140 ) ) ;
#200 = VERTEX_POINT ( 'NONE', #166 ) ;
#201 = CALENDAR_DATE ( 2022, 20, 6 ) ;
#202 = EDGE_CURVE ( 'NONE', #200, #11, #258, .T. ) ;
#203 = VERTEX_POINT ( 'NONE', #53 ) ;
#204 = AXIS2_PLACEMENT_3D ( 'NONE', #146, #239, #64 ) ;
#205 = APPROVAL_DATE_TIME ( #272, #90 ) ;
#206 = CIRCLE ( 'NONE', #267, 0.2000000000000000944 ) ;
#207 = ORIENTED_EDGE ( 'NONE', *, *, #119, .F. ) ;
#208 = EDGE_CURVE ( 'NONE', #203, #60, #145, .T. ) ;
#209 = DIRECTION ( 'NONE',  ( 1.000000000000000000, 0.000000000000000000, 0.000000000000000000 ) ) ;
#210 = DIRECTION ( 'NONE',  ( 0.000000000000000000, 0.000000000000000000, 1.000000000000000000 ) ) ;
#211 = CARTESIAN_POINT ( 'NONE',  ( -2.600000000000000089, 0.000000000000000000, 128.0000000000000000 ) ) ;
#212 = AXIS2_PLACEMENT_3D ( 'NONE', #46, #189, #44 ) ;
#213 = APPROVAL_PERSON_ORGANIZATION ( #227, #251, #7 ) ;
#214 = DIRECTION ( 'NONE',  ( -0.000000000000000000, -0.000000000000000000, -1.000000000000000000 ) ) ;
#215 = CARTESIAN_POINT ( 'NONE',  ( 0.000000000000000000, 0.000000000000000000, 3.199999999999994404 ) ) ;
#216 = CARTESIAN_POINT ( 'NONE',  ( 0.000000000000000000, 0.000000000000000000, 3.000000000000000000 ) ) ;
#217 = EDGE_CURVE ( 'NONE', #36, #106, #111, .T. ) ;
#218 = APPROVAL ( #122, 'NEURÈENÝ' ) ;
#219 = FACE_OUTER_BOUND ( 'NONE', #180, .T. ) ;
#220 = APPLICATION_CONTEXT ( 'configuration controlled 3d designs of mechanical parts and assemblies' ) ;
#221 = DIRECTION ( 'NONE',  ( 0.000000000000000000, 0.000000000000000000, 1.000000000000000000 ) ) ;
#222 = CC_DESIGN_APPROVAL ( #218, ( #49 ) ) ;
#223 = AXIS2_PLACEMENT_3D ( 'NONE', #186, #20, #47 ) ;
#224 = AXIS2_PLACEMENT_3D ( 'NONE', #96, #142, #191 ) ;
#225 = CARTESIAN_POINT ( 'NONE',  ( 0.000000000000000000, 0.000000000000000000, 3.199999999999994404 ) ) ;
#226 = DATE_AND_TIME ( #105, #245 ) ;
#227 = PERSON_AND_ORGANIZATION ( #155, #271 ) ;
#228 = ORIENTED_EDGE ( 'NONE', *, *, #208, .T. ) ;
#229 = PERSON_AND_ORGANIZATION ( #155, #271 ) ;
#230 = CARTESIAN_POINT ( 'NONE',  ( 2.600000000000000089, 3.184081677783118191E-16, 3.199999999999994404 ) ) ;
#231 = SHAPE_DEFINITION_REPRESENTATION ( #63, #179 ) ;
#232 = DATE_AND_TIME ( #137, #282 ) ;
#233 = VERTEX_POINT ( 'NONE', #269 ) ;
#234 = AXIS2_PLACEMENT_3D ( 'NONE', #5, #243, #151 ) ;
#235 = ORIENTED_EDGE ( 'NONE', *, *, #6, .F. ) ;
#236 = DIRECTION ( 'NONE',  ( -0.000000000000000000, -0.000000000000000000, -1.000000000000000000 ) ) ;
#237 = DIRECTION ( 'NONE',  ( 1.224646799147353207E-16, 1.000000000000000000, -0.000000000000000000 ) ) ;
#238 = PLANE ( 'NONE',  #15 ) ;
#239 = DIRECTION ( 'NONE',  ( 0.000000000000000000, 0.000000000000000000, 1.000000000000000000 ) ) ;
#240 = CARTESIAN_POINT ( 'NONE',  ( 0.000000000000000000, 0.000000000000000000, 128.0000000000000000 ) ) ;
#241 = ADVANCED_FACE ( 'NONE', ( #219 ), #172, .F. ) ;
#242 = PRODUCT ( 'd79c', 'd79c', '', ( #73 ) ) ;
#243 = DIRECTION ( 'NONE',  ( -0.000000000000000000, -0.000000000000000000, -1.000000000000000000 ) ) ;
#244 = CARTESIAN_POINT ( 'NONE',  ( 0.000000000000000000, 0.000000000000000000, 3.000000000000000000 ) ) ;
#245 = LOCAL_TIME ( 12, 2, 21.00000000000000000, #58 ) ;
#246 = PERSON_AND_ORGANIZATION ( #155, #271 ) ;
#247 = DIRECTION ( 'NONE',  ( 0.000000000000000000, 0.000000000000000000, 1.000000000000000000 ) ) ;
#248 = COORDINATED_UNIVERSAL_TIME_OFFSET ( 1, 0, .AHEAD. ) ;
#249 = EDGE_LOOP ( 'NONE', ( #178, #235, #296, #228 ) ) ;
#250 = LOCAL_TIME ( 12, 2, 21.00000000000000000, #248 ) ;
#251 = APPROVAL ( #107, 'NEURÈENÝ' ) ;
#252 = DATE_AND_TIME ( #55, #292 ) ;
#253 = ORIENTED_EDGE ( 'NONE', *, *, #88, .F. ) ;
#254 = COORDINATED_UNIVERSAL_TIME_OFFSET ( 1, 0, .AHEAD. ) ;
#255 = VERTEX_POINT ( 'NONE', #152 ) ;
#256 = EDGE_LOOP ( 'NONE', ( #207, #294, #89, #301 ) ) ;
#257 = CARTESIAN_POINT ( 'NONE',  ( 0.000000000000000000, 0.000000000000000000, 3.199999999999994404 ) ) ;
#258 = LINE ( 'NONE', #291, #262 ) ;
#259 = CARTESIAN_POINT ( 'NONE',  ( 0.000000000000000000, 0.000000000000000000, 0.000000000000000000 ) ) ;
#260 = FACE_OUTER_BOUND ( 'NONE', #184, .T. ) ;
#261 = AXIS2_PLACEMENT_3D ( 'NONE', #69, #214, #95 ) ;
#262 = VECTOR ( 'NONE', #50, 1000.000000000000000 ) ;
#263 = ADVANCED_FACE ( 'NONE', ( #27 ), #195, .T. ) ;
#264 = FACE_OUTER_BOUND ( 'NONE', #273, .T. ) ;
#265 = DIRECTION ( 'NONE',  ( 1.000000000000000000, 0.000000000000000000, 0.000000000000000000 ) ) ;
#266 = PERSON_AND_ORGANIZATION ( #155, #271 ) ;
#267 = AXIS2_PLACEMENT_3D ( 'NONE', #116, #91, #42 ) ;
#268 = CIRCLE ( 'NONE', #98, 2.600000000000000089 ) ;
#269 = CARTESIAN_POINT ( 'NONE',  ( -2.600000000000000089, 0.000000000000000000, 3.199999999999994404 ) ) ;
#270 =( NAMED_UNIT ( * ) SI_UNIT ( $, .STERADIAN. ) SOLID_ANGLE_UNIT ( ) );
#271 = ORGANIZATION ( 'NEURÈENÝ', 'NEURÈENÝ', '' ) ;
#272 = DATE_AND_TIME ( #201, #23 ) ;
#273 = EDGE_LOOP ( 'NONE', ( #108, #253 ) ) ;
#274 = APPLICATION_CONTEXT ( 'configuration controlled 3d designs of mechanical parts and assemblies' ) ;
#275 = PERSON_AND_ORGANIZATION_ROLE ( 'creator' ) ;
#276 = EDGE_LOOP ( 'NONE', ( #182, #280 ) ) ;
#277 = APPROVAL_ROLE ( '' ) ;
#278 = ADVANCED_FACE ( 'NONE', ( #196 ), #48, .T. ) ;
#279 = ORIENTED_EDGE ( 'NONE', *, *, #88, .T. ) ;
#280 = ORIENTED_EDGE ( 'NONE', *, *, #217, .T. ) ;
#281 = FACE_OUTER_BOUND ( 'NONE', #84, .T. ) ;
#282 = LOCAL_TIME ( 12, 2, 21.00000000000000000, #254 ) ;
#283 = DIRECTION ( 'NONE',  ( 0.000000000000000000, 0.000000000000000000, 1.000000000000000000 ) ) ;
#284 = EDGE_CURVE ( 'NONE', #198, #203, #101, .T. ) ;
#285 = DIRECTION ( 'NONE',  ( 1.000000000000000000, 0.000000000000000000, 0.000000000000000000 ) ) ;
#286 = CARTESIAN_POINT ( 'NONE',  ( 0.000000000000000000, 0.000000000000000000, 128.0000000000000000 ) ) ;
#287 = AXIS2_PLACEMENT_3D ( 'NONE', #149, #3, #120 ) ;
#288 = CARTESIAN_POINT ( 'NONE',  ( -2.799999999999999822, 3.429011037612589276E-16, 2.999999999999997335 ) ) ;
#289 = PERSON_AND_ORGANIZATION_ROLE ( 'design_owner' ) ;
#290 = PLANE ( 'NONE',  #28 ) ;
#291 = CARTESIAN_POINT ( 'NONE',  ( 2.600000000000000089, 3.184081677783118191E-16, 128.0000000000000000 ) ) ;
#292 = LOCAL_TIME ( 12, 2, 21.00000000000000000, #159 ) ;
#293 = ADVANCED_FACE ( 'NONE', ( #174, #24 ), #290, .T. ) ;
#294 = ORIENTED_EDGE ( 'NONE', *, *, #202, .T. ) ;
#295 = VECTOR ( 'NONE', #236, 1000.000000000000000 ) ;
#296 = ORIENTED_EDGE ( 'NONE', *, *, #284, .T. ) ;
#297 = PERSON_AND_ORGANIZATION ( #155, #271 ) ;
#298 = ORIENTED_EDGE ( 'NONE', *, *, #40, .F. ) ;
#299 = AXIS2_PLACEMENT_3D ( 'NONE', #244, #52, #78 ) ;
#300 = CLOSED_SHELL ( 'NONE', ( #173, #278, #263, #30, #293, #61, #109, #72, #241 ) ) ;
#301 = ORIENTED_EDGE ( 'NONE', *, *, #25, .F. ) ;
#302 = DIRECTION ( 'NONE',  ( 0.000000000000000000, 0.000000000000000000, 1.000000000000000000 ) ) ;
#303 = DIRECTION ( 'NONE',  ( 1.000000000000000000, 0.000000000000000000, 0.000000000000000000 ) ) ;
#304 = CC_DESIGN_DATE_AND_TIME_ASSIGNMENT ( #226, #156, ( #49 ) ) ;
#305 = DIRECTION ( 'NONE',  ( 0.000000000000000000, 0.000000000000000000, 1.000000000000000000 ) ) ;
#306 = CYLINDRICAL_SURFACE ( 'NONE', #224, 5.000000000000000000 ) ;
#307 = DIRECTION ( 'NONE',  ( 1.000000000000000000, 0.000000000000000000, 0.000000000000000000 ) ) ;
ENDSEC;
END-ISO-10303-21;
