ISO-10303-21;
HEADER;
FILE_DESCRIPTION (( 'STEP AP203' ),
    '1' );
FILE_NAME ('654b.STEP',
    '2022-06-20T09:22:36',
    ( '' ),
    ( '' ),
    'SwSTEP 2.0',
    'SolidWorks 2019',
    '' );
FILE_SCHEMA (( 'CONFIG_CONTROL_DESIGN' ));
ENDSEC;

DATA;
#1 = ORIENTED_EDGE ( 'NONE', *, *, #184, .T. ) ;
#2 = DIRECTION ( 'NONE',  ( -1.000000000000000000, 1.224646799147353207E-16, 0.000000000000000000 ) ) ;
#3 = CARTESIAN_POINT ( 'NONE',  ( 0.000000000000000000, 0.000000000000000000, 7.199999999999998401 ) ) ;
#4 = ORIENTED_EDGE ( 'NONE', *, *, #236, .F. ) ;
#5 = PRODUCT_RELATED_PRODUCT_CATEGORY ( 'detail', '', ( #144 ) ) ;
#6 = DIRECTION ( 'NONE',  ( -0.000000000000000000, -0.000000000000000000, -1.000000000000000000 ) ) ;
#7 = FACE_OUTER_BOUND ( 'NONE', #90, .T. ) ;
#8 = APPROVAL_STATUS ( 'not_yet_approved' ) ;
#9 = AXIS2_PLACEMENT_3D ( 'NONE', #55, #290, #199 ) ;
#10 = DIRECTION ( 'NONE',  ( 1.000000000000000000, 0.000000000000000000, -0.000000000000000000 ) ) ;
#11 = AXIS2_PLACEMENT_3D ( 'NONE', #65, #41, #231 ) ;
#12 = AXIS2_PLACEMENT_3D ( 'NONE', #265, #287, #149 ) ;
#13 = CARTESIAN_POINT ( 'NONE',  ( 0.000000000000000000, 0.000000000000000000, 132.0000000000000000 ) ) ;
#14 = CC_DESIGN_APPROVAL ( #51, ( #280 ) ) ;
#15 = CALENDAR_DATE ( 2022, 20, 6 ) ;
#16 = EDGE_CURVE ( 'NONE', #284, #211, #175, .T. ) ;
#17 = LINE ( 'NONE', #212, #19 ) ;
#18 = ORIENTED_EDGE ( 'NONE', *, *, #74, .F. ) ;
#19 = VECTOR ( 'NONE', #302, 1000.000000000000000 ) ;
#20 = PERSON_AND_ORGANIZATION_ROLE ( 'classification_officer' ) ;
#21 = ORIENTED_EDGE ( 'NONE', *, *, #16, .F. ) ;
#22 = CARTESIAN_POINT ( 'NONE',  ( 0.000000000000000000, 0.000000000000000000, 7.000000000000000000 ) ) ;
#23 = LOCAL_TIME ( 11, 22, 36.00000000000000000, #36 ) ;
#24 = CARTESIAN_POINT ( 'NONE',  ( 0.000000000000000000, 0.000000000000000000, 132.0000000000000000 ) ) ;
#25 = DIRECTION ( 'NONE',  ( 1.000000000000000000, 0.000000000000000000, 0.000000000000000000 ) ) ;
#26 = DIRECTION ( 'NONE',  ( 1.000000000000000000, 0.000000000000000000, 0.000000000000000000 ) ) ;
#27 = ADVANCED_FACE ( 'NONE', ( #190 ), #132, .T. ) ;
#28 = AXIS2_PLACEMENT_3D ( 'NONE', #154, #129, #249 ) ;
#29 = LINE ( 'NONE', #97, #134 ) ;
#30 = MANIFOLD_SOLID_BREP ( 'Zaoblit1', #306 ) ;
#31 = PLANE ( 'NONE',  #202 ) ;
#32 = EDGE_CURVE ( 'NONE', #285, #45, #192, .T. ) ;
#33 = CARTESIAN_POINT ( 'NONE',  ( 0.000000000000000000, 0.000000000000000000, 7.000000000000000000 ) ) ;
#34 = DATE_AND_TIME ( #103, #91 ) ;
#35 = AXIS2_PLACEMENT_3D ( 'NONE', #294, #88, #10 ) ;
#36 = COORDINATED_UNIVERSAL_TIME_OFFSET ( 1, 0, .AHEAD. ) ;
#37 = CIRCLE ( 'NONE', #50, 12.00000000000000178 ) ;
#38 = AXIS2_PLACEMENT_3D ( 'NONE', #297, #143, #288 ) ;
#39 = EDGE_CURVE ( 'NONE', #167, #117, #17, .T. ) ;
#40 = APPROVAL_ROLE ( '' ) ;
#41 = DIRECTION ( 'NONE',  ( 0.000000000000000000, 0.000000000000000000, 1.000000000000000000 ) ) ;
#42 = ORIENTED_EDGE ( 'NONE', *, *, #140, .T. ) ;
#43 = AXIS2_PLACEMENT_3D ( 'NONE', #170, #73, #289 ) ;
#44 = COORDINATED_UNIVERSAL_TIME_OFFSET ( 1, 0, .AHEAD. ) ;
#45 = VERTEX_POINT ( 'NONE', #110 ) ;
#46 = VERTEX_POINT ( 'NONE', #165 ) ;
#47 = ADVANCED_FACE ( 'NONE', ( #234 ), #72, .T. ) ;
#48 = FACE_OUTER_BOUND ( 'NONE', #67, .T. ) ;
#49 = DIRECTION ( 'NONE',  ( 1.000000000000000000, 0.000000000000000000, 0.000000000000000000 ) ) ;
#50 = AXIS2_PLACEMENT_3D ( 'NONE', #304, #282, #166 ) ;
#51 = APPROVAL ( #204, 'NEURÈENÝ' ) ;
#52 = FACE_OUTER_BOUND ( 'NONE', #305, .T. ) ;
#53 = DIRECTION ( 'NONE',  ( 0.000000000000000000, 0.000000000000000000, 1.000000000000000000 ) ) ;
#54 = ORIENTED_EDGE ( 'NONE', *, *, #261, .F. ) ;
#55 = CARTESIAN_POINT ( 'NONE',  ( 9.199999999999999289, 0.000000000000000000, 7.199999999999998401 ) ) ;
#56 = DIRECTION ( 'NONE',  ( 0.000000000000000000, 0.000000000000000000, 1.000000000000000000 ) ) ;
#57 = AXIS2_PLACEMENT_3D ( 'NONE', #173, #217, #101 ) ;
#58 = DIRECTION ( 'NONE',  ( 1.000000000000000000, 0.000000000000000000, -0.000000000000000000 ) ) ;
#59 = LOCAL_TIME ( 11, 22, 36.00000000000000000, #230 ) ;
#60 = CC_DESIGN_PERSON_AND_ORGANIZATION_ASSIGNMENT ( #229, #177, ( #280 ) ) ;
#61 = APPLICATION_PROTOCOL_DEFINITION ( 'international standard', 'config_control_design', 1994, #182 ) ;
#62 = PERSON_AND_ORGANIZATION_ROLE ( 'creator' ) ;
#63 = PLANE ( 'NONE',  #35 ) ;
#64 = APPROVAL_PERSON_ORGANIZATION ( #109, #242, #40 ) ;
#65 = CARTESIAN_POINT ( 'NONE',  ( 0.000000000000000000, 0.000000000000000000, 7.199999999999998401 ) ) ;
#66 = ORIENTED_EDGE ( 'NONE', *, *, #122, .F. ) ;
#67 = EDGE_LOOP ( 'NONE', ( #54, #21, #114, #213 ) ) ;
#68 = AXIS2_PLACEMENT_3D ( 'NONE', #13, #124, #58 ) ;
#69 = CC_DESIGN_PERSON_AND_ORGANIZATION_ASSIGNMENT ( #210, #20, ( #189 ) ) ;
#70 = DIRECTION ( 'NONE',  ( -1.000000000000000000, 0.000000000000000000, 0.000000000000000000 ) ) ;
#71 = DATE_AND_TIME ( #15, #130 ) ;
#72 = CYLINDRICAL_SURFACE ( 'NONE', #216, 12.00000000000000178 ) ;
#73 = DIRECTION ( 'NONE',  ( -0.000000000000000000, -0.000000000000000000, -1.000000000000000000 ) ) ;
#74 = EDGE_CURVE ( 'NONE', #167, #285, #37, .T. ) ;
#75 = CIRCLE ( 'NONE', #57, 12.00000000000000178 ) ;
#76 = DIRECTION ( 'NONE',  ( 1.000000000000000000, 0.000000000000000000, 0.000000000000000000 ) ) ;
#77 = TOROIDAL_SURFACE ( 'NONE', #38, 9.199999999999999289, 0.2000000000000000111 ) ;
#78 = CARTESIAN_POINT ( 'NONE',  ( 0.000000000000000000, 0.000000000000000000, 7.000000000000000000 ) ) ;
#79 = DIRECTION ( 'NONE',  ( 1.000000000000000000, 0.000000000000000000, 0.000000000000000000 ) ) ;
#80 = CARTESIAN_POINT ( 'NONE',  ( -9.000000000000000000, 0.000000000000000000, 132.0000000000000000 ) ) ;
#81 = PERSON_AND_ORGANIZATION ( #247, #107 ) ;
#82 = DATE_AND_TIME ( #128, #23 ) ;
#83 = APPLICATION_CONTEXT ( 'configuration controlled 3d designs of mechanical parts and assemblies' ) ;
#84 = ADVANCED_FACE ( 'NONE', ( #48 ), #77, .F. ) ;
#85 = AXIS2_PLACEMENT_3D ( 'NONE', #3, #56, #49 ) ;
#86 = DATE_AND_TIME ( #108, #59 ) ;
#87 = COORDINATED_UNIVERSAL_TIME_OFFSET ( 1, 0, .AHEAD. ) ;
#88 = DIRECTION ( 'NONE',  ( 0.000000000000000000, 0.000000000000000000, 1.000000000000000000 ) ) ;
#89 = EDGE_CURVE ( 'NONE', #92, #160, #179, .T. ) ;
#90 = EDGE_LOOP ( 'NONE', ( #4, #232, #112, #233 ) ) ;
#91 = LOCAL_TIME ( 11, 22, 36.00000000000000000, #87 ) ;
#92 = VERTEX_POINT ( 'NONE', #221 ) ;
#93 = EDGE_LOOP ( 'NONE', ( #281, #18, #266, #42 ) ) ;
#94 = ORIENTED_EDGE ( 'NONE', *, *, #32, .T. ) ;
#95 = ORIENTED_EDGE ( 'NONE', *, *, #126, .F. ) ;
#96 = ORIENTED_EDGE ( 'NONE', *, *, #140, .F. ) ;
#97 = CARTESIAN_POINT ( 'NONE',  ( 9.000000000000000000, 1.102182119232617714E-15, 132.0000000000000000 ) ) ;
#98 = ADVANCED_FACE ( 'NONE', ( #196 ), #268, .T. ) ;
#99 = DIRECTION ( 'NONE',  ( 1.000000000000000000, 0.000000000000000000, 0.000000000000000000 ) ) ;
#100 = CARTESIAN_POINT ( 'NONE',  ( -9.199999999999999289, 1.126675055215564822E-15, 7.199999999999998401 ) ) ;
#101 = DIRECTION ( 'NONE',  ( 1.000000000000000000, 0.000000000000000000, 0.000000000000000000 ) ) ;
#102 = DIRECTION ( 'NONE',  ( 0.000000000000000000, 0.000000000000000000, 1.000000000000000000 ) ) ;
#103 = CALENDAR_DATE ( 2022, 20, 6 ) ;
#104 = PERSON_AND_ORGANIZATION ( #247, #107 ) ;
#105 = EDGE_CURVE ( 'NONE', #211, #284, #259, .T. ) ;
#106 = APPLICATION_PROTOCOL_DEFINITION ( 'international standard', 'config_control_design', 1994, #83 ) ;
#107 = ORGANIZATION ( 'NEURÈENÝ', 'NEURÈENÝ', '' ) ;
#108 = CALENDAR_DATE ( 2022, 20, 6 ) ;
#109 = PERSON_AND_ORGANIZATION ( #247, #107 ) ;
#110 = CARTESIAN_POINT ( 'NONE',  ( 12.00000000000000178, 1.469576158976824144E-15, 0.000000000000000000 ) ) ;
#111 = CIRCLE ( 'NONE', #273, 12.00000000000000178 ) ;
#112 = ORIENTED_EDGE ( 'NONE', *, *, #16, .T. ) ;
#113 = CC_DESIGN_PERSON_AND_ORGANIZATION_ASSIGNMENT ( #81, #62, ( #271 ) ) ;
#114 = ORIENTED_EDGE ( 'NONE', *, *, #126, .T. ) ;
#115 = DIRECTION ( 'NONE',  ( -0.000000000000000000, -0.000000000000000000, -1.000000000000000000 ) ) ;
#116 = ORIENTED_EDGE ( 'NONE', *, *, #89, .T. ) ;
#117 = VERTEX_POINT ( 'NONE', #172 ) ;
#118 = EDGE_LOOP ( 'NONE', ( #215, #1 ) ) ;
#119 = DIRECTION ( 'NONE',  ( 1.224646799147353207E-16, 1.000000000000000000, -0.000000000000000000 ) ) ;
#120 = CARTESIAN_POINT ( 'NONE',  ( 9.000000000000000000, 1.102182119232617714E-15, 7.199999999999998401 ) ) ;
#121 = DIRECTION ( 'NONE',  ( 0.000000000000000000, 0.000000000000000000, 1.000000000000000000 ) ) ;
#122 = EDGE_CURVE ( 'NONE', #45, #117, #187, .T. ) ;
#123 = CARTESIAN_POINT ( 'NONE',  ( 0.000000000000000000, 0.000000000000000000, 0.000000000000000000 ) ) ;
#124 = DIRECTION ( 'NONE',  ( 0.000000000000000000, 0.000000000000000000, 1.000000000000000000 ) ) ;
#125 = AXIS2_PLACEMENT_3D ( 'NONE', #241, #307, #146 ) ;
#126 = EDGE_CURVE ( 'NONE', #284, #46, #169, .T. ) ;
#127 =( NAMED_UNIT ( * ) SI_UNIT ( $, .STERADIAN. ) SOLID_ANGLE_UNIT ( ) );
#128 = CALENDAR_DATE ( 2022, 20, 6 ) ;
#129 = DIRECTION ( 'NONE',  ( 0.000000000000000000, 0.000000000000000000, 1.000000000000000000 ) ) ;
#130 = LOCAL_TIME ( 11, 22, 36.00000000000000000, #44 ) ;
#131 = FACE_OUTER_BOUND ( 'NONE', #137, .T. ) ;
#132 = CYLINDRICAL_SURFACE ( 'NONE', #153, 9.000000000000000000 ) ;
#133 = EDGE_CURVE ( 'NONE', #46, #258, #255, .T. ) ;
#134 = VECTOR ( 'NONE', #6, 1000.000000000000000 ) ;
#135 = DIRECTION ( 'NONE',  ( -0.000000000000000000, -0.000000000000000000, -1.000000000000000000 ) ) ;
#136 = ADVANCED_BREP_SHAPE_REPRESENTATION ( '654b', ( #30, #28 ), #240 ) ;
#137 = EDGE_LOOP ( 'NONE', ( #218, #158 ) ) ;
#138 = DATE_TIME_ROLE ( 'classification_date' ) ;
#139 = CARTESIAN_POINT ( 'NONE',  ( 12.00000000000000178, 1.469576158976824144E-15, 7.000000000000000000 ) ) ;
#140 = EDGE_CURVE ( 'NONE', #117, #45, #75, .T. ) ;
#141 = ORIENTED_EDGE ( 'NONE', *, *, #39, .F. ) ;
#142 = APPROVAL_PERSON_ORGANIZATION ( #104, #283, #205 ) ;
#143 = DIRECTION ( 'NONE',  ( 0.000000000000000000, 0.000000000000000000, 1.000000000000000000 ) ) ;
#144 = PRODUCT ( '654b', '654b', '', ( #292 ) ) ;
#145 = LINE ( 'NONE', #80, #178 ) ;
#146 = DIRECTION ( 'NONE',  ( -1.000000000000000000, 0.000000000000000000, 0.000000000000000000 ) ) ;
#147 = APPROVAL_PERSON_ORGANIZATION ( #208, #51, #248 ) ;
#148 = CYLINDRICAL_SURFACE ( 'NONE', #125, 9.000000000000000000 ) ;
#149 = DIRECTION ( 'NONE',  ( -1.000000000000000000, 0.000000000000000000, 0.000000000000000000 ) ) ;
#150 = APPROVAL_DATE_TIME ( #86, #283 ) ;
#151 = CC_DESIGN_APPROVAL ( #283, ( #271 ) ) ;
#152 = PERSON_AND_ORGANIZATION ( #247, #107 ) ;
#153 = AXIS2_PLACEMENT_3D ( 'NONE', #183, #188, #70 ) ;
#154 = CARTESIAN_POINT ( 'NONE',  ( 0.000000000000000000, 0.000000000000000000, 0.000000000000000000 ) ) ;
#155 =( NAMED_UNIT ( * ) PLANE_ANGLE_UNIT ( ) SI_UNIT ( $, .RADIAN. ) );
#156 = EDGE_CURVE ( 'NONE', #285, #167, #111, .T. ) ;
#157 = AXIS2_PLACEMENT_3D ( 'NONE', #219, #223, #25 ) ;
#158 = ORIENTED_EDGE ( 'NONE', *, *, #156, .T. ) ;
#159 = ADVANCED_FACE ( 'NONE', ( #7 ), #148, .T. ) ;
#160 = VERTEX_POINT ( 'NONE', #269 ) ;
#161 = COORDINATED_UNIVERSAL_TIME_OFFSET ( 1, 0, .AHEAD. ) ;
#162 = CIRCLE ( 'NONE', #157, 9.000000000000000000 ) ;
#163 = ORIENTED_EDGE ( 'NONE', *, *, #122, .T. ) ;
#164 = SHAPE_DEFINITION_REPRESENTATION ( #267, #136 ) ;
#165 = CARTESIAN_POINT ( 'NONE',  ( 9.199999999999999289, 0.000000000000000000, 6.999999999999999112 ) ) ;
#166 = DIRECTION ( 'NONE',  ( 1.000000000000000000, 0.000000000000000000, 0.000000000000000000 ) ) ;
#167 = VERTEX_POINT ( 'NONE', #168 ) ;
#168 = CARTESIAN_POINT ( 'NONE',  ( -12.00000000000000178, 0.000000000000000000, 7.000000000000000000 ) ) ;
#169 = CIRCLE ( 'NONE', #9, 0.1999999999999996503 ) ;
#170 = CARTESIAN_POINT ( 'NONE',  ( 0.000000000000000000, 0.000000000000000000, 7.000000000000000000 ) ) ;
#171 = EDGE_CURVE ( 'NONE', #160, #284, #29, .T. ) ;
#172 = CARTESIAN_POINT ( 'NONE',  ( -12.00000000000000178, 0.000000000000000000, 0.000000000000000000 ) ) ;
#173 = CARTESIAN_POINT ( 'NONE',  ( 0.000000000000000000, 0.000000000000000000, 0.000000000000000000 ) ) ;
#174 = DIRECTION ( 'NONE',  ( 0.000000000000000000, 0.000000000000000000, 1.000000000000000000 ) ) ;
#175 = CIRCLE ( 'NONE', #11, 9.000000000000000000 ) ;
#176 = DATE_TIME_ROLE ( 'creation_date' ) ;
#177 = PERSON_AND_ORGANIZATION_ROLE ( 'creator' ) ;
#178 = VECTOR ( 'NONE', #239, 1000.000000000000000 ) ;
#179 = CIRCLE ( 'NONE', #224, 9.000000000000000000 ) ;
#180 = APPROVAL_DATE_TIME ( #82, #51 ) ;
#181 = AXIS2_PLACEMENT_3D ( 'NONE', #100, #119, #2 ) ;
#182 = APPLICATION_CONTEXT ( 'configuration controlled 3d designs of mechanical parts and assemblies' ) ;
#183 = CARTESIAN_POINT ( 'NONE',  ( 0.000000000000000000, 0.000000000000000000, 132.0000000000000000 ) ) ;
#184 = EDGE_CURVE ( 'NONE', #258, #46, #286, .T. ) ;
#185 = VECTOR ( 'NONE', #135, 1000.000000000000000 ) ;
#186 = ORIENTED_EDGE ( 'NONE', *, *, #156, .F. ) ;
#187 = CIRCLE ( 'NONE', #291, 12.00000000000000178 ) ;
#188 = DIRECTION ( 'NONE',  ( -0.000000000000000000, -0.000000000000000000, -1.000000000000000000 ) ) ;
#189 = SECURITY_CLASSIFICATION ( '', '', #207 ) ;
#190 = FACE_OUTER_BOUND ( 'NONE', #260, .T. ) ;
#191 = APPROVAL_STATUS ( 'not_yet_approved' ) ;
#192 = LINE ( 'NONE', #139, #185 ) ;
#193 = ORIENTED_EDGE ( 'NONE', *, *, #236, .T. ) ;
#194 = CARTESIAN_POINT ( 'NONE',  ( 0.000000000000000000, 0.000000000000000000, 0.000000000000000000 ) ) ;
#195 = ORIENTED_EDGE ( 'NONE', *, *, #171, .F. ) ;
#196 = FACE_OUTER_BOUND ( 'NONE', #93, .T. ) ;
#197 = EDGE_CURVE ( 'NONE', #92, #211, #145, .T. ) ;
#198 = DIRECTION ( 'NONE',  ( 1.000000000000000000, 0.000000000000000000, 0.000000000000000000 ) ) ;
#199 = DIRECTION ( 'NONE',  ( 0.000000000000000000, 0.000000000000000000, -1.000000000000000000 ) ) ;
#200 = ADVANCED_FACE ( 'NONE', ( #52 ), #31, .F. ) ;
#201 = DIRECTION ( 'NONE',  ( 1.000000000000000000, 0.000000000000000000, -0.000000000000000000 ) ) ;
#202 = AXIS2_PLACEMENT_3D ( 'NONE', #194, #121, #201 ) ;
#203 = UNCERTAINTY_MEASURE_WITH_UNIT (LENGTH_MEASURE( 1.000000000000000082E-05 ), #293, 'distance_accuracy_value', 'NONE');
#204 = APPROVAL_STATUS ( 'not_yet_approved' ) ;
#205 = APPROVAL_ROLE ( '' ) ;
#206 = DESIGN_CONTEXT ( 'detailed design', #83, 'design' ) ;
#207 = SECURITY_CLASSIFICATION_LEVEL ( 'unclassified' ) ;
#208 = PERSON_AND_ORGANIZATION ( #247, #107 ) ;
#209 = CC_DESIGN_SECURITY_CLASSIFICATION ( #189, ( #280 ) ) ;
#210 = PERSON_AND_ORGANIZATION ( #247, #107 ) ;
#211 = VERTEX_POINT ( 'NONE', #263 ) ;
#212 = CARTESIAN_POINT ( 'NONE',  ( -12.00000000000000178, 0.000000000000000000, 7.000000000000000000 ) ) ;
#213 = ORIENTED_EDGE ( 'NONE', *, *, #184, .F. ) ;
#214 = DIRECTION ( 'NONE',  ( -1.000000000000000000, 0.000000000000000000, 0.000000000000000000 ) ) ;
#215 = ORIENTED_EDGE ( 'NONE', *, *, #133, .T. ) ;
#216 = AXIS2_PLACEMENT_3D ( 'NONE', #22, #115, #214 ) ;
#217 = DIRECTION ( 'NONE',  ( 0.000000000000000000, 0.000000000000000000, 1.000000000000000000 ) ) ;
#218 = ORIENTED_EDGE ( 'NONE', *, *, #74, .T. ) ;
#219 = CARTESIAN_POINT ( 'NONE',  ( 0.000000000000000000, 0.000000000000000000, 132.0000000000000000 ) ) ;
#220 = CC_DESIGN_DATE_AND_TIME_ASSIGNMENT ( #34, #176, ( #271 ) ) ;
#221 = CARTESIAN_POINT ( 'NONE',  ( -9.000000000000000000, 0.000000000000000000, 132.0000000000000000 ) ) ;
#222 = CARTESIAN_POINT ( 'NONE',  ( -9.199999999999999289, 1.126675055215564822E-15, 6.999999999999999112 ) ) ;
#223 = DIRECTION ( 'NONE',  ( 0.000000000000000000, 0.000000000000000000, 1.000000000000000000 ) ) ;
#224 = AXIS2_PLACEMENT_3D ( 'NONE', #24, #174, #99 ) ;
#225 = LOCAL_TIME ( 11, 22, 36.00000000000000000, #161 ) ;
#226 = PERSON_AND_ORGANIZATION ( #247, #107 ) ;
#227 = CARTESIAN_POINT ( 'NONE',  ( 12.00000000000000178, 1.469576158976824144E-15, 7.000000000000000000 ) ) ;
#228 = ADVANCED_FACE ( 'NONE', ( #238 ), #244, .F. ) ;
#229 = PERSON_AND_ORGANIZATION ( #247, #107 ) ;
#230 = COORDINATED_UNIVERSAL_TIME_OFFSET ( 1, 0, .AHEAD. ) ;
#231 = DIRECTION ( 'NONE',  ( 1.000000000000000000, 0.000000000000000000, 0.000000000000000000 ) ) ;
#232 = ORIENTED_EDGE ( 'NONE', *, *, #171, .T. ) ;
#233 = ORIENTED_EDGE ( 'NONE', *, *, #197, .F. ) ;
#234 = FACE_OUTER_BOUND ( 'NONE', #257, .T. ) ;
#235 = ORIENTED_EDGE ( 'NONE', *, *, #105, .F. ) ;
#236 = EDGE_CURVE ( 'NONE', #160, #92, #162, .T. ) ;
#237 = DIRECTION ( 'NONE',  ( 0.000000000000000000, 0.000000000000000000, 1.000000000000000000 ) ) ;
#238 = FACE_OUTER_BOUND ( 'NONE', #252, .T. ) ;
#239 = DIRECTION ( 'NONE',  ( -0.000000000000000000, -0.000000000000000000, -1.000000000000000000 ) ) ;
#240 =( GEOMETRIC_REPRESENTATION_CONTEXT ( 3 ) GLOBAL_UNCERTAINTY_ASSIGNED_CONTEXT ( ( #203 ) ) GLOBAL_UNIT_ASSIGNED_CONTEXT ( ( #293, #155, #127 ) ) REPRESENTATION_CONTEXT ( 'NONE', 'WORKASPACE' ) );
#241 = CARTESIAN_POINT ( 'NONE',  ( 0.000000000000000000, 0.000000000000000000, 132.0000000000000000 ) ) ;
#242 = APPROVAL ( #191, 'NEURÈENÝ' ) ;
#243 = CARTESIAN_POINT ( 'NONE',  ( 0.000000000000000000, 0.000000000000000000, 7.199999999999998401 ) ) ;
#244 = TOROIDAL_SURFACE ( 'NONE', #85, 9.199999999999999289, 0.2000000000000000111 ) ;
#245 = CC_DESIGN_PERSON_AND_ORGANIZATION_ASSIGNMENT ( #152, #296, ( #280 ) ) ;
#246 = PLANE ( 'NONE',  #68 ) ;
#247 = PERSON ( 'NEURÈENÝ', 'NEURÈENÝ', 'NEURÈENÝ', ('NEURÈENÝ'), ('NEURÈENÝ'), ('NEURÈENÝ') ) ;
#248 = APPROVAL_ROLE ( '' ) ;
#249 = DIRECTION ( 'NONE',  ( 1.000000000000000000, 0.000000000000000000, 0.000000000000000000 ) ) ;
#250 = AXIS2_PLACEMENT_3D ( 'NONE', #33, #264, #198 ) ;
#251 = FACE_OUTER_BOUND ( 'NONE', #276, .T. ) ;
#252 = EDGE_LOOP ( 'NONE', ( #235, #299, #275, #95 ) ) ;
#253 = AXIS2_PLACEMENT_3D ( 'NONE', #243, #53, #26 ) ;
#254 = ORIENTED_EDGE ( 'NONE', *, *, #197, .T. ) ;
#255 = CIRCLE ( 'NONE', #250, 9.199999999999999289 ) ;
#256 = CC_DESIGN_DATE_AND_TIME_ASSIGNMENT ( #71, #138, ( #189 ) ) ;
#257 = EDGE_LOOP ( 'NONE', ( #186, #94, #163, #141 ) ) ;
#258 = VERTEX_POINT ( 'NONE', #222 ) ;
#259 = CIRCLE ( 'NONE', #253, 9.000000000000000000 ) ;
#260 = EDGE_LOOP ( 'NONE', ( #195, #279, #254, #303 ) ) ;
#261 = EDGE_CURVE ( 'NONE', #211, #258, #274, .T. ) ;
#262 = CC_DESIGN_APPROVAL ( #242, ( #189 ) ) ;
#263 = CARTESIAN_POINT ( 'NONE',  ( -9.000000000000000000, 0.000000000000000000, 7.199999999999998401 ) ) ;
#264 = DIRECTION ( 'NONE',  ( -0.000000000000000000, -0.000000000000000000, -1.000000000000000000 ) ) ;
#265 = CARTESIAN_POINT ( 'NONE',  ( 0.000000000000000000, 0.000000000000000000, 7.000000000000000000 ) ) ;
#266 = ORIENTED_EDGE ( 'NONE', *, *, #39, .T. ) ;
#267 = PRODUCT_DEFINITION_SHAPE ( 'NONE', 'NONE',  #271 ) ;
#268 = CYLINDRICAL_SURFACE ( 'NONE', #12, 12.00000000000000178 ) ;
#269 = CARTESIAN_POINT ( 'NONE',  ( 9.000000000000000000, 1.102182119232617714E-15, 132.0000000000000000 ) ) ;
#270 = FACE_BOUND ( 'NONE', #118, .T. ) ;
#271 = PRODUCT_DEFINITION ( 'NEZNÁMÝ', '', #280, #206 ) ;
#272 = PERSON_AND_ORGANIZATION_ROLE ( 'design_owner' ) ;
#273 = AXIS2_PLACEMENT_3D ( 'NONE', #78, #102, #76 ) ;
#274 = CIRCLE ( 'NONE', #181, 0.2000000000000005107 ) ;
#275 = ORIENTED_EDGE ( 'NONE', *, *, #133, .F. ) ;
#276 = EDGE_LOOP ( 'NONE', ( #116, #193 ) ) ;
#277 = CC_DESIGN_PERSON_AND_ORGANIZATION_ASSIGNMENT ( #226, #272, ( #144 ) ) ;
#278 = DATE_AND_TIME ( #301, #225 ) ;
#279 = ORIENTED_EDGE ( 'NONE', *, *, #89, .F. ) ;
#280 = PRODUCT_DEFINITION_FORMATION_WITH_SPECIFIED_SOURCE ( 'LIBOVOLNÝ', '', #144, .NOT_KNOWN. ) ;
#281 = ORIENTED_EDGE ( 'NONE', *, *, #32, .F. ) ;
#282 = DIRECTION ( 'NONE',  ( 0.000000000000000000, 0.000000000000000000, 1.000000000000000000 ) ) ;
#283 = APPROVAL ( #8, 'NEURÈENÝ' ) ;
#284 = VERTEX_POINT ( 'NONE', #120 ) ;
#285 = VERTEX_POINT ( 'NONE', #227 ) ;
#286 = CIRCLE ( 'NONE', #43, 9.199999999999999289 ) ;
#287 = DIRECTION ( 'NONE',  ( -0.000000000000000000, -0.000000000000000000, -1.000000000000000000 ) ) ;
#288 = DIRECTION ( 'NONE',  ( 1.000000000000000000, 0.000000000000000000, 0.000000000000000000 ) ) ;
#289 = DIRECTION ( 'NONE',  ( 1.000000000000000000, 0.000000000000000000, 0.000000000000000000 ) ) ;
#290 = DIRECTION ( 'NONE',  ( 0.000000000000000000, -1.000000000000000000, 0.000000000000000000 ) ) ;
#291 = AXIS2_PLACEMENT_3D ( 'NONE', #123, #237, #79 ) ;
#292 = MECHANICAL_CONTEXT ( 'NONE', #182, 'mechanical' ) ;
#293 =( LENGTH_UNIT ( ) NAMED_UNIT ( * ) SI_UNIT ( .MILLI., .METRE. ) );
#294 = CARTESIAN_POINT ( 'NONE',  ( 0.000000000000000000, 0.000000000000000000, 7.000000000000000000 ) ) ;
#295 = ADVANCED_FACE ( 'NONE', ( #270, #131 ), #63, .T. ) ;
#296 = PERSON_AND_ORGANIZATION_ROLE ( 'design_supplier' ) ;
#297 = CARTESIAN_POINT ( 'NONE',  ( 0.000000000000000000, 0.000000000000000000, 7.199999999999998401 ) ) ;
#298 = APPROVAL_DATE_TIME ( #278, #242 ) ;
#299 = ORIENTED_EDGE ( 'NONE', *, *, #261, .T. ) ;
#300 = ADVANCED_FACE ( 'NONE', ( #251 ), #246, .T. ) ;
#301 = CALENDAR_DATE ( 2022, 20, 6 ) ;
#302 = DIRECTION ( 'NONE',  ( -0.000000000000000000, -0.000000000000000000, -1.000000000000000000 ) ) ;
#303 = ORIENTED_EDGE ( 'NONE', *, *, #105, .T. ) ;
#304 = CARTESIAN_POINT ( 'NONE',  ( 0.000000000000000000, 0.000000000000000000, 7.000000000000000000 ) ) ;
#305 = EDGE_LOOP ( 'NONE', ( #96, #66 ) ) ;
#306 = CLOSED_SHELL ( 'NONE', ( #228, #159, #47, #98, #295, #200, #27, #300, #84 ) ) ;
#307 = DIRECTION ( 'NONE',  ( -0.000000000000000000, -0.000000000000000000, -1.000000000000000000 ) ) ;
ENDSEC;
END-ISO-10303-21;
