ISO-10303-21;
HEADER;
FILE_DESCRIPTION (( 'STEP AP203' ),
    '1' );
FILE_NAME ('47fa.STEP',
    '2022-06-20T10:20:00',
    ( '' ),
    ( '' ),
    'SwSTEP 2.0',
    'SolidWorks 2019',
    '' );
FILE_SCHEMA (( 'CONFIG_CONTROL_DESIGN' ));
ENDSEC;

DATA;
#1 = LINE ( 'NONE', #86, #235 ) ;
#2 = MECHANICAL_CONTEXT ( 'NONE', #14, 'mechanical' ) ;
#3 = VERTEX_POINT ( 'NONE', #70 ) ;
#4 = PRODUCT_RELATED_PRODUCT_CATEGORY ( 'detail', '', ( #174 ) ) ;
#5 = CARTESIAN_POINT ( 'NONE',  ( 2.000000000000000000, 2.449293598294706414E-16, 2.000000000000000000 ) ) ;
#6 = AXIS2_PLACEMENT_3D ( 'NONE', #284, #282, #68 ) ;
#7 = VERTEX_POINT ( 'NONE', #155 ) ;
#8 = APPLICATION_CONTEXT ( 'configuration controlled 3d designs of mechanical parts and assemblies' ) ;
#9 = CARTESIAN_POINT ( 'NONE',  ( 0.000000000000000000, 0.000000000000000000, 2.199999999999979750 ) ) ;
#10 = CIRCLE ( 'NONE', #216, 1.000000000000000000 ) ;
#11 = APPROVAL ( #81, 'NEURÈENÝ' ) ;
#12 = VECTOR ( 'NONE', #95, 1000.000000000000000 ) ;
#13 = EDGE_CURVE ( 'NONE', #7, #239, #1, .T. ) ;
#14 = APPLICATION_CONTEXT ( 'configuration controlled 3d designs of mechanical parts and assemblies' ) ;
#15 = DIRECTION ( 'NONE',  ( 0.000000000000000000, 0.000000000000000000, 1.000000000000000000 ) ) ;
#16 = CARTESIAN_POINT ( 'NONE',  ( -1.200000000000000178, 1.469576158976823799E-16, 1.999999999999989564 ) ) ;
#17 = DIRECTION ( 'NONE',  ( 0.000000000000000000, 0.000000000000000000, 1.000000000000000000 ) ) ;
#18 = ORIENTED_EDGE ( 'NONE', *, *, #33, .F. ) ;
#19 = CARTESIAN_POINT ( 'NONE',  ( 0.000000000000000000, 0.000000000000000000, 317.0000000000000000 ) ) ;
#20 = AXIS2_PLACEMENT_3D ( 'NONE', #192, #204, #232 ) ;
#21 = DIRECTION ( 'NONE',  ( -0.000000000000000000, -0.000000000000000000, -1.000000000000000000 ) ) ;
#22 = ORIENTED_EDGE ( 'NONE', *, *, #294, .T. ) ;
#23 =( NAMED_UNIT ( * ) PLANE_ANGLE_UNIT ( ) SI_UNIT ( $, .RADIAN. ) );
#24 = VERTEX_POINT ( 'NONE', #44 ) ;
#25 = CARTESIAN_POINT ( 'NONE',  ( -1.000000000000000000, 0.000000000000000000, 2.199999999999979750 ) ) ;
#26 = PRODUCT_DEFINITION_FORMATION_WITH_SPECIFIED_SOURCE ( 'LIBOVOLNÝ', '', #174, .NOT_KNOWN. ) ;
#27 = ORIENTED_EDGE ( 'NONE', *, *, #269, .T. ) ;
#28 = AXIS2_PLACEMENT_3D ( 'NONE', #242, #100, #300 ) ;
#29 = CARTESIAN_POINT ( 'NONE',  ( -2.000000000000000000, 0.000000000000000000, 0.000000000000000000 ) ) ;
#30 = LINE ( 'NONE', #120, #12 ) ;
#31 = PERSON_AND_ORGANIZATION_ROLE ( 'design_owner' ) ;
#32 = PERSON_AND_ORGANIZATION ( #158, #254 ) ;
#33 = EDGE_CURVE ( 'NONE', #246, #24, #207, .T. ) ;
#34 = CALENDAR_DATE ( 2022, 20, 6 ) ;
#35 = CARTESIAN_POINT ( 'NONE',  ( 0.000000000000000000, 0.000000000000000000, 2.199999999999979750 ) ) ;
#36 = EDGE_LOOP ( 'NONE', ( #224, #302 ) ) ;
#37 = DIRECTION ( 'NONE',  ( 0.000000000000000000, 0.000000000000000000, 1.000000000000000000 ) ) ;
#38 = VERTEX_POINT ( 'NONE', #25 ) ;
#39 = ADVANCED_BREP_SHAPE_REPRESENTATION ( '47fa', ( #119, #261 ), #75 ) ;
#40 = PLANE ( 'NONE',  #243 ) ;
#41 = EDGE_CURVE ( 'NONE', #239, #133, #146, .T. ) ;
#42 =( NAMED_UNIT ( * ) SI_UNIT ( $, .STERADIAN. ) SOLID_ANGLE_UNIT ( ) );
#43 = DIRECTION ( 'NONE',  ( 0.000000000000000000, -1.000000000000000000, 0.000000000000000000 ) ) ;
#44 = CARTESIAN_POINT ( 'NONE',  ( 2.000000000000000000, 2.449293598294706414E-16, 0.000000000000000000 ) ) ;
#45 = ADVANCED_FACE ( 'NONE', ( #112 ), #184, .T. ) ;
#46 = DIRECTION ( 'NONE',  ( 1.000000000000000000, 0.000000000000000000, 0.000000000000000000 ) ) ;
#47 = ORIENTED_EDGE ( 'NONE', *, *, #41, .T. ) ;
#48 = DIRECTION ( 'NONE',  ( -0.000000000000000000, -0.000000000000000000, -1.000000000000000000 ) ) ;
#49 = CIRCLE ( 'NONE', #20, 2.000000000000000000 ) ;
#50 = CARTESIAN_POINT ( 'NONE',  ( -2.000000000000000000, 0.000000000000000000, 2.000000000000000000 ) ) ;
#51 = AXIS2_PLACEMENT_3D ( 'NONE', #253, #21, #137 ) ;
#52 = ADVANCED_FACE ( 'NONE', ( #279 ), #257, .T. ) ;
#53 = FACE_OUTER_BOUND ( 'NONE', #65, .T. ) ;
#54 = DATE_AND_TIME ( #168, #244 ) ;
#55 = EDGE_LOOP ( 'NONE', ( #221, #301, #27, #181 ) ) ;
#56 = CARTESIAN_POINT ( 'NONE',  ( 0.000000000000000000, 0.000000000000000000, 2.199999999999979750 ) ) ;
#57 = SECURITY_CLASSIFICATION ( '', '', #182 ) ;
#58 = CC_DESIGN_PERSON_AND_ORGANIZATION_ASSIGNMENT ( #96, #31, ( #174 ) ) ;
#59 = CARTESIAN_POINT ( 'NONE',  ( 0.000000000000000000, 0.000000000000000000, 317.0000000000000000 ) ) ;
#60 = ORIENTED_EDGE ( 'NONE', *, *, #240, .T. ) ;
#61 = APPROVAL_DATE_TIME ( #152, #11 ) ;
#62 = PERSON_AND_ORGANIZATION_ROLE ( 'creator' ) ;
#63 = LOCAL_TIME ( 12, 20, 0.000000000000000000, #196 ) ;
#64 = DATE_TIME_ROLE ( 'classification_date' ) ;
#65 = EDGE_LOOP ( 'NONE', ( #110, #116 ) ) ;
#66 = ORIENTED_EDGE ( 'NONE', *, *, #307, .F. ) ;
#67 = DIRECTION ( 'NONE',  ( 1.000000000000000000, 0.000000000000000000, 0.000000000000000000 ) ) ;
#68 = DIRECTION ( 'NONE',  ( 1.000000000000000000, 0.000000000000000000, -0.000000000000000000 ) ) ;
#69 = ORIENTED_EDGE ( 'NONE', *, *, #162, .F. ) ;
#70 = CARTESIAN_POINT ( 'NONE',  ( -2.000000000000000000, 0.000000000000000000, 2.000000000000000000 ) ) ;
#71 = FACE_OUTER_BOUND ( 'NONE', #55, .T. ) ;
#72 = FACE_OUTER_BOUND ( 'NONE', #36, .T. ) ;
#73 = CLOSED_SHELL ( 'NONE', ( #139, #45, #52, #123, #169, #87, #247, #180, #135 ) ) ;
#74 = APPROVAL_ROLE ( '' ) ;
#75 =( GEOMETRIC_REPRESENTATION_CONTEXT ( 3 ) GLOBAL_UNCERTAINTY_ASSIGNED_CONTEXT ( ( #215 ) ) GLOBAL_UNIT_ASSIGNED_CONTEXT ( ( #278, #23, #42 ) ) REPRESENTATION_CONTEXT ( 'NONE', 'WORKASPACE' ) );
#76 = PLANE ( 'NONE',  #88 ) ;
#77 = PRODUCT_DEFINITION_SHAPE ( 'NONE', 'NONE',  #286 ) ;
#78 = DATE_TIME_ROLE ( 'creation_date' ) ;
#79 = DIRECTION ( 'NONE',  ( 1.000000000000000000, 0.000000000000000000, 0.000000000000000000 ) ) ;
#80 = EDGE_LOOP ( 'NONE', ( #66, #267, #161, #210 ) ) ;
#81 = APPROVAL_STATUS ( 'not_yet_approved' ) ;
#82 = FACE_BOUND ( 'NONE', #299, .T. ) ;
#83 = AXIS2_PLACEMENT_3D ( 'NONE', #85, #43, #233 ) ;
#84 = CC_DESIGN_SECURITY_CLASSIFICATION ( #57, ( #26 ) ) ;
#85 = CARTESIAN_POINT ( 'NONE',  ( 1.200000000000000178, 0.000000000000000000, 2.199999999999979750 ) ) ;
#86 = CARTESIAN_POINT ( 'NONE',  ( 1.000000000000000000, 1.224646799147353207E-16, 317.0000000000000000 ) ) ;
#87 = ADVANCED_FACE ( 'NONE', ( #90 ), #259, .F. ) ;
#88 = AXIS2_PLACEMENT_3D ( 'NONE', #227, #37, #128 ) ;
#89 = ORIENTED_EDGE ( 'NONE', *, *, #33, .T. ) ;
#90 = FACE_OUTER_BOUND ( 'NONE', #163, .T. ) ;
#91 = ORIENTED_EDGE ( 'NONE', *, *, #145, .T. ) ;
#92 = FACE_OUTER_BOUND ( 'NONE', #157, .T. ) ;
#93 = CIRCLE ( 'NONE', #108, 1.000000000000000000 ) ;
#94 = APPROVAL_PERSON_ORGANIZATION ( #231, #11, #179 ) ;
#95 = DIRECTION ( 'NONE',  ( -0.000000000000000000, -0.000000000000000000, -1.000000000000000000 ) ) ;
#96 = PERSON_AND_ORGANIZATION ( #158, #254 ) ;
#97 = AXIS2_PLACEMENT_3D ( 'NONE', #164, #115, #186 ) ;
#98 = CIRCLE ( 'NONE', #219, 2.000000000000000000 ) ;
#99 = PERSON_AND_ORGANIZATION_ROLE ( 'creator' ) ;
#100 = DIRECTION ( 'NONE',  ( 0.000000000000000000, 0.000000000000000000, 1.000000000000000000 ) ) ;
#101 = CARTESIAN_POINT ( 'NONE',  ( -1.000000000000000000, 0.000000000000000000, 317.0000000000000000 ) ) ;
#102 = CIRCLE ( 'NONE', #296, 2.000000000000000000 ) ;
#103 = CARTESIAN_POINT ( 'NONE',  ( 1.000000000000000000, 1.224646799147353207E-16, 2.199999999999979750 ) ) ;
#104 = COORDINATED_UNIVERSAL_TIME_OFFSET ( 1, 0, .AHEAD. ) ;
#105 = EDGE_CURVE ( 'NONE', #236, #7, #258, .T. ) ;
#106 = PERSON_AND_ORGANIZATION ( #158, #254 ) ;
#107 = DIRECTION ( 'NONE',  ( 0.000000000000000000, 0.000000000000000000, 1.000000000000000000 ) ) ;
#108 = AXIS2_PLACEMENT_3D ( 'NONE', #56, #248, #250 ) ;
#109 = ORIENTED_EDGE ( 'NONE', *, *, #240, .F. ) ;
#110 = ORIENTED_EDGE ( 'NONE', *, *, #105, .T. ) ;
#111 = EDGE_CURVE ( 'NONE', #133, #212, #121, .T. ) ;
#112 = FACE_OUTER_BOUND ( 'NONE', #80, .T. ) ;
#113 = VECTOR ( 'NONE', #290, 1000.000000000000000 ) ;
#114 = LOCAL_TIME ( 12, 20, 0.000000000000000000, #104 ) ;
#115 = DIRECTION ( 'NONE',  ( -0.000000000000000000, -0.000000000000000000, -1.000000000000000000 ) ) ;
#116 = ORIENTED_EDGE ( 'NONE', *, *, #307, .T. ) ;
#117 = AXIS2_PLACEMENT_3D ( 'NONE', #217, #149, #176 ) ;
#118 = CARTESIAN_POINT ( 'NONE',  ( 0.000000000000000000, 0.000000000000000000, 2.000000000000000000 ) ) ;
#119 = MANIFOLD_SOLID_BREP ( 'Zaoblit1', #73 ) ;
#120 = CARTESIAN_POINT ( 'NONE',  ( -1.000000000000000000, 0.000000000000000000, 317.0000000000000000 ) ) ;
#121 = CIRCLE ( 'NONE', #274, 1.200000000000000178 ) ;
#122 = DATE_AND_TIME ( #297, #160 ) ;
#123 = ADVANCED_FACE ( 'NONE', ( #129 ), #124, .T. ) ;
#124 = CYLINDRICAL_SURFACE ( 'NONE', #117, 2.000000000000000000 ) ;
#125 = ORIENTED_EDGE ( 'NONE', *, *, #41, .F. ) ;
#126 = APPROVAL_ROLE ( '' ) ;
#127 = AXIS2_PLACEMENT_3D ( 'NONE', #306, #260, #46 ) ;
#128 = DIRECTION ( 'NONE',  ( 1.000000000000000000, 0.000000000000000000, -0.000000000000000000 ) ) ;
#129 = FACE_OUTER_BOUND ( 'NONE', #188, .T. ) ;
#130 = VERTEX_POINT ( 'NONE', #29 ) ;
#131 = DIRECTION ( 'NONE',  ( 1.000000000000000000, 0.000000000000000000, 0.000000000000000000 ) ) ;
#132 = CALENDAR_DATE ( 2022, 20, 6 ) ;
#133 = VERTEX_POINT ( 'NONE', #220 ) ;
#134 = AXIS2_PLACEMENT_3D ( 'NONE', #59, #166, #214 ) ;
#135 = ADVANCED_FACE ( 'NONE', ( #143 ), #203, .F. ) ;
#136 = ORIENTED_EDGE ( 'NONE', *, *, #145, .F. ) ;
#137 = DIRECTION ( 'NONE',  ( -1.000000000000000000, 0.000000000000000000, 0.000000000000000000 ) ) ;
#138 = EDGE_LOOP ( 'NONE', ( #238, #89, #60, #136 ) ) ;
#139 = ADVANCED_FACE ( 'NONE', ( #92 ), #298, .F. ) ;
#140 = DIRECTION ( 'NONE',  ( 1.000000000000000000, 0.000000000000000000, 0.000000000000000000 ) ) ;
#141 = DIRECTION ( 'NONE',  ( 0.000000000000000000, 0.000000000000000000, 1.000000000000000000 ) ) ;
#142 = VECTOR ( 'NONE', #251, 1000.000000000000000 ) ;
#143 = FACE_OUTER_BOUND ( 'NONE', #249, .T. ) ;
#144 = APPROVAL_DATE_TIME ( #54, #191 ) ;
#145 = EDGE_CURVE ( 'NONE', #3, #130, #197, .T. ) ;
#146 = CIRCLE ( 'NONE', #83, 0.2000000000000000944 ) ;
#147 = APPLICATION_PROTOCOL_DEFINITION ( 'international standard', 'config_control_design', 1994, #8 ) ;
#148 = CC_DESIGN_PERSON_AND_ORGANIZATION_ASSIGNMENT ( #172, #99, ( #286 ) ) ;
#149 = DIRECTION ( 'NONE',  ( -0.000000000000000000, -0.000000000000000000, -1.000000000000000000 ) ) ;
#150 = DIRECTION ( 'NONE',  ( 1.000000000000000000, 0.000000000000000000, -0.000000000000000000 ) ) ;
#151 = CARTESIAN_POINT ( 'NONE',  ( 0.000000000000000000, 0.000000000000000000, 2.000000000000000000 ) ) ;
#152 = DATE_AND_TIME ( #132, #114 ) ;
#153 = APPROVAL_PERSON_ORGANIZATION ( #32, #256, #74 ) ;
#154 = APPLICATION_PROTOCOL_DEFINITION ( 'international standard', 'config_control_design', 1994, #14 ) ;
#155 = CARTESIAN_POINT ( 'NONE',  ( 1.000000000000000000, 1.224646799147353207E-16, 317.0000000000000000 ) ) ;
#156 = PERSON_AND_ORGANIZATION ( #158, #254 ) ;
#157 = EDGE_LOOP ( 'NONE', ( #213, #22, #177, #125 ) ) ;
#158 = PERSON ( 'NEURÈENÝ', 'NEURÈENÝ', 'NEURÈENÝ', ('NEURÈENÝ'), ('NEURÈENÝ'), ('NEURÈENÝ') ) ;
#159 = DIRECTION ( 'NONE',  ( 1.224646799147353207E-16, 1.000000000000000000, -0.000000000000000000 ) ) ;
#160 = LOCAL_TIME ( 12, 20, 0.000000000000000000, #293 ) ;
#161 = ORIENTED_EDGE ( 'NONE', *, *, #162, .T. ) ;
#162 = EDGE_CURVE ( 'NONE', #239, #38, #93, .T. ) ;
#163 = EDGE_LOOP ( 'NONE', ( #198, #109 ) ) ;
#164 = CARTESIAN_POINT ( 'NONE',  ( 0.000000000000000000, 0.000000000000000000, 2.000000000000000000 ) ) ;
#165 = CIRCLE ( 'NONE', #170, 1.000000000000000000 ) ;
#166 = DIRECTION ( 'NONE',  ( -0.000000000000000000, -0.000000000000000000, -1.000000000000000000 ) ) ;
#167 = DIRECTION ( 'NONE',  ( 0.000000000000000000, 0.000000000000000000, 1.000000000000000000 ) ) ;
#168 = CALENDAR_DATE ( 2022, 20, 6 ) ;
#169 = ADVANCED_FACE ( 'NONE', ( #82, #72 ), #40, .T. ) ;
#170 = AXIS2_PLACEMENT_3D ( 'NONE', #9, #167, #263 ) ;
#171 = CC_DESIGN_APPROVAL ( #191, ( #26 ) ) ;
#172 = PERSON_AND_ORGANIZATION ( #158, #254 ) ;
#173 = CARTESIAN_POINT ( 'NONE',  ( 0.000000000000000000, 0.000000000000000000, 0.000000000000000000 ) ) ;
#174 = PRODUCT ( '47fa', '47fa', '', ( #2 ) ) ;
#175 = PERSON_AND_ORGANIZATION ( #158, #254 ) ;
#176 = DIRECTION ( 'NONE',  ( -1.000000000000000000, 0.000000000000000000, 0.000000000000000000 ) ) ;
#177 = ORIENTED_EDGE ( 'NONE', *, *, #111, .F. ) ;
#178 = DIRECTION ( 'NONE',  ( 1.000000000000000000, 0.000000000000000000, 0.000000000000000000 ) ) ;
#179 = APPROVAL_ROLE ( '' ) ;
#180 = ADVANCED_FACE ( 'NONE', ( #53 ), #76, .T. ) ;
#181 = ORIENTED_EDGE ( 'NONE', *, *, #264, .T. ) ;
#182 = SECURITY_CLASSIFICATION_LEVEL ( 'unclassified' ) ;
#183 = CARTESIAN_POINT ( 'NONE',  ( 0.000000000000000000, 0.000000000000000000, 2.000000000000000000 ) ) ;
#184 = CYLINDRICAL_SURFACE ( 'NONE', #51, 1.000000000000000000 ) ;
#185 = CIRCLE ( 'NONE', #289, 2.000000000000000000 ) ;
#186 = DIRECTION ( 'NONE',  ( -1.000000000000000000, 0.000000000000000000, 0.000000000000000000 ) ) ;
#187 = ORIENTED_EDGE ( 'NONE', *, *, #206, .T. ) ;
#188 = EDGE_LOOP ( 'NONE', ( #18, #271, #91, #187 ) ) ;
#189 = CIRCLE ( 'NONE', #272, 0.2000000000000000944 ) ;
#190 = CARTESIAN_POINT ( 'NONE',  ( 2.000000000000000000, 2.449293598294706414E-16, 2.000000000000000000 ) ) ;
#191 = APPROVAL ( #268, 'NEURÈENÝ' ) ;
#192 = CARTESIAN_POINT ( 'NONE',  ( 0.000000000000000000, 0.000000000000000000, 2.000000000000000000 ) ) ;
#193 = APPROVAL_STATUS ( 'not_yet_approved' ) ;
#194 = DATE_AND_TIME ( #34, #63 ) ;
#195 = LOCAL_TIME ( 12, 20, 0.000000000000000000, #252 ) ;
#196 = COORDINATED_UNIVERSAL_TIME_OFFSET ( 1, 0, .AHEAD. ) ;
#197 = LINE ( 'NONE', #50, #113 ) ;
#198 = ORIENTED_EDGE ( 'NONE', *, *, #206, .F. ) ;
#199 = DIRECTION ( 'NONE',  ( 1.000000000000000000, 0.000000000000000000, 0.000000000000000000 ) ) ;
#200 = ORIENTED_EDGE ( 'NONE', *, *, #237, .F. ) ;
#201 = PERSON_AND_ORGANIZATION_ROLE ( 'classification_officer' ) ;
#202 = EDGE_CURVE ( 'NONE', #3, #246, #98, .T. ) ;
#203 = TOROIDAL_SURFACE ( 'NONE', #285, 1.200000000000000178, 0.2000000000000000111 ) ;
#204 = DIRECTION ( 'NONE',  ( 0.000000000000000000, 0.000000000000000000, 1.000000000000000000 ) ) ;
#205 = SHAPE_DEFINITION_REPRESENTATION ( #77, #39 ) ;
#206 = EDGE_CURVE ( 'NONE', #130, #24, #102, .T. ) ;
#207 = LINE ( 'NONE', #5, #142 ) ;
#208 = ORIENTED_EDGE ( 'NONE', *, *, #237, .T. ) ;
#209 = CC_DESIGN_DATE_AND_TIME_ASSIGNMENT ( #305, #64, ( #57 ) ) ;
#210 = ORIENTED_EDGE ( 'NONE', *, *, #269, .F. ) ;
#211 = CC_DESIGN_APPROVAL ( #11, ( #57 ) ) ;
#212 = VERTEX_POINT ( 'NONE', #16 ) ;
#213 = ORIENTED_EDGE ( 'NONE', *, *, #264, .F. ) ;
#214 = DIRECTION ( 'NONE',  ( -1.000000000000000000, 0.000000000000000000, 0.000000000000000000 ) ) ;
#215 = UNCERTAINTY_MEASURE_WITH_UNIT (LENGTH_MEASURE( 1.000000000000000082E-05 ), #278, 'distance_accuracy_value', 'NONE');
#216 = AXIS2_PLACEMENT_3D ( 'NONE', #19, #107, #131 ) ;
#217 = CARTESIAN_POINT ( 'NONE',  ( 0.000000000000000000, 0.000000000000000000, 2.000000000000000000 ) ) ;
#218 = CC_DESIGN_PERSON_AND_ORGANIZATION_ASSIGNMENT ( #303, #62, ( #26 ) ) ;
#219 = AXIS2_PLACEMENT_3D ( 'NONE', #262, #17, #79 ) ;
#220 = CARTESIAN_POINT ( 'NONE',  ( 1.200000000000000178, 0.000000000000000000, 1.999999999999989564 ) ) ;
#221 = ORIENTED_EDGE ( 'NONE', *, *, #13, .F. ) ;
#222 = COORDINATED_UNIVERSAL_TIME_OFFSET ( 1, 0, .AHEAD. ) ;
#223 = CARTESIAN_POINT ( 'NONE',  ( 0.000000000000000000, 0.000000000000000000, 0.000000000000000000 ) ) ;
#224 = ORIENTED_EDGE ( 'NONE', *, *, #202, .T. ) ;
#225 = CC_DESIGN_PERSON_AND_ORGANIZATION_ASSIGNMENT ( #106, #201, ( #57 ) ) ;
#226 = PERSON_AND_ORGANIZATION_ROLE ( 'design_supplier' ) ;
#227 = CARTESIAN_POINT ( 'NONE',  ( 0.000000000000000000, 0.000000000000000000, 317.0000000000000000 ) ) ;
#228 = ORIENTED_EDGE ( 'NONE', *, *, #111, .T. ) ;
#229 = APPROVAL_PERSON_ORGANIZATION ( #175, #191, #126 ) ;
#230 = CARTESIAN_POINT ( 'NONE',  ( 0.000000000000000000, 0.000000000000000000, 0.000000000000000000 ) ) ;
#231 = PERSON_AND_ORGANIZATION ( #158, #254 ) ;
#232 = DIRECTION ( 'NONE',  ( 1.000000000000000000, 0.000000000000000000, 0.000000000000000000 ) ) ;
#233 = DIRECTION ( 'NONE',  ( 0.000000000000000000, 0.000000000000000000, -1.000000000000000000 ) ) ;
#234 = ORIENTED_EDGE ( 'NONE', *, *, #294, .F. ) ;
#235 = VECTOR ( 'NONE', #287, 1000.000000000000000 ) ;
#236 = VERTEX_POINT ( 'NONE', #101 ) ;
#237 = EDGE_CURVE ( 'NONE', #212, #133, #265, .T. ) ;
#238 = ORIENTED_EDGE ( 'NONE', *, *, #275, .F. ) ;
#239 = VERTEX_POINT ( 'NONE', #103 ) ;
#240 = EDGE_CURVE ( 'NONE', #24, #130, #185, .T. ) ;
#241 = DIRECTION ( 'NONE',  ( 1.000000000000000000, 0.000000000000000000, 0.000000000000000000 ) ) ;
#242 = CARTESIAN_POINT ( 'NONE',  ( 0.000000000000000000, 0.000000000000000000, 2.199999999999979750 ) ) ;
#243 = AXIS2_PLACEMENT_3D ( 'NONE', #151, #266, #150 ) ;
#244 = LOCAL_TIME ( 12, 20, 0.000000000000000000, #222 ) ;
#245 = CC_DESIGN_PERSON_AND_ORGANIZATION_ASSIGNMENT ( #156, #226, ( #26 ) ) ;
#246 = VERTEX_POINT ( 'NONE', #190 ) ;
#247 = ADVANCED_FACE ( 'NONE', ( #71 ), #273, .T. ) ;
#248 = DIRECTION ( 'NONE',  ( 0.000000000000000000, 0.000000000000000000, 1.000000000000000000 ) ) ;
#249 = EDGE_LOOP ( 'NONE', ( #234, #69, #47, #200 ) ) ;
#250 = DIRECTION ( 'NONE',  ( 1.000000000000000000, 0.000000000000000000, 0.000000000000000000 ) ) ;
#251 = DIRECTION ( 'NONE',  ( -0.000000000000000000, -0.000000000000000000, -1.000000000000000000 ) ) ;
#252 = COORDINATED_UNIVERSAL_TIME_OFFSET ( 1, 0, .AHEAD. ) ;
#253 = CARTESIAN_POINT ( 'NONE',  ( 0.000000000000000000, 0.000000000000000000, 317.0000000000000000 ) ) ;
#254 = ORGANIZATION ( 'NEURÈENÝ', 'NEURÈENÝ', '' ) ;
#255 = CARTESIAN_POINT ( 'NONE',  ( -1.200000000000000178, 1.469576158976823799E-16, 2.199999999999979750 ) ) ;
#256 = APPROVAL ( #193, 'NEURÈENÝ' ) ;
#257 = CYLINDRICAL_SURFACE ( 'NONE', #97, 2.000000000000000000 ) ;
#258 = CIRCLE ( 'NONE', #127, 1.000000000000000000 ) ;
#259 = PLANE ( 'NONE',  #6 ) ;
#260 = DIRECTION ( 'NONE',  ( 0.000000000000000000, 0.000000000000000000, 1.000000000000000000 ) ) ;
#261 = AXIS2_PLACEMENT_3D ( 'NONE', #230, #281, #67 ) ;
#262 = CARTESIAN_POINT ( 'NONE',  ( 0.000000000000000000, 0.000000000000000000, 2.000000000000000000 ) ) ;
#263 = DIRECTION ( 'NONE',  ( 1.000000000000000000, 0.000000000000000000, 0.000000000000000000 ) ) ;
#264 = EDGE_CURVE ( 'NONE', #38, #239, #165, .T. ) ;
#265 = CIRCLE ( 'NONE', #283, 1.200000000000000178 ) ;
#266 = DIRECTION ( 'NONE',  ( 0.000000000000000000, 0.000000000000000000, 1.000000000000000000 ) ) ;
#267 = ORIENTED_EDGE ( 'NONE', *, *, #13, .T. ) ;
#268 = APPROVAL_STATUS ( 'not_yet_approved' ) ;
#269 = EDGE_CURVE ( 'NONE', #236, #38, #30, .T. ) ;
#270 = DIRECTION ( 'NONE',  ( 1.000000000000000000, 0.000000000000000000, 0.000000000000000000 ) ) ;
#271 = ORIENTED_EDGE ( 'NONE', *, *, #202, .F. ) ;
#272 = AXIS2_PLACEMENT_3D ( 'NONE', #255, #159, #304 ) ;
#273 = CYLINDRICAL_SURFACE ( 'NONE', #134, 1.000000000000000000 ) ;
#274 = AXIS2_PLACEMENT_3D ( 'NONE', #183, #48, #140 ) ;
#275 = EDGE_CURVE ( 'NONE', #246, #3, #49, .T. ) ;
#276 = CALENDAR_DATE ( 2022, 20, 6 ) ;
#277 = CC_DESIGN_APPROVAL ( #256, ( #286 ) ) ;
#278 =( LENGTH_UNIT ( ) NAMED_UNIT ( * ) SI_UNIT ( .MILLI., .METRE. ) );
#279 = FACE_OUTER_BOUND ( 'NONE', #138, .T. ) ;
#280 = CC_DESIGN_DATE_AND_TIME_ASSIGNMENT ( #122, #78, ( #286 ) ) ;
#281 = DIRECTION ( 'NONE',  ( 0.000000000000000000, 0.000000000000000000, 1.000000000000000000 ) ) ;
#282 = DIRECTION ( 'NONE',  ( 0.000000000000000000, 0.000000000000000000, 1.000000000000000000 ) ) ;
#283 = AXIS2_PLACEMENT_3D ( 'NONE', #118, #292, #199 ) ;
#284 = CARTESIAN_POINT ( 'NONE',  ( 0.000000000000000000, 0.000000000000000000, 0.000000000000000000 ) ) ;
#285 = AXIS2_PLACEMENT_3D ( 'NONE', #35, #15, #270 ) ;
#286 = PRODUCT_DEFINITION ( 'NEZNÁMÝ', '', #26, #291 ) ;
#287 = DIRECTION ( 'NONE',  ( -0.000000000000000000, -0.000000000000000000, -1.000000000000000000 ) ) ;
#288 = DIRECTION ( 'NONE',  ( 0.000000000000000000, 0.000000000000000000, 1.000000000000000000 ) ) ;
#289 = AXIS2_PLACEMENT_3D ( 'NONE', #173, #288, #178 ) ;
#290 = DIRECTION ( 'NONE',  ( -0.000000000000000000, -0.000000000000000000, -1.000000000000000000 ) ) ;
#291 = DESIGN_CONTEXT ( 'detailed design', #8, 'design' ) ;
#292 = DIRECTION ( 'NONE',  ( -0.000000000000000000, -0.000000000000000000, -1.000000000000000000 ) ) ;
#293 = COORDINATED_UNIVERSAL_TIME_OFFSET ( 1, 0, .AHEAD. ) ;
#294 = EDGE_CURVE ( 'NONE', #38, #212, #189, .T. ) ;
#295 = APPROVAL_DATE_TIME ( #194, #256 ) ;
#296 = AXIS2_PLACEMENT_3D ( 'NONE', #223, #141, #241 ) ;
#297 = CALENDAR_DATE ( 2022, 20, 6 ) ;
#298 = TOROIDAL_SURFACE ( 'NONE', #28, 1.200000000000000178, 0.2000000000000000111 ) ;
#299 = EDGE_LOOP ( 'NONE', ( #228, #208 ) ) ;
#300 = DIRECTION ( 'NONE',  ( 1.000000000000000000, 0.000000000000000000, 0.000000000000000000 ) ) ;
#301 = ORIENTED_EDGE ( 'NONE', *, *, #105, .F. ) ;
#302 = ORIENTED_EDGE ( 'NONE', *, *, #275, .T. ) ;
#303 = PERSON_AND_ORGANIZATION ( #158, #254 ) ;
#304 = DIRECTION ( 'NONE',  ( -1.000000000000000000, 1.224646799147351975E-16, 0.000000000000000000 ) ) ;
#305 = DATE_AND_TIME ( #276, #195 ) ;
#306 = CARTESIAN_POINT ( 'NONE',  ( 0.000000000000000000, 0.000000000000000000, 317.0000000000000000 ) ) ;
#307 = EDGE_CURVE ( 'NONE', #7, #236, #10, .T. ) ;
ENDSEC;
END-ISO-10303-21;
