ISO-10303-21;
HEADER;
FILE_DESCRIPTION (( 'STEP AP203' ),
    '1' );
FILE_NAME ('18e3.STEP',
    '2022-06-20T09:17:35',
    ( '' ),
    ( '' ),
    'SwSTEP 2.0',
    'SolidWorks 2019',
    '' );
FILE_SCHEMA (( 'CONFIG_CONTROL_DESIGN' ));
ENDSEC;

DATA;
#1 = CARTESIAN_POINT ( 'NONE',  ( 16.00000000000000000, 1.959434878635765131E-15, 10.00000000000000000 ) ) ;
#2 = DIRECTION ( 'NONE',  ( -0.000000000000000000, -0.000000000000000000, -1.000000000000000000 ) ) ;
#3 = CC_DESIGN_DATE_AND_TIME_ASSIGNMENT ( #271, #158, ( #31 ) ) ;
#4 = DIRECTION ( 'NONE',  ( 0.000000000000000000, 0.000000000000000000, 1.000000000000000000 ) ) ;
#5 = LOCAL_TIME ( 11, 17, 35.00000000000000000, #63 ) ;
#6 = LINE ( 'NONE', #1, #188 ) ;
#7 = APPROVAL_DATE_TIME ( #222, #11 ) ;
#8 = DIRECTION ( 'NONE',  ( 0.000000000000000000, 0.000000000000000000, 1.000000000000000000 ) ) ;
#9 = ADVANCED_FACE ( 'NONE', ( #92 ), #94, .T. ) ;
#10 = CIRCLE ( 'NONE', #226, 12.50000000000000000 ) ;
#11 = APPROVAL ( #33, 'NEURÈENÝ' ) ;
#12 = APPLICATION_PROTOCOL_DEFINITION ( 'international standard', 'config_control_design', 1994, #299 ) ;
#13 = DIRECTION ( 'NONE',  ( 0.000000000000000000, 0.000000000000000000, 1.000000000000000000 ) ) ;
#14 = ADVANCED_FACE ( 'NONE', ( #234 ), #258, .F. ) ;
#15 = DATE_AND_TIME ( #86, #112 ) ;
#16 = AXIS2_PLACEMENT_3D ( 'NONE', #243, #283, #57 ) ;
#17 = PERSON_AND_ORGANIZATION ( #293, #123 ) ;
#18 = CC_DESIGN_PERSON_AND_ORGANIZATION_ASSIGNMENT ( #66, #208, ( #280 ) ) ;
#19 = EDGE_LOOP ( 'NONE', ( #115, #49 ) ) ;
#20 = SECURITY_CLASSIFICATION_LEVEL ( 'unclassified' ) ;
#21 = ORIENTED_EDGE ( 'NONE', *, *, #140, .T. ) ;
#22 = EDGE_CURVE ( 'NONE', #72, #256, #277, .T. ) ;
#23 = ORIENTED_EDGE ( 'NONE', *, *, #71, .F. ) ;
#24 = VECTOR ( 'NONE', #197, 1000.000000000000000 ) ;
#25 = ORIENTED_EDGE ( 'NONE', *, *, #130, .F. ) ;
#26 = CARTESIAN_POINT ( 'NONE',  ( -12.50000000000000000, 0.000000000000000000, 640.0000000000000000 ) ) ;
#27 = EDGE_CURVE ( 'NONE', #118, #235, #193, .T. ) ;
#28 = DIRECTION ( 'NONE',  ( -1.000000000000000000, 0.000000000000000000, 0.000000000000000000 ) ) ;
#29 = CARTESIAN_POINT ( 'NONE',  ( 0.000000000000000000, 0.000000000000000000, 640.0000000000000000 ) ) ;
#30 = DIRECTION ( 'NONE',  ( 1.000000000000000000, 0.000000000000000000, 0.000000000000000000 ) ) ;
#31 = PRODUCT_DEFINITION ( 'NEZNÁMÝ', '', #143, #250 ) ;
#32 = DIRECTION ( 'NONE',  ( -1.000000000000000000, 0.000000000000000000, 0.000000000000000000 ) ) ;
#33 = APPROVAL_STATUS ( 'not_yet_approved' ) ;
#34 = DIRECTION ( 'NONE',  ( 1.000000000000000000, 0.000000000000000000, -0.000000000000000000 ) ) ;
#35 = DIRECTION ( 'NONE',  ( 1.000000000000000000, 0.000000000000000000, 0.000000000000000000 ) ) ;
#36 = DIRECTION ( 'NONE',  ( 1.000000000000000000, 0.000000000000000000, 0.000000000000000000 ) ) ;
#37 = APPROVAL_DATE_TIME ( #58, #224 ) ;
#38 = AXIS2_PLACEMENT_3D ( 'NONE', #195, #129, #171 ) ;
#39 = APPROVAL_STATUS ( 'not_yet_approved' ) ;
#40 = AXIS2_PLACEMENT_3D ( 'NONE', #252, #157, #59 ) ;
#41 = EDGE_CURVE ( 'NONE', #256, #231, #229, .T. ) ;
#42 = PERSON_AND_ORGANIZATION ( #293, #123 ) ;
#43 = UNCERTAINTY_MEASURE_WITH_UNIT (LENGTH_MEASURE( 1.000000000000000082E-05 ), #159, 'distance_accuracy_value', 'NONE');
#44 = EDGE_LOOP ( 'NONE', ( #307, #120, #93, #279 ) ) ;
#45 = VERTEX_POINT ( 'NONE', #189 ) ;
#46 = AXIS2_PLACEMENT_3D ( 'NONE', #149, #236, #47 ) ;
#47 = DIRECTION ( 'NONE',  ( 1.000000000000000000, 0.000000000000000000, -0.000000000000000000 ) ) ;
#48 = EDGE_CURVE ( 'NONE', #256, #45, #153, .T. ) ;
#49 = ORIENTED_EDGE ( 'NONE', *, *, #288, .T. ) ;
#50 = COORDINATED_UNIVERSAL_TIME_OFFSET ( 1, 0, .AHEAD. ) ;
#51 = DIRECTION ( 'NONE',  ( -0.000000000000000000, -0.000000000000000000, -1.000000000000000000 ) ) ;
#52 = DIRECTION ( 'NONE',  ( 0.000000000000000000, 0.000000000000000000, 1.000000000000000000 ) ) ;
#53 = EDGE_CURVE ( 'NONE', #118, #215, #6, .T. ) ;
#54 = CARTESIAN_POINT ( 'NONE',  ( 0.000000000000000000, 0.000000000000000000, 640.0000000000000000 ) ) ;
#55 = CARTESIAN_POINT ( 'NONE',  ( 0.000000000000000000, 0.000000000000000000, 0.000000000000000000 ) ) ;
#56 = CALENDAR_DATE ( 2022, 20, 6 ) ;
#57 = DIRECTION ( 'NONE',  ( 0.000000000000000000, 0.000000000000000000, -1.000000000000000000 ) ) ;
#58 = DATE_AND_TIME ( #182, #267 ) ;
#59 = DIRECTION ( 'NONE',  ( 1.000000000000000000, 0.000000000000000000, 0.000000000000000000 ) ) ;
#60 = EDGE_CURVE ( 'NONE', #72, #146, #10, .T. ) ;
#61 = APPROVAL_PERSON_ORGANIZATION ( #212, #11, #239 ) ;
#62 = ORIENTED_EDGE ( 'NONE', *, *, #140, .F. ) ;
#63 = COORDINATED_UNIVERSAL_TIME_OFFSET ( 1, 0, .AHEAD. ) ;
#64 = FACE_OUTER_BOUND ( 'NONE', #282, .T. ) ;
#65 = APPROVAL_PERSON_ORGANIZATION ( #81, #224, #175 ) ;
#66 = PERSON_AND_ORGANIZATION ( #293, #123 ) ;
#67 = CARTESIAN_POINT ( 'NONE',  ( 0.000000000000000000, 0.000000000000000000, 10.00000000000000000 ) ) ;
#68 = DIRECTION ( 'NONE',  ( -1.000000000000000000, 1.224646799147353207E-16, 0.000000000000000000 ) ) ;
#69 = PRODUCT_DEFINITION_SHAPE ( 'NONE', 'NONE',  #31 ) ;
#70 = ORIENTED_EDGE ( 'NONE', *, *, #264, .T. ) ;
#71 = EDGE_CURVE ( 'NONE', #146, #72, #95, .T. ) ;
#72 = VERTEX_POINT ( 'NONE', #170 ) ;
#73 = ORIENTED_EDGE ( 'NONE', *, *, #264, .F. ) ;
#74 = CARTESIAN_POINT ( 'NONE',  ( 0.000000000000000000, 0.000000000000000000, 10.00000000000000000 ) ) ;
#75 = AXIS2_PLACEMENT_3D ( 'NONE', #150, #8, #34 ) ;
#76 = DIRECTION ( 'NONE',  ( -1.000000000000000000, 0.000000000000000000, 0.000000000000000000 ) ) ;
#77 = DIRECTION ( 'NONE',  ( 0.000000000000000000, 0.000000000000000000, 1.000000000000000000 ) ) ;
#78 = CARTESIAN_POINT ( 'NONE',  ( -16.00000000000000000, 0.000000000000000000, 0.000000000000000000 ) ) ;
#79 = LOCAL_TIME ( 11, 17, 35.00000000000000000, #50 ) ;
#80 = CARTESIAN_POINT ( 'NONE',  ( 0.000000000000000000, 0.000000000000000000, 10.19999999999998685 ) ) ;
#81 = PERSON_AND_ORGANIZATION ( #293, #123 ) ;
#82 = CC_DESIGN_PERSON_AND_ORGANIZATION_ASSIGNMENT ( #17, #132, ( #163 ) ) ;
#83 = DIRECTION ( 'NONE',  ( -1.000000000000000000, 0.000000000000000000, 0.000000000000000000 ) ) ;
#84 = PERSON_AND_ORGANIZATION_ROLE ( 'creator' ) ;
#85 = CIRCLE ( 'NONE', #38, 16.00000000000000000 ) ;
#86 = CALENDAR_DATE ( 2022, 20, 6 ) ;
#87 = EDGE_CURVE ( 'NONE', #231, #187, #110, .T. ) ;
#88 = PERSON_AND_ORGANIZATION_ROLE ( 'creator' ) ;
#89 = ORIENTED_EDGE ( 'NONE', *, *, #22, .F. ) ;
#90 = CIRCLE ( 'NONE', #173, 12.70000000000000107 ) ;
#91 = DATE_AND_TIME ( #205, #178 ) ;
#92 = FACE_OUTER_BOUND ( 'NONE', #200, .T. ) ;
#93 = ORIENTED_EDGE ( 'NONE', *, *, #22, .T. ) ;
#94 = CYLINDRICAL_SURFACE ( 'NONE', #213, 16.00000000000000000 ) ;
#95 = CIRCLE ( 'NONE', #142, 12.50000000000000000 ) ;
#96 = EDGE_LOOP ( 'NONE', ( #135, #304, #25, #114 ) ) ;
#97 = CARTESIAN_POINT ( 'NONE',  ( 0.000000000000000000, 0.000000000000000000, 640.0000000000000000 ) ) ;
#98 = CARTESIAN_POINT ( 'NONE',  ( 16.00000000000000000, 1.959434878635765131E-15, 0.000000000000000000 ) ) ;
#99 = AXIS2_PLACEMENT_3D ( 'NONE', #294, #204, #83 ) ;
#100 =( GEOMETRIC_REPRESENTATION_CONTEXT ( 3 ) GLOBAL_UNCERTAINTY_ASSIGNED_CONTEXT ( ( #43 ) ) GLOBAL_UNIT_ASSIGNED_CONTEXT ( ( #159, #270, #297 ) ) REPRESENTATION_CONTEXT ( 'NONE', 'WORKASPACE' ) );
#101 = CARTESIAN_POINT ( 'NONE',  ( -16.00000000000000000, 0.000000000000000000, 10.00000000000000000 ) ) ;
#102 = CARTESIAN_POINT ( 'NONE',  ( 16.00000000000000000, 1.959434878635765131E-15, 10.00000000000000000 ) ) ;
#103 = LINE ( 'NONE', #221, #284 ) ;
#104 = CLOSED_SHELL ( 'NONE', ( #245, #145, #273, #9, #298, #14, #122, #201, #302 ) ) ;
#105 = AXIS2_PLACEMENT_3D ( 'NONE', #230, #133, #36 ) ;
#106 = EDGE_CURVE ( 'NONE', #160, #215, #301, .T. ) ;
#107 = DIRECTION ( 'NONE',  ( 1.000000000000000000, 0.000000000000000000, 0.000000000000000000 ) ) ;
#108 = ORIENTED_EDGE ( 'NONE', *, *, #106, .F. ) ;
#109 = APPLICATION_PROTOCOL_DEFINITION ( 'international standard', 'config_control_design', 1994, #137 ) ;
#110 = CIRCLE ( 'NONE', #16, 0.2000000000000005107 ) ;
#111 = APPROVAL_DATE_TIME ( #15, #251 ) ;
#112 = LOCAL_TIME ( 11, 17, 35.00000000000000000, #134 ) ;
#113 = EDGE_LOOP ( 'NONE', ( #139, #305 ) ) ;
#114 = ORIENTED_EDGE ( 'NONE', *, *, #87, .F. ) ;
#115 = ORIENTED_EDGE ( 'NONE', *, *, #130, .T. ) ;
#116 = TOROIDAL_SURFACE ( 'NONE', #296, 12.70000000000000107, 0.2000000000000000111 ) ;
#117 = PERSON_AND_ORGANIZATION ( #293, #123 ) ;
#118 = VERTEX_POINT ( 'NONE', #102 ) ;
#119 = MANIFOLD_SOLID_BREP ( 'Zaoblit1', #104 ) ;
#120 = ORIENTED_EDGE ( 'NONE', *, *, #60, .F. ) ;
#121 = ORIENTED_EDGE ( 'NONE', *, *, #87, .T. ) ;
#122 = ADVANCED_FACE ( 'NONE', ( #216 ), #265, .T. ) ;
#123 = ORGANIZATION ( 'NEURÈENÝ', 'NEURÈENÝ', '' ) ;
#124 = CARTESIAN_POINT ( 'NONE',  ( 0.000000000000000000, 0.000000000000000000, 640.0000000000000000 ) ) ;
#125 = DIRECTION ( 'NONE',  ( -0.000000000000000000, -0.000000000000000000, -1.000000000000000000 ) ) ;
#126 = FACE_OUTER_BOUND ( 'NONE', #96, .T. ) ;
#127 = CIRCLE ( 'NONE', #246, 12.50000000000000000 ) ;
#128 = DIRECTION ( 'NONE',  ( 0.000000000000000000, 0.000000000000000000, 1.000000000000000000 ) ) ;
#129 = DIRECTION ( 'NONE',  ( 0.000000000000000000, 0.000000000000000000, 1.000000000000000000 ) ) ;
#130 = EDGE_CURVE ( 'NONE', #187, #45, #90, .T. ) ;
#131 = VECTOR ( 'NONE', #209, 1000.000000000000000 ) ;
#132 = PERSON_AND_ORGANIZATION_ROLE ( 'design_owner' ) ;
#133 = DIRECTION ( 'NONE',  ( 0.000000000000000000, 0.000000000000000000, 1.000000000000000000 ) ) ;
#134 = COORDINATED_UNIVERSAL_TIME_OFFSET ( 1, 0, .AHEAD. ) ;
#135 = ORIENTED_EDGE ( 'NONE', *, *, #41, .F. ) ;
#136 = CIRCLE ( 'NONE', #207, 16.00000000000000000 ) ;
#137 = APPLICATION_CONTEXT ( 'configuration controlled 3d designs of mechanical parts and assemblies' ) ;
#138 = ORIENTED_EDGE ( 'NONE', *, *, #217, .F. ) ;
#139 = ORIENTED_EDGE ( 'NONE', *, *, #60, .T. ) ;
#140 = EDGE_CURVE ( 'NONE', #235, #118, #85, .T. ) ;
#141 = ORIENTED_EDGE ( 'NONE', *, *, #217, .T. ) ;
#142 = AXIS2_PLACEMENT_3D ( 'NONE', #124, #52, #35 ) ;
#143 = PRODUCT_DEFINITION_FORMATION_WITH_SPECIFIED_SOURCE ( 'LIBOVOLNÝ', '', #163, .NOT_KNOWN. ) ;
#144 = DIRECTION ( 'NONE',  ( 0.000000000000000000, 0.000000000000000000, 1.000000000000000000 ) ) ;
#145 = ADVANCED_FACE ( 'NONE', ( #263 ), #289, .T. ) ;
#146 = VERTEX_POINT ( 'NONE', #152 ) ;
#147 = DATE_TIME_ROLE ( 'classification_date' ) ;
#148 = PRODUCT_RELATED_PRODUCT_CATEGORY ( 'detail', '', ( #163 ) ) ;
#149 = CARTESIAN_POINT ( 'NONE',  ( 0.000000000000000000, 0.000000000000000000, 0.000000000000000000 ) ) ;
#150 = CARTESIAN_POINT ( 'NONE',  ( 0.000000000000000000, 0.000000000000000000, 640.0000000000000000 ) ) ;
#151 = CARTESIAN_POINT ( 'NONE',  ( 12.70000000000000107, 0.000000000000000000, 9.999999999999992895 ) ) ;
#152 = CARTESIAN_POINT ( 'NONE',  ( 12.50000000000000000, 1.530808498934191521E-15, 640.0000000000000000 ) ) ;
#153 = CIRCLE ( 'NONE', #220, 0.2000000000000005107 ) ;
#154 = APPROVAL_PERSON_ORGANIZATION ( #228, #251, #199 ) ;
#155 = LINE ( 'NONE', #101, #24 ) ;
#156 = DIRECTION ( 'NONE',  ( 1.000000000000000000, 0.000000000000000000, 0.000000000000000000 ) ) ;
#157 = DIRECTION ( 'NONE',  ( 0.000000000000000000, 0.000000000000000000, 1.000000000000000000 ) ) ;
#158 = DATE_TIME_ROLE ( 'creation_date' ) ;
#159 =( LENGTH_UNIT ( ) NAMED_UNIT ( * ) SI_UNIT ( .MILLI., .METRE. ) );
#160 = VERTEX_POINT ( 'NONE', #78 ) ;
#161 = CARTESIAN_POINT ( 'NONE',  ( 0.000000000000000000, 0.000000000000000000, 10.19999999999998685 ) ) ;
#162 = EDGE_LOOP ( 'NONE', ( #21, #233 ) ) ;
#163 = PRODUCT ( '18e3', '18e3', '', ( #198 ) ) ;
#164 = CARTESIAN_POINT ( 'NONE',  ( 0.000000000000000000, 0.000000000000000000, 10.00000000000000000 ) ) ;
#165 = AXIS2_PLACEMENT_3D ( 'NONE', #177, #13, #249 ) ;
#166 = ORIENTED_EDGE ( 'NONE', *, *, #27, .F. ) ;
#167 = ORIENTED_EDGE ( 'NONE', *, *, #53, .F. ) ;
#168 = DIRECTION ( 'NONE',  ( 1.000000000000000000, 0.000000000000000000, 0.000000000000000000 ) ) ;
#169 = AXIS2_PLACEMENT_3D ( 'NONE', #67, #144, #303 ) ;
#170 = CARTESIAN_POINT ( 'NONE',  ( -12.50000000000000000, 0.000000000000000000, 640.0000000000000000 ) ) ;
#171 = DIRECTION ( 'NONE',  ( 1.000000000000000000, 0.000000000000000000, 0.000000000000000000 ) ) ;
#172 = DIRECTION ( 'NONE',  ( -0.000000000000000000, -0.000000000000000000, -1.000000000000000000 ) ) ;
#173 = AXIS2_PLACEMENT_3D ( 'NONE', #74, #218, #156 ) ;
#174 = FACE_OUTER_BOUND ( 'NONE', #210, .T. ) ;
#175 = APPROVAL_ROLE ( '' ) ;
#176 = ORIENTED_EDGE ( 'NONE', *, *, #237, .T. ) ;
#177 = CARTESIAN_POINT ( 'NONE',  ( 0.000000000000000000, 0.000000000000000000, 10.00000000000000000 ) ) ;
#178 = LOCAL_TIME ( 11, 17, 35.00000000000000000, #254 ) ;
#179 = CARTESIAN_POINT ( 'NONE',  ( 0.000000000000000000, 0.000000000000000000, 10.00000000000000000 ) ) ;
#180 = EDGE_CURVE ( 'NONE', #215, #160, #136, .T. ) ;
#181 = EDGE_LOOP ( 'NONE', ( #108, #259 ) ) ;
#182 = CALENDAR_DATE ( 2022, 20, 6 ) ;
#183 = PERSON_AND_ORGANIZATION_ROLE ( 'design_supplier' ) ;
#184 = ORIENTED_EDGE ( 'NONE', *, *, #53, .T. ) ;
#185 = ADVANCED_BREP_SHAPE_REPRESENTATION ( '18e3', ( #119, #105 ), #100 ) ;
#186 = DIRECTION ( 'NONE',  ( 1.000000000000000000, 0.000000000000000000, 0.000000000000000000 ) ) ;
#187 = VERTEX_POINT ( 'NONE', #151 ) ;
#188 = VECTOR ( 'NONE', #287, 1000.000000000000000 ) ;
#189 = CARTESIAN_POINT ( 'NONE',  ( -12.70000000000000107, 1.555301434917138630E-15, 9.999999999999992895 ) ) ;
#190 = ORIENTED_EDGE ( 'NONE', *, *, #180, .T. ) ;
#191 = CARTESIAN_POINT ( 'NONE',  ( 0.000000000000000000, 0.000000000000000000, 0.000000000000000000 ) ) ;
#192 = DIRECTION ( 'NONE',  ( 1.000000000000000000, 0.000000000000000000, 0.000000000000000000 ) ) ;
#193 = CIRCLE ( 'NONE', #169, 16.00000000000000000 ) ;
#194 = CARTESIAN_POINT ( 'NONE',  ( 12.50000000000000000, 1.530808498934191521E-15, 10.19999999999998685 ) ) ;
#195 = CARTESIAN_POINT ( 'NONE',  ( 0.000000000000000000, 0.000000000000000000, 10.00000000000000000 ) ) ;
#196 = CC_DESIGN_PERSON_AND_ORGANIZATION_ASSIGNMENT ( #117, #88, ( #143 ) ) ;
#197 = DIRECTION ( 'NONE',  ( -0.000000000000000000, -0.000000000000000000, -1.000000000000000000 ) ) ;
#198 = MECHANICAL_CONTEXT ( 'NONE', #137, 'mechanical' ) ;
#199 = APPROVAL_ROLE ( '' ) ;
#200 = EDGE_LOOP ( 'NONE', ( #167, #62, #70, #206 ) ) ;
#201 = ADVANCED_FACE ( 'NONE', ( #241 ), #261, .T. ) ;
#202 = TOROIDAL_SURFACE ( 'NONE', #40, 12.70000000000000107, 0.2000000000000000111 ) ;
#203 = CC_DESIGN_DATE_AND_TIME_ASSIGNMENT ( #91, #147, ( #280 ) ) ;
#204 = DIRECTION ( 'NONE',  ( -0.000000000000000000, -0.000000000000000000, -1.000000000000000000 ) ) ;
#205 = CALENDAR_DATE ( 2022, 20, 6 ) ;
#206 = ORIENTED_EDGE ( 'NONE', *, *, #106, .T. ) ;
#207 = AXIS2_PLACEMENT_3D ( 'NONE', #55, #223, #168 ) ;
#208 = PERSON_AND_ORGANIZATION_ROLE ( 'classification_officer' ) ;
#209 = DIRECTION ( 'NONE',  ( -0.000000000000000000, -0.000000000000000000, -1.000000000000000000 ) ) ;
#210 = EDGE_LOOP ( 'NONE', ( #166, #184, #190, #73 ) ) ;
#211 = ORIENTED_EDGE ( 'NONE', *, *, #288, .F. ) ;
#212 = PERSON_AND_ORGANIZATION ( #293, #123 ) ;
#213 = AXIS2_PLACEMENT_3D ( 'NONE', #164, #51, #28 ) ;
#214 = CC_DESIGN_PERSON_AND_ORGANIZATION_ASSIGNMENT ( #42, #183, ( #143 ) ) ;
#215 = VERTEX_POINT ( 'NONE', #98 ) ;
#216 = FACE_OUTER_BOUND ( 'NONE', #44, .T. ) ;
#217 = EDGE_CURVE ( 'NONE', #231, #256, #127, .T. ) ;
#218 = DIRECTION ( 'NONE',  ( -0.000000000000000000, -0.000000000000000000, -1.000000000000000000 ) ) ;
#219 = CARTESIAN_POINT ( 'NONE',  ( 0.000000000000000000, 0.000000000000000000, 10.19999999999998685 ) ) ;
#220 = AXIS2_PLACEMENT_3D ( 'NONE', #278, #281, #68 ) ;
#221 = CARTESIAN_POINT ( 'NONE',  ( 12.50000000000000000, 1.530808498934191521E-15, 640.0000000000000000 ) ) ;
#222 = DATE_AND_TIME ( #56, #79 ) ;
#223 = DIRECTION ( 'NONE',  ( 0.000000000000000000, 0.000000000000000000, 1.000000000000000000 ) ) ;
#224 = APPROVAL ( #248, 'NEURÈENÝ' ) ;
#225 = DIRECTION ( 'NONE',  ( -0.000000000000000000, -0.000000000000000000, -1.000000000000000000 ) ) ;
#226 = AXIS2_PLACEMENT_3D ( 'NONE', #97, #77, #192 ) ;
#227 = CALENDAR_DATE ( 2022, 20, 6 ) ;
#228 = PERSON_AND_ORGANIZATION ( #293, #123 ) ;
#229 = CIRCLE ( 'NONE', #275, 12.50000000000000000 ) ;
#230 = CARTESIAN_POINT ( 'NONE',  ( 0.000000000000000000, 0.000000000000000000, 0.000000000000000000 ) ) ;
#231 = VERTEX_POINT ( 'NONE', #194 ) ;
#232 = CIRCLE ( 'NONE', #306, 12.70000000000000107 ) ;
#233 = ORIENTED_EDGE ( 'NONE', *, *, #27, .T. ) ;
#234 = FACE_OUTER_BOUND ( 'NONE', #181, .T. ) ;
#235 = VERTEX_POINT ( 'NONE', #238 ) ;
#236 = DIRECTION ( 'NONE',  ( 0.000000000000000000, 0.000000000000000000, 1.000000000000000000 ) ) ;
#237 = EDGE_CURVE ( 'NONE', #146, #231, #103, .T. ) ;
#238 = CARTESIAN_POINT ( 'NONE',  ( -16.00000000000000000, 0.000000000000000000, 10.00000000000000000 ) ) ;
#239 = APPROVAL_ROLE ( '' ) ;
#240 = DIRECTION ( 'NONE',  ( 1.000000000000000000, 0.000000000000000000, 0.000000000000000000 ) ) ;
#241 = FACE_OUTER_BOUND ( 'NONE', #113, .T. ) ;
#242 = CC_DESIGN_PERSON_AND_ORGANIZATION_ASSIGNMENT ( #295, #84, ( #31 ) ) ;
#243 = CARTESIAN_POINT ( 'NONE',  ( 12.70000000000000107, 0.000000000000000000, 10.19999999999998685 ) ) ;
#244 = FACE_BOUND ( 'NONE', #19, .T. ) ;
#245 = ADVANCED_FACE ( 'NONE', ( #126 ), #116, .F. ) ;
#246 = AXIS2_PLACEMENT_3D ( 'NONE', #80, #128, #240 ) ;
#247 = CC_DESIGN_APPROVAL ( #251, ( #143 ) ) ;
#248 = APPROVAL_STATUS ( 'not_yet_approved' ) ;
#249 = DIRECTION ( 'NONE',  ( 1.000000000000000000, 0.000000000000000000, -0.000000000000000000 ) ) ;
#250 = DESIGN_CONTEXT ( 'detailed design', #299, 'design' ) ;
#251 = APPROVAL ( #39, 'NEURÈENÝ' ) ;
#252 = CARTESIAN_POINT ( 'NONE',  ( 0.000000000000000000, 0.000000000000000000, 10.19999999999998685 ) ) ;
#253 = AXIS2_PLACEMENT_3D ( 'NONE', #54, #125, #32 ) ;
#254 = COORDINATED_UNIVERSAL_TIME_OFFSET ( 1, 0, .AHEAD. ) ;
#255 = DIRECTION ( 'NONE',  ( 0.000000000000000000, 0.000000000000000000, 1.000000000000000000 ) ) ;
#256 = VERTEX_POINT ( 'NONE', #290 ) ;
#257 = AXIS2_PLACEMENT_3D ( 'NONE', #29, #2, #76 ) ;
#258 = PLANE ( 'NONE',  #46 ) ;
#259 = ORIENTED_EDGE ( 'NONE', *, *, #180, .F. ) ;
#260 = ORIENTED_EDGE ( 'NONE', *, *, #48, .F. ) ;
#261 = PLANE ( 'NONE',  #75 ) ;
#262 = DIRECTION ( 'NONE',  ( 1.000000000000000000, 0.000000000000000000, 0.000000000000000000 ) ) ;
#263 = FACE_OUTER_BOUND ( 'NONE', #300, .T. ) ;
#264 = EDGE_CURVE ( 'NONE', #235, #160, #155, .T. ) ;
#265 = CYLINDRICAL_SURFACE ( 'NONE', #253, 12.50000000000000000 ) ;
#266 = AXIS2_PLACEMENT_3D ( 'NONE', #191, #285, #262 ) ;
#267 = LOCAL_TIME ( 11, 17, 35.00000000000000000, #269 ) ;
#268 = CYLINDRICAL_SURFACE ( 'NONE', #99, 16.00000000000000000 ) ;
#269 = COORDINATED_UNIVERSAL_TIME_OFFSET ( 1, 0, .AHEAD. ) ;
#270 =( NAMED_UNIT ( * ) PLANE_ANGLE_UNIT ( ) SI_UNIT ( $, .RADIAN. ) );
#271 = DATE_AND_TIME ( #227, #5 ) ;
#272 = PLANE ( 'NONE',  #165 ) ;
#273 = ADVANCED_FACE ( 'NONE', ( #174 ), #268, .T. ) ;
#274 = FACE_OUTER_BOUND ( 'NONE', #162, .T. ) ;
#275 = AXIS2_PLACEMENT_3D ( 'NONE', #161, #255, #186 ) ;
#276 = CC_DESIGN_APPROVAL ( #224, ( #31 ) ) ;
#277 = LINE ( 'NONE', #26, #131 ) ;
#278 = CARTESIAN_POINT ( 'NONE',  ( -12.70000000000000107, 1.555301434917138630E-15, 10.19999999999998685 ) ) ;
#279 = ORIENTED_EDGE ( 'NONE', *, *, #41, .T. ) ;
#280 = SECURITY_CLASSIFICATION ( '', '', #20 ) ;
#281 = DIRECTION ( 'NONE',  ( 1.224646799147353207E-16, 1.000000000000000000, -0.000000000000000000 ) ) ;
#282 = EDGE_LOOP ( 'NONE', ( #260, #138, #121, #211 ) ) ;
#283 = DIRECTION ( 'NONE',  ( 0.000000000000000000, -1.000000000000000000, 0.000000000000000000 ) ) ;
#284 = VECTOR ( 'NONE', #172, 1000.000000000000000 ) ;
#285 = DIRECTION ( 'NONE',  ( 0.000000000000000000, 0.000000000000000000, 1.000000000000000000 ) ) ;
#286 = CC_DESIGN_SECURITY_CLASSIFICATION ( #280, ( #143 ) ) ;
#287 = DIRECTION ( 'NONE',  ( -0.000000000000000000, -0.000000000000000000, -1.000000000000000000 ) ) ;
#288 = EDGE_CURVE ( 'NONE', #45, #187, #232, .T. ) ;
#289 = CYLINDRICAL_SURFACE ( 'NONE', #257, 12.50000000000000000 ) ;
#290 = CARTESIAN_POINT ( 'NONE',  ( -12.50000000000000000, 0.000000000000000000, 10.19999999999998685 ) ) ;
#291 = CC_DESIGN_APPROVAL ( #11, ( #280 ) ) ;
#292 = SHAPE_DEFINITION_REPRESENTATION ( #69, #185 ) ;
#293 = PERSON ( 'NEURÈENÝ', 'NEURÈENÝ', 'NEURÈENÝ', ('NEURÈENÝ'), ('NEURÈENÝ'), ('NEURÈENÝ') ) ;
#294 = CARTESIAN_POINT ( 'NONE',  ( 0.000000000000000000, 0.000000000000000000, 10.00000000000000000 ) ) ;
#295 = PERSON_AND_ORGANIZATION ( #293, #123 ) ;
#296 = AXIS2_PLACEMENT_3D ( 'NONE', #219, #4, #30 ) ;
#297 =( NAMED_UNIT ( * ) SI_UNIT ( $, .STERADIAN. ) SOLID_ANGLE_UNIT ( ) );
#298 = ADVANCED_FACE ( 'NONE', ( #244, #274 ), #272, .T. ) ;
#299 = APPLICATION_CONTEXT ( 'configuration controlled 3d designs of mechanical parts and assemblies' ) ;
#300 = EDGE_LOOP ( 'NONE', ( #23, #176, #141, #89 ) ) ;
#301 = CIRCLE ( 'NONE', #266, 16.00000000000000000 ) ;
#302 = ADVANCED_FACE ( 'NONE', ( #64 ), #202, .F. ) ;
#303 = DIRECTION ( 'NONE',  ( 1.000000000000000000, 0.000000000000000000, 0.000000000000000000 ) ) ;
#304 = ORIENTED_EDGE ( 'NONE', *, *, #48, .T. ) ;
#305 = ORIENTED_EDGE ( 'NONE', *, *, #71, .T. ) ;
#306 = AXIS2_PLACEMENT_3D ( 'NONE', #179, #225, #107 ) ;
#307 = ORIENTED_EDGE ( 'NONE', *, *, #237, .F. ) ;
ENDSEC;
END-ISO-10303-21;
