ISO-10303-21;
HEADER;
FILE_DESCRIPTION (( 'STEP AP203' ),
    '1' );
FILE_NAME ('16ac.STEP',
    '2022-06-20T09:44:55',
    ( '' ),
    ( '' ),
    'SwSTEP 2.0',
    'SolidWorks 2019',
    '' );
FILE_SCHEMA (( 'CONFIG_CONTROL_DESIGN' ));
ENDSEC;

DATA;
#1 = CARTESIAN_POINT ( 'NONE',  ( 4.250000000000000000, 5.204748896376250699E-16, 255.0000000000000000 ) ) ;
#2 = VERTEX_POINT ( 'NONE', #70 ) ;
#3 = CC_DESIGN_PERSON_AND_ORGANIZATION_ASSIGNMENT ( #251, #39, ( #166 ) ) ;
#4 = DESIGN_CONTEXT ( 'detailed design', #98, 'design' ) ;
#5 = AXIS2_PLACEMENT_3D ( 'NONE', #69, #276, #76 ) ;
#6 = CARTESIAN_POINT ( 'NONE',  ( 0.000000000000000000, 0.000000000000000000, 255.0000000000000000 ) ) ;
#7 = EDGE_CURVE ( 'NONE', #62, #168, #275, .T. ) ;
#8 = CYLINDRICAL_SURFACE ( 'NONE', #10, 7.000000000000000000 ) ;
#9 = CARTESIAN_POINT ( 'NONE',  ( -4.250000000000000000, 0.000000000000000000, 5.200000000000009948 ) ) ;
#10 = AXIS2_PLACEMENT_3D ( 'NONE', #32, #192, #214 ) ;
#11 = APPROVAL_STATUS ( 'not_yet_approved' ) ;
#12 = DIRECTION ( 'NONE',  ( 0.000000000000000000, 0.000000000000000000, 1.000000000000000000 ) ) ;
#13 = AXIS2_PLACEMENT_3D ( 'NONE', #245, #33, #35 ) ;
#14 = CALENDAR_DATE ( 2022, 20, 6 ) ;
#15 = CC_DESIGN_PERSON_AND_ORGANIZATION_ASSIGNMENT ( #169, #195, ( #166 ) ) ;
#16 = FACE_BOUND ( 'NONE', #212, .T. ) ;
#17 = CC_DESIGN_APPROVAL ( #296, ( #166 ) ) ;
#18 = CARTESIAN_POINT ( 'NONE',  ( -4.250000000000000000, 0.000000000000000000, 255.0000000000000000 ) ) ;
#19 = ORIENTED_EDGE ( 'NONE', *, *, #121, .T. ) ;
#20 = VERTEX_POINT ( 'NONE', #237 ) ;
#21 = CARTESIAN_POINT ( 'NONE',  ( 0.000000000000000000, 0.000000000000000000, 5.000000000000000000 ) ) ;
#22 =( GEOMETRIC_REPRESENTATION_CONTEXT ( 3 ) GLOBAL_UNCERTAINTY_ASSIGNED_CONTEXT ( ( #213 ) ) GLOBAL_UNIT_ASSIGNED_CONTEXT ( ( #117, #144, #217 ) ) REPRESENTATION_CONTEXT ( 'NONE', 'WORKASPACE' ) );
#23 = LINE ( 'NONE', #1, #97 ) ;
#24 = ADVANCED_BREP_SHAPE_REPRESENTATION ( '16ac', ( #220, #53 ), #22 ) ;
#25 = ORIENTED_EDGE ( 'NONE', *, *, #102, .F. ) ;
#26 = APPROVAL_PERSON_ORGANIZATION ( #162, #205, #137 ) ;
#27 = DIRECTION ( 'NONE',  ( 0.000000000000000000, 0.000000000000000000, 1.000000000000000000 ) ) ;
#28 = ORIENTED_EDGE ( 'NONE', *, *, #167, .T. ) ;
#29 = EDGE_CURVE ( 'NONE', #259, #20, #221, .T. ) ;
#30 = ORIENTED_EDGE ( 'NONE', *, *, #102, .T. ) ;
#31 = AXIS2_PLACEMENT_3D ( 'NONE', #40, #50, #135 ) ;
#32 = CARTESIAN_POINT ( 'NONE',  ( 0.000000000000000000, 0.000000000000000000, 5.000000000000000000 ) ) ;
#33 = DIRECTION ( 'NONE',  ( 0.000000000000000000, 0.000000000000000000, 1.000000000000000000 ) ) ;
#34 = DIRECTION ( 'NONE',  ( -0.000000000000000000, -0.000000000000000000, -1.000000000000000000 ) ) ;
#35 = DIRECTION ( 'NONE',  ( 1.000000000000000000, 0.000000000000000000, -0.000000000000000000 ) ) ;
#36 = MECHANICAL_CONTEXT ( 'NONE', #264, 'mechanical' ) ;
#37 = PERSON_AND_ORGANIZATION ( #203, #194 ) ;
#38 = ADVANCED_FACE ( 'NONE', ( #292 ), #95, .T. ) ;
#39 = PERSON_AND_ORGANIZATION_ROLE ( 'creator' ) ;
#40 = CARTESIAN_POINT ( 'NONE',  ( 0.000000000000000000, 0.000000000000000000, 5.200000000000009948 ) ) ;
#41 = AXIS2_PLACEMENT_3D ( 'NONE', #6, #290, #115 ) ;
#42 = EDGE_LOOP ( 'NONE', ( #271, #124, #183, #19 ) ) ;
#43 = SECURITY_CLASSIFICATION_LEVEL ( 'unclassified' ) ;
#44 = CARTESIAN_POINT ( 'NONE',  ( -7.000000000000000000, 0.000000000000000000, 0.000000000000000000 ) ) ;
#45 = EDGE_CURVE ( 'NONE', #168, #2, #258, .T. ) ;
#46 = DIRECTION ( 'NONE',  ( 1.000000000000000000, 0.000000000000000000, 0.000000000000000000 ) ) ;
#47 = CIRCLE ( 'NONE', #218, 7.000000000000000000 ) ;
#48 = DIRECTION ( 'NONE',  ( 0.000000000000000000, -1.000000000000000000, 0.000000000000000000 ) ) ;
#49 = ORIENTED_EDGE ( 'NONE', *, *, #130, .T. ) ;
#50 = DIRECTION ( 'NONE',  ( 0.000000000000000000, 0.000000000000000000, 1.000000000000000000 ) ) ;
#51 = ORIENTED_EDGE ( 'NONE', *, *, #107, .F. ) ;
#52 = VERTEX_POINT ( 'NONE', #165 ) ;
#53 = AXIS2_PLACEMENT_3D ( 'NONE', #140, #12, #274 ) ;
#54 = COORDINATED_UNIVERSAL_TIME_OFFSET ( 1, 0, .AHEAD. ) ;
#55 = CIRCLE ( 'NONE', #113, 0.1999999999999996503 ) ;
#56 = APPROVAL_ROLE ( '' ) ;
#57 = LOCAL_TIME ( 11, 44, 55.00000000000000000, #142 ) ;
#58 = ADVANCED_FACE ( 'NONE', ( #281 ), #190, .F. ) ;
#59 = FACE_OUTER_BOUND ( 'NONE', #171, .T. ) ;
#60 = PRODUCT_DEFINITION_SHAPE ( 'NONE', 'NONE',  #287 ) ;
#61 = PERSON_AND_ORGANIZATION ( #203, #194 ) ;
#62 = VERTEX_POINT ( 'NONE', #9 ) ;
#63 = CARTESIAN_POINT ( 'NONE',  ( 0.000000000000000000, 0.000000000000000000, 0.000000000000000000 ) ) ;
#64 = DIRECTION ( 'NONE',  ( 1.000000000000000000, 0.000000000000000000, 0.000000000000000000 ) ) ;
#65 = ADVANCED_FACE ( 'NONE', ( #16, #273 ), #146, .T. ) ;
#66 = PRODUCT ( '16ac', '16ac', '', ( #36 ) ) ;
#67 = CIRCLE ( 'NONE', #73, 4.450000000000000178 ) ;
#68 = CARTESIAN_POINT ( 'NONE',  ( 0.000000000000000000, 0.000000000000000000, 5.000000000000000000 ) ) ;
#69 = CARTESIAN_POINT ( 'NONE',  ( 0.000000000000000000, 0.000000000000000000, 255.0000000000000000 ) ) ;
#70 = CARTESIAN_POINT ( 'NONE',  ( 4.450000000000000178, 0.000000000000000000, 5.000000000000005329 ) ) ;
#71 = FACE_OUTER_BOUND ( 'NONE', #174, .T. ) ;
#72 = ORIENTED_EDGE ( 'NONE', *, *, #211, .F. ) ;
#73 = AXIS2_PLACEMENT_3D ( 'NONE', #68, #108, #147 ) ;
#74 = EDGE_LOOP ( 'NONE', ( #81, #197 ) ) ;
#75 = CIRCLE ( 'NONE', #110, 4.250000000000000000 ) ;
#76 = DIRECTION ( 'NONE',  ( 1.000000000000000000, 0.000000000000000000, 0.000000000000000000 ) ) ;
#77 = VECTOR ( 'NONE', #34, 1000.000000000000000 ) ;
#78 = APPLICATION_PROTOCOL_DEFINITION ( 'international standard', 'config_control_design', 1994, #98 ) ;
#79 = DATE_TIME_ROLE ( 'creation_date' ) ;
#80 = CALENDAR_DATE ( 2022, 20, 6 ) ;
#81 = ORIENTED_EDGE ( 'NONE', *, *, #121, .F. ) ;
#82 = APPROVAL_STATUS ( 'not_yet_approved' ) ;
#83 = DATE_AND_TIME ( #106, #233 ) ;
#84 = DIRECTION ( 'NONE',  ( 0.000000000000000000, 0.000000000000000000, 1.000000000000000000 ) ) ;
#85 = ADVANCED_FACE ( 'NONE', ( #216 ), #96, .F. ) ;
#86 = CIRCLE ( 'NONE', #268, 4.250000000000000000 ) ;
#87 = CC_DESIGN_SECURITY_CLASSIFICATION ( #241, ( #166 ) ) ;
#88 = CARTESIAN_POINT ( 'NONE',  ( -4.450000000000000178, 5.449678256205721784E-16, 5.200000000000009948 ) ) ;
#89 = DIRECTION ( 'NONE',  ( -0.000000000000000000, -0.000000000000000000, -1.000000000000000000 ) ) ;
#90 = ORIENTED_EDGE ( 'NONE', *, *, #153, .F. ) ;
#91 = CIRCLE ( 'NONE', #266, 4.250000000000000000 ) ;
#92 = DIRECTION ( 'NONE',  ( 1.224646799147353207E-16, 1.000000000000000000, -0.000000000000000000 ) ) ;
#93 = CARTESIAN_POINT ( 'NONE',  ( 0.000000000000000000, 0.000000000000000000, 255.0000000000000000 ) ) ;
#94 = VERTEX_POINT ( 'NONE', #44 ) ;
#95 = CYLINDRICAL_SURFACE ( 'NONE', #246, 4.250000000000000000 ) ;
#96 = PLANE ( 'NONE',  #178 ) ;
#97 = VECTOR ( 'NONE', #182, 1000.000000000000000 ) ;
#98 = APPLICATION_CONTEXT ( 'configuration controlled 3d designs of mechanical parts and assemblies' ) ;
#99 = CALENDAR_DATE ( 2022, 20, 6 ) ;
#100 = PERSON_AND_ORGANIZATION ( #203, #194 ) ;
#101 = APPROVAL_PERSON_ORGANIZATION ( #164, #296, #56 ) ;
#102 = EDGE_CURVE ( 'NONE', #267, #2, #55, .T. ) ;
#103 = CARTESIAN_POINT ( 'NONE',  ( 0.000000000000000000, 0.000000000000000000, 255.0000000000000000 ) ) ;
#104 = AXIS2_PLACEMENT_3D ( 'NONE', #120, #145, #249 ) ;
#105 = DIRECTION ( 'NONE',  ( -0.000000000000000000, -0.000000000000000000, -1.000000000000000000 ) ) ;
#106 = CALENDAR_DATE ( 2022, 20, 6 ) ;
#107 = EDGE_CURVE ( 'NONE', #62, #267, #86, .T. ) ;
#108 = DIRECTION ( 'NONE',  ( -0.000000000000000000, -0.000000000000000000, -1.000000000000000000 ) ) ;
#109 = ORIENTED_EDGE ( 'NONE', *, *, #301, .F. ) ;
#110 = AXIS2_PLACEMENT_3D ( 'NONE', #103, #256, #229 ) ;
#111 = LINE ( 'NONE', #209, #202 ) ;
#112 = DIRECTION ( 'NONE',  ( 1.000000000000000000, 0.000000000000000000, 0.000000000000000000 ) ) ;
#113 = AXIS2_PLACEMENT_3D ( 'NONE', #230, #48, #152 ) ;
#114 = CC_DESIGN_DATE_AND_TIME_ASSIGNMENT ( #297, #79, ( #287 ) ) ;
#115 = DIRECTION ( 'NONE',  ( -1.000000000000000000, 0.000000000000000000, 0.000000000000000000 ) ) ;
#116 = APPROVAL_PERSON_ORGANIZATION ( #172, #270, #198 ) ;
#117 =( LENGTH_UNIT ( ) NAMED_UNIT ( * ) SI_UNIT ( .MILLI., .METRE. ) );
#118 = DIRECTION ( 'NONE',  ( -1.000000000000000000, 0.000000000000000000, 0.000000000000000000 ) ) ;
#119 = CARTESIAN_POINT ( 'NONE',  ( -7.000000000000000000, 0.000000000000000000, 5.000000000000000000 ) ) ;
#120 = CARTESIAN_POINT ( 'NONE',  ( 0.000000000000000000, 0.000000000000000000, 5.000000000000000000 ) ) ;
#121 = EDGE_CURVE ( 'NONE', #94, #228, #123, .T. ) ;
#122 = DATE_AND_TIME ( #14, #57 ) ;
#123 = CIRCLE ( 'NONE', #160, 7.000000000000000000 ) ;
#124 = ORIENTED_EDGE ( 'NONE', *, *, #29, .F. ) ;
#125 = DATE_TIME_ROLE ( 'classification_date' ) ;
#126 = DIRECTION ( 'NONE',  ( 0.000000000000000000, 0.000000000000000000, 1.000000000000000000 ) ) ;
#127 = AXIS2_PLACEMENT_3D ( 'NONE', #186, #27, #112 ) ;
#128 = ORIENTED_EDGE ( 'NONE', *, *, #153, .T. ) ;
#129 = CARTESIAN_POINT ( 'NONE',  ( 0.000000000000000000, 0.000000000000000000, 0.000000000000000000 ) ) ;
#130 = EDGE_CURVE ( 'NONE', #52, #269, #75, .T. ) ;
#131 = CARTESIAN_POINT ( 'NONE',  ( 0.000000000000000000, 0.000000000000000000, 5.200000000000009948 ) ) ;
#132 = PRODUCT_RELATED_PRODUCT_CATEGORY ( 'detail', '', ( #66 ) ) ;
#133 = ORIENTED_EDGE ( 'NONE', *, *, #201, .T. ) ;
#134 = ORIENTED_EDGE ( 'NONE', *, *, #293, .T. ) ;
#135 = DIRECTION ( 'NONE',  ( 1.000000000000000000, 0.000000000000000000, 0.000000000000000000 ) ) ;
#136 = ORIENTED_EDGE ( 'NONE', *, *, #29, .T. ) ;
#137 = APPROVAL_ROLE ( '' ) ;
#138 = LOCAL_TIME ( 11, 44, 55.00000000000000000, #54 ) ;
#139 = ORIENTED_EDGE ( 'NONE', *, *, #107, .T. ) ;
#140 = CARTESIAN_POINT ( 'NONE',  ( 0.000000000000000000, 0.000000000000000000, 0.000000000000000000 ) ) ;
#141 = AXIS2_PLACEMENT_3D ( 'NONE', #193, #279, #224 ) ;
#142 = COORDINATED_UNIVERSAL_TIME_OFFSET ( 1, 0, .AHEAD. ) ;
#143 = DIRECTION ( 'NONE',  ( -0.000000000000000000, -0.000000000000000000, -1.000000000000000000 ) ) ;
#144 =( NAMED_UNIT ( * ) PLANE_ANGLE_UNIT ( ) SI_UNIT ( $, .RADIAN. ) );
#145 = DIRECTION ( 'NONE',  ( -0.000000000000000000, -0.000000000000000000, -1.000000000000000000 ) ) ;
#146 = PLANE ( 'NONE',  #13 ) ;
#147 = DIRECTION ( 'NONE',  ( 1.000000000000000000, 0.000000000000000000, 0.000000000000000000 ) ) ;
#148 = ORIENTED_EDGE ( 'NONE', *, *, #167, .F. ) ;
#149 = COORDINATED_UNIVERSAL_TIME_OFFSET ( 1, 0, .AHEAD. ) ;
#150 = DIRECTION ( 'NONE',  ( 0.000000000000000000, 0.000000000000000000, 1.000000000000000000 ) ) ;
#151 = ORIENTED_EDGE ( 'NONE', *, *, #45, .T. ) ;
#152 = DIRECTION ( 'NONE',  ( 0.000000000000000000, 0.000000000000000000, -1.000000000000000000 ) ) ;
#153 = EDGE_CURVE ( 'NONE', #267, #62, #91, .T. ) ;
#154 = EDGE_LOOP ( 'NONE', ( #136, #244 ) ) ;
#155 = APPROVAL_DATE_TIME ( #83, #270 ) ;
#156 = DIRECTION ( 'NONE',  ( 1.000000000000000000, 0.000000000000000000, 0.000000000000000000 ) ) ;
#157 = TOROIDAL_SURFACE ( 'NONE', #31, 4.450000000000000178, 0.2000000000000000111 ) ;
#158 = ADVANCED_FACE ( 'NONE', ( #59 ), #175, .T. ) ;
#159 = ORIENTED_EDGE ( 'NONE', *, *, #293, .F. ) ;
#160 = AXIS2_PLACEMENT_3D ( 'NONE', #63, #173, #307 ) ;
#161 = PLANE ( 'NONE',  #232 ) ;
#162 = PERSON_AND_ORGANIZATION ( #203, #194 ) ;
#163 = ORIENTED_EDGE ( 'NONE', *, *, #277, .T. ) ;
#164 = PERSON_AND_ORGANIZATION ( #203, #194 ) ;
#165 = CARTESIAN_POINT ( 'NONE',  ( -4.250000000000000000, 0.000000000000000000, 255.0000000000000000 ) ) ;
#166 = PRODUCT_DEFINITION_FORMATION_WITH_SPECIFIED_SOURCE ( 'LIBOVOLNÝ', '', #66, .NOT_KNOWN. ) ;
#167 = EDGE_CURVE ( 'NONE', #2, #168, #67, .T. ) ;
#168 = VERTEX_POINT ( 'NONE', #254 ) ;
#169 = PERSON_AND_ORGANIZATION ( #203, #194 ) ;
#170 = CALENDAR_DATE ( 2022, 20, 6 ) ;
#171 = EDGE_LOOP ( 'NONE', ( #72, #210, #176, #109 ) ) ;
#172 = PERSON_AND_ORGANIZATION ( #203, #194 ) ;
#173 = DIRECTION ( 'NONE',  ( 0.000000000000000000, 0.000000000000000000, 1.000000000000000000 ) ) ;
#174 = EDGE_LOOP ( 'NONE', ( #49, #134 ) ) ;
#175 = CYLINDRICAL_SURFACE ( 'NONE', #294, 7.000000000000000000 ) ;
#176 = ORIENTED_EDGE ( 'NONE', *, *, #185, .T. ) ;
#177 = SHAPE_DEFINITION_REPRESENTATION ( #60, #24 ) ;
#178 = AXIS2_PLACEMENT_3D ( 'NONE', #295, #196, #302 ) ;
#179 = CARTESIAN_POINT ( 'NONE',  ( 0.000000000000000000, 0.000000000000000000, 5.200000000000009948 ) ) ;
#180 = CARTESIAN_POINT ( 'NONE',  ( 0.000000000000000000, 0.000000000000000000, 5.000000000000000000 ) ) ;
#181 = LOCAL_TIME ( 11, 44, 55.00000000000000000, #149 ) ;
#182 = DIRECTION ( 'NONE',  ( -0.000000000000000000, -0.000000000000000000, -1.000000000000000000 ) ) ;
#183 = ORIENTED_EDGE ( 'NONE', *, *, #301, .T. ) ;
#184 = FACE_OUTER_BOUND ( 'NONE', #263, .T. ) ;
#185 = EDGE_CURVE ( 'NONE', #228, #94, #208, .T. ) ;
#186 = CARTESIAN_POINT ( 'NONE',  ( 0.000000000000000000, 0.000000000000000000, 5.000000000000000000 ) ) ;
#187 = DIRECTION ( 'NONE',  ( 1.000000000000000000, 0.000000000000000000, -0.000000000000000000 ) ) ;
#188 = CC_DESIGN_PERSON_AND_ORGANIZATION_ASSIGNMENT ( #37, #219, ( #287 ) ) ;
#189 = PERSON_AND_ORGANIZATION_ROLE ( 'design_owner' ) ;
#190 = TOROIDAL_SURFACE ( 'NONE', #141, 4.450000000000000178, 0.2000000000000000111 ) ;
#191 = DATE_AND_TIME ( #80, #286 ) ;
#192 = DIRECTION ( 'NONE',  ( -0.000000000000000000, -0.000000000000000000, -1.000000000000000000 ) ) ;
#193 = CARTESIAN_POINT ( 'NONE',  ( 0.000000000000000000, 0.000000000000000000, 5.200000000000009948 ) ) ;
#194 = ORGANIZATION ( 'NEURÈENÝ', 'NEURÈENÝ', '' ) ;
#195 = PERSON_AND_ORGANIZATION_ROLE ( 'design_supplier' ) ;
#196 = DIRECTION ( 'NONE',  ( 0.000000000000000000, 0.000000000000000000, 1.000000000000000000 ) ) ;
#197 = ORIENTED_EDGE ( 'NONE', *, *, #185, .F. ) ;
#198 = APPROVAL_ROLE ( '' ) ;
#199 = AXIS2_PLACEMENT_3D ( 'NONE', #88, #92, #207 ) ;
#200 = FACE_OUTER_BOUND ( 'NONE', #257, .T. ) ;
#201 = EDGE_CURVE ( 'NONE', #52, #62, #260, .T. ) ;
#202 = VECTOR ( 'NONE', #89, 1000.000000000000000 ) ;
#203 = PERSON ( 'NEURÈENÝ', 'NEURÈENÝ', 'NEURÈENÝ', ('NEURÈENÝ'), ('NEURÈENÝ'), ('NEURÈENÝ') ) ;
#204 = ORIENTED_EDGE ( 'NONE', *, *, #7, .F. ) ;
#205 = APPROVAL ( #11, 'NEURÈENÝ' ) ;
#206 = CARTESIAN_POINT ( 'NONE',  ( 4.250000000000000000, 5.204748896376250699E-16, 255.0000000000000000 ) ) ;
#207 = DIRECTION ( 'NONE',  ( -1.000000000000000000, 1.224646799147353454E-16, 0.000000000000000000 ) ) ;
#208 = CIRCLE ( 'NONE', #248, 7.000000000000000000 ) ;
#209 = CARTESIAN_POINT ( 'NONE',  ( 7.000000000000000000, 8.572527594031473190E-16, 5.000000000000000000 ) ) ;
#210 = ORIENTED_EDGE ( 'NONE', *, *, #282, .T. ) ;
#211 = EDGE_CURVE ( 'NONE', #20, #259, #47, .T. ) ;
#212 = EDGE_LOOP ( 'NONE', ( #28, #151 ) ) ;
#213 = UNCERTAINTY_MEASURE_WITH_UNIT (LENGTH_MEASURE( 1.000000000000000082E-05 ), #117, 'distance_accuracy_value', 'NONE');
#214 = DIRECTION ( 'NONE',  ( -1.000000000000000000, 0.000000000000000000, 0.000000000000000000 ) ) ;
#215 = APPLICATION_PROTOCOL_DEFINITION ( 'international standard', 'config_control_design', 1994, #264 ) ;
#216 = FACE_OUTER_BOUND ( 'NONE', #74, .T. ) ;
#217 =( NAMED_UNIT ( * ) SI_UNIT ( $, .STERADIAN. ) SOLID_ANGLE_UNIT ( ) );
#218 = AXIS2_PLACEMENT_3D ( 'NONE', #180, #84, #46 ) ;
#219 = PERSON_AND_ORGANIZATION_ROLE ( 'creator' ) ;
#220 = MANIFOLD_SOLID_BREP ( 'Zaoblit1', #288 ) ;
#221 = CIRCLE ( 'NONE', #127, 7.000000000000000000 ) ;
#222 = ADVANCED_FACE ( 'NONE', ( #200 ), #157, .F. ) ;
#223 = COORDINATED_UNIVERSAL_TIME_OFFSET ( 1, 0, .AHEAD. ) ;
#224 = DIRECTION ( 'NONE',  ( 1.000000000000000000, 0.000000000000000000, 0.000000000000000000 ) ) ;
#225 = DIRECTION ( 'NONE',  ( -1.000000000000000000, 0.000000000000000000, 0.000000000000000000 ) ) ;
#226 = CC_DESIGN_APPROVAL ( #270, ( #241 ) ) ;
#227 = DIRECTION ( 'NONE',  ( 0.000000000000000000, 0.000000000000000000, 1.000000000000000000 ) ) ;
#228 = VERTEX_POINT ( 'NONE', #252 ) ;
#229 = DIRECTION ( 'NONE',  ( 1.000000000000000000, 0.000000000000000000, 0.000000000000000000 ) ) ;
#230 = CARTESIAN_POINT ( 'NONE',  ( 4.450000000000000178, 0.000000000000000000, 5.200000000000009948 ) ) ;
#231 = ORIENTED_EDGE ( 'NONE', *, *, #7, .T. ) ;
#232 = AXIS2_PLACEMENT_3D ( 'NONE', #93, #236, #187 ) ;
#233 = LOCAL_TIME ( 11, 44, 55.00000000000000000, #283 ) ;
#234 = ADVANCED_FACE ( 'NONE', ( #184 ), #240, .T. ) ;
#235 = DIRECTION ( 'NONE',  ( -0.000000000000000000, -0.000000000000000000, -1.000000000000000000 ) ) ;
#236 = DIRECTION ( 'NONE',  ( 0.000000000000000000, 0.000000000000000000, 1.000000000000000000 ) ) ;
#237 = CARTESIAN_POINT ( 'NONE',  ( 7.000000000000000000, 8.572527594031473190E-16, 5.000000000000000000 ) ) ;
#238 = CC_DESIGN_PERSON_AND_ORGANIZATION_ASSIGNMENT ( #100, #189, ( #66 ) ) ;
#239 = ORIENTED_EDGE ( 'NONE', *, *, #201, .F. ) ;
#240 = CYLINDRICAL_SURFACE ( 'NONE', #41, 4.250000000000000000 ) ;
#241 = SECURITY_CLASSIFICATION ( '', '', #43 ) ;
#242 = CC_DESIGN_DATE_AND_TIME_ASSIGNMENT ( #285, #125, ( #241 ) ) ;
#243 = FACE_OUTER_BOUND ( 'NONE', #42, .T. ) ;
#244 = ORIENTED_EDGE ( 'NONE', *, *, #211, .T. ) ;
#245 = CARTESIAN_POINT ( 'NONE',  ( 0.000000000000000000, 0.000000000000000000, 5.000000000000000000 ) ) ;
#246 = AXIS2_PLACEMENT_3D ( 'NONE', #298, #143, #118 ) ;
#247 = APPROVAL_DATE_TIME ( #122, #205 ) ;
#248 = AXIS2_PLACEMENT_3D ( 'NONE', #129, #227, #156 ) ;
#249 = DIRECTION ( 'NONE',  ( 1.000000000000000000, 0.000000000000000000, 0.000000000000000000 ) ) ;
#250 = ADVANCED_FACE ( 'NONE', ( #71 ), #161, .T. ) ;
#251 = PERSON_AND_ORGANIZATION ( #203, #194 ) ;
#252 = CARTESIAN_POINT ( 'NONE',  ( 7.000000000000000000, 8.572527594031473190E-16, 0.000000000000000000 ) ) ;
#253 = CC_DESIGN_PERSON_AND_ORGANIZATION_ASSIGNMENT ( #61, #280, ( #241 ) ) ;
#254 = CARTESIAN_POINT ( 'NONE',  ( -4.450000000000000178, 5.449678256205721784E-16, 5.000000000000005329 ) ) ;
#255 = ORIENTED_EDGE ( 'NONE', *, *, #277, .F. ) ;
#256 = DIRECTION ( 'NONE',  ( 0.000000000000000000, 0.000000000000000000, 1.000000000000000000 ) ) ;
#257 = EDGE_LOOP ( 'NONE', ( #204, #90, #30, #289 ) ) ;
#258 = CIRCLE ( 'NONE', #104, 4.450000000000000178 ) ;
#259 = VERTEX_POINT ( 'NONE', #262 ) ;
#260 = LINE ( 'NONE', #18, #300 ) ;
#261 = CC_DESIGN_APPROVAL ( #205, ( #287 ) ) ;
#262 = CARTESIAN_POINT ( 'NONE',  ( -7.000000000000000000, 0.000000000000000000, 5.000000000000000000 ) ) ;
#263 = EDGE_LOOP ( 'NONE', ( #255, #291, #133, #139 ) ) ;
#264 = APPLICATION_CONTEXT ( 'configuration controlled 3d designs of mechanical parts and assemblies' ) ;
#265 = CARTESIAN_POINT ( 'NONE',  ( 4.250000000000000000, 5.204748896376250699E-16, 5.200000000000009948 ) ) ;
#266 = AXIS2_PLACEMENT_3D ( 'NONE', #131, #150, #64 ) ;
#267 = VERTEX_POINT ( 'NONE', #265 ) ;
#268 = AXIS2_PLACEMENT_3D ( 'NONE', #179, #126, #304 ) ;
#269 = VERTEX_POINT ( 'NONE', #206 ) ;
#270 = APPROVAL ( #82, 'NEURÈENÝ' ) ;
#271 = ORIENTED_EDGE ( 'NONE', *, *, #282, .F. ) ;
#272 = LINE ( 'NONE', #119, #77 ) ;
#273 = FACE_OUTER_BOUND ( 'NONE', #154, .T. ) ;
#274 = DIRECTION ( 'NONE',  ( 1.000000000000000000, 0.000000000000000000, 0.000000000000000000 ) ) ;
#275 = CIRCLE ( 'NONE', #199, 0.1999999999999996503 ) ;
#276 = DIRECTION ( 'NONE',  ( 0.000000000000000000, 0.000000000000000000, 1.000000000000000000 ) ) ;
#277 = EDGE_CURVE ( 'NONE', #269, #267, #23, .T. ) ;
#278 = APPROVAL_STATUS ( 'not_yet_approved' ) ;
#279 = DIRECTION ( 'NONE',  ( 0.000000000000000000, 0.000000000000000000, 1.000000000000000000 ) ) ;
#280 = PERSON_AND_ORGANIZATION_ROLE ( 'classification_officer' ) ;
#281 = FACE_OUTER_BOUND ( 'NONE', #303, .T. ) ;
#282 = EDGE_CURVE ( 'NONE', #20, #228, #111, .T. ) ;
#283 = COORDINATED_UNIVERSAL_TIME_OFFSET ( 1, 0, .AHEAD. ) ;
#284 = EDGE_LOOP ( 'NONE', ( #159, #163, #128, #239 ) ) ;
#285 = DATE_AND_TIME ( #170, #181 ) ;
#286 = LOCAL_TIME ( 11, 44, 55.00000000000000000, #223 ) ;
#287 = PRODUCT_DEFINITION ( 'NEZNÁMÝ', '', #166, #4 ) ;
#288 = CLOSED_SHELL ( 'NONE', ( #58, #38, #158, #306, #65, #85, #234, #250, #222 ) ) ;
#289 = ORIENTED_EDGE ( 'NONE', *, *, #45, .F. ) ;
#290 = DIRECTION ( 'NONE',  ( -0.000000000000000000, -0.000000000000000000, -1.000000000000000000 ) ) ;
#291 = ORIENTED_EDGE ( 'NONE', *, *, #130, .F. ) ;
#292 = FACE_OUTER_BOUND ( 'NONE', #284, .T. ) ;
#293 = EDGE_CURVE ( 'NONE', #269, #52, #305, .T. ) ;
#294 = AXIS2_PLACEMENT_3D ( 'NONE', #21, #105, #225 ) ;
#295 = CARTESIAN_POINT ( 'NONE',  ( 0.000000000000000000, 0.000000000000000000, 0.000000000000000000 ) ) ;
#296 = APPROVAL ( #278, 'NEURÈENÝ' ) ;
#297 = DATE_AND_TIME ( #99, #138 ) ;
#298 = CARTESIAN_POINT ( 'NONE',  ( 0.000000000000000000, 0.000000000000000000, 255.0000000000000000 ) ) ;
#299 = APPROVAL_DATE_TIME ( #191, #296 ) ;
#300 = VECTOR ( 'NONE', #235, 1000.000000000000000 ) ;
#301 = EDGE_CURVE ( 'NONE', #259, #94, #272, .T. ) ;
#302 = DIRECTION ( 'NONE',  ( 1.000000000000000000, 0.000000000000000000, -0.000000000000000000 ) ) ;
#303 = EDGE_LOOP ( 'NONE', ( #51, #231, #148, #25 ) ) ;
#304 = DIRECTION ( 'NONE',  ( 1.000000000000000000, 0.000000000000000000, 0.000000000000000000 ) ) ;
#305 = CIRCLE ( 'NONE', #5, 4.250000000000000000 ) ;
#306 = ADVANCED_FACE ( 'NONE', ( #243 ), #8, .T. ) ;
#307 = DIRECTION ( 'NONE',  ( 1.000000000000000000, 0.000000000000000000, 0.000000000000000000 ) ) ;
ENDSEC;
END-ISO-10303-21;
