ISO-10303-21;
HEADER;
FILE_DESCRIPTION (( 'STEP AP203' ),
    '1' );
FILE_NAME ('00ef.STEP',
    '2022-06-20T09:16:36',
    ( '' ),
    ( '' ),
    'SwSTEP 2.0',
    'SolidWorks 2019',
    '' );
FILE_SCHEMA (( 'CONFIG_CONTROL_DESIGN' ));
ENDSEC;

DATA;
#1 = AXIS2_PLACEMENT_3D ( 'NONE', #201, #273, #82 ) ;
#2 = AXIS2_PLACEMENT_3D ( 'NONE', #274, #129, #231 ) ;
#3 = EDGE_CURVE ( 'NONE', #167, #143, #101, .T. ) ;
#4 = ORGANIZATION ( 'NEURÈENÝ', 'NEURÈENÝ', '' ) ;
#5 = DATE_TIME_ROLE ( 'classification_date' ) ;
#6 = EDGE_LOOP ( 'NONE', ( #281, #149, #9, #268 ) ) ;
#7 = CARTESIAN_POINT ( 'NONE',  ( 0.000000000000000000, 0.000000000000000000, 10.00000000000000000 ) ) ;
#8 = EDGE_LOOP ( 'NONE', ( #75, #159 ) ) ;
#9 = ORIENTED_EDGE ( 'NONE', *, *, #212, .F. ) ;
#10 = DIRECTION ( 'NONE',  ( -1.000000000000000000, 0.000000000000000000, 0.000000000000000000 ) ) ;
#11 = PRODUCT_DEFINITION ( 'NEZNÁMÝ', '', #109, #220 ) ;
#12 = CARTESIAN_POINT ( 'NONE',  ( 0.000000000000000000, 0.000000000000000000, 10.00000000000000000 ) ) ;
#13 = DIRECTION ( 'NONE',  ( -1.000000000000000000, 0.000000000000000000, 0.000000000000000000 ) ) ;
#14 = CARTESIAN_POINT ( 'NONE',  ( 0.000000000000000000, 0.000000000000000000, 0.000000000000000000 ) ) ;
#15 = CARTESIAN_POINT ( 'NONE',  ( 16.19999999999999929, 0.000000000000000000, 9.999999999999992895 ) ) ;
#16 = DIRECTION ( 'NONE',  ( 0.000000000000000000, 0.000000000000000000, 1.000000000000000000 ) ) ;
#17 = CALENDAR_DATE ( 2022, 20, 6 ) ;
#18 = CARTESIAN_POINT ( 'NONE',  ( 0.000000000000000000, 0.000000000000000000, 210.0000000000000284 ) ) ;
#19 = AXIS2_PLACEMENT_3D ( 'NONE', #202, #60, #305 ) ;
#20 = DIRECTION ( 'NONE',  ( 1.000000000000000000, 0.000000000000000000, 0.000000000000000000 ) ) ;
#21 = APPROVAL_STATUS ( 'not_yet_approved' ) ;
#22 = APPLICATION_PROTOCOL_DEFINITION ( 'international standard', 'config_control_design', 1994, #203 ) ;
#23 = MANIFOLD_SOLID_BREP ( 'Zaoblit1', #128 ) ;
#24 = ORIENTED_EDGE ( 'NONE', *, *, #192, .T. ) ;
#25 = UNCERTAINTY_MEASURE_WITH_UNIT (LENGTH_MEASURE( 1.000000000000000082E-05 ), #189, 'distance_accuracy_value', 'NONE');
#26 = ADVANCED_FACE ( 'NONE', ( #74, #225 ), #191, .T. ) ;
#27 = CARTESIAN_POINT ( 'NONE',  ( -20.00000000000000000, 0.000000000000000000, 10.00000000000000000 ) ) ;
#28 = DIRECTION ( 'NONE',  ( -0.000000000000000000, -0.000000000000000000, -1.000000000000000000 ) ) ;
#29 = COORDINATED_UNIVERSAL_TIME_OFFSET ( 1, 0, .AHEAD. ) ;
#30 = FACE_OUTER_BOUND ( 'NONE', #49, .T. ) ;
#31 = PERSON_AND_ORGANIZATION_ROLE ( 'classification_officer' ) ;
#32 = CARTESIAN_POINT ( 'NONE',  ( 0.000000000000000000, 0.000000000000000000, 0.000000000000000000 ) ) ;
#33 = AXIS2_PLACEMENT_3D ( 'NONE', #284, #43, #20 ) ;
#34 = DIRECTION ( 'NONE',  ( 0.000000000000000000, 0.000000000000000000, 1.000000000000000000 ) ) ;
#35 = FACE_OUTER_BOUND ( 'NONE', #264, .T. ) ;
#36 = ADVANCED_FACE ( 'NONE', ( #30 ), #94, .T. ) ;
#37 = CARTESIAN_POINT ( 'NONE',  ( 16.00000000000000000, 1.959434878635765131E-15, 210.0000000000000284 ) ) ;
#38 = CC_DESIGN_APPROVAL ( #89, ( #229 ) ) ;
#39 = DIRECTION ( 'NONE',  ( 0.000000000000000000, 0.000000000000000000, 1.000000000000000000 ) ) ;
#40 = CARTESIAN_POINT ( 'NONE',  ( -16.19999999999999929, 1.983927814618711846E-15, 9.999999999999992895 ) ) ;
#41 = APPROVAL_DATE_TIME ( #47, #227 ) ;
#42 = APPROVAL_STATUS ( 'not_yet_approved' ) ;
#43 = DIRECTION ( 'NONE',  ( 0.000000000000000000, 0.000000000000000000, 1.000000000000000000 ) ) ;
#44 = EDGE_CURVE ( 'NONE', #207, #197, #164, .T. ) ;
#45 = AXIS2_PLACEMENT_3D ( 'NONE', #57, #39, #79 ) ;
#46 = CC_DESIGN_APPROVAL ( #227, ( #109 ) ) ;
#47 = DATE_AND_TIME ( #17, #63 ) ;
#48 = ORIENTED_EDGE ( 'NONE', *, *, #302, .T. ) ;
#49 = EDGE_LOOP ( 'NONE', ( #296, #77, #294, #48 ) ) ;
#50 = ORIENTED_EDGE ( 'NONE', *, *, #107, .F. ) ;
#51 = CALENDAR_DATE ( 2022, 20, 6 ) ;
#52 = ORIENTED_EDGE ( 'NONE', *, *, #238, .F. ) ;
#53 = EDGE_LOOP ( 'NONE', ( #269, #263 ) ) ;
#54 = CC_DESIGN_PERSON_AND_ORGANIZATION_ASSIGNMENT ( #161, #90, ( #240 ) ) ;
#55 = VERTEX_POINT ( 'NONE', #243 ) ;
#56 = APPROVAL_PERSON_ORGANIZATION ( #84, #227, #285 ) ;
#57 = CARTESIAN_POINT ( 'NONE',  ( 0.000000000000000000, 0.000000000000000000, 210.0000000000000284 ) ) ;
#58 = DIRECTION ( 'NONE',  ( 1.000000000000000000, 0.000000000000000000, -0.000000000000000000 ) ) ;
#59 = CARTESIAN_POINT ( 'NONE',  ( 16.00000000000000000, 1.959434878635765131E-15, 10.19999999999998685 ) ) ;
#60 = DIRECTION ( 'NONE',  ( -0.000000000000000000, -0.000000000000000000, -1.000000000000000000 ) ) ;
#61 = CARTESIAN_POINT ( 'NONE',  ( 0.000000000000000000, 0.000000000000000000, 210.0000000000000284 ) ) ;
#62 = CARTESIAN_POINT ( 'NONE',  ( -20.00000000000000000, 0.000000000000000000, 10.00000000000000000 ) ) ;
#63 = LOCAL_TIME ( 11, 16, 36.00000000000000000, #261 ) ;
#64 = PERSON_AND_ORGANIZATION ( #187, #4 ) ;
#65 = COORDINATED_UNIVERSAL_TIME_OFFSET ( 1, 0, .AHEAD. ) ;
#66 = CIRCLE ( 'NONE', #250, 16.00000000000000000 ) ;
#67 = AXIS2_PLACEMENT_3D ( 'NONE', #18, #112, #186 ) ;
#68 =( NAMED_UNIT ( * ) SI_UNIT ( $, .STERADIAN. ) SOLID_ANGLE_UNIT ( ) );
#69 = EDGE_CURVE ( 'NONE', #259, #167, #221, .T. ) ;
#70 = COORDINATED_UNIVERSAL_TIME_OFFSET ( 1, 0, .AHEAD. ) ;
#71 = DIRECTION ( 'NONE',  ( -0.000000000000000000, -0.000000000000000000, -1.000000000000000000 ) ) ;
#72 = AXIS2_PLACEMENT_3D ( 'NONE', #132, #108, #180 ) ;
#73 = VERTEX_POINT ( 'NONE', #27 ) ;
#74 = FACE_BOUND ( 'NONE', #8, .T. ) ;
#75 = ORIENTED_EDGE ( 'NONE', *, *, #212, .T. ) ;
#76 = CIRCLE ( 'NONE', #19, 16.19999999999999929 ) ;
#77 = ORIENTED_EDGE ( 'NONE', *, *, #223, .F. ) ;
#78 = AXIS2_PLACEMENT_3D ( 'NONE', #127, #103, #204 ) ;
#79 = DIRECTION ( 'NONE',  ( 1.000000000000000000, 0.000000000000000000, 0.000000000000000000 ) ) ;
#80 = DIRECTION ( 'NONE',  ( 1.000000000000000000, 0.000000000000000000, 0.000000000000000000 ) ) ;
#81 = CARTESIAN_POINT ( 'NONE',  ( -20.00000000000000000, 0.000000000000000000, 0.000000000000000000 ) ) ;
#82 = DIRECTION ( 'NONE',  ( -1.000000000000000000, 0.000000000000000000, 0.000000000000000000 ) ) ;
#83 = CARTESIAN_POINT ( 'NONE',  ( -16.19999999999999929, 1.983927814618711846E-15, 10.19999999999998685 ) ) ;
#84 = PERSON_AND_ORGANIZATION ( #187, #4 ) ;
#85 = VECTOR ( 'NONE', #151, 1000.000000000000000 ) ;
#86 = TOROIDAL_SURFACE ( 'NONE', #78, 16.19999999999999929, 0.2000000000000000111 ) ;
#87 = ADVANCED_FACE ( 'NONE', ( #218 ), #300, .F. ) ;
#88 = CC_DESIGN_APPROVAL ( #233, ( #11 ) ) ;
#89 = APPROVAL ( #166, 'NEURÈENÝ' ) ;
#90 = PERSON_AND_ORGANIZATION_ROLE ( 'design_owner' ) ;
#91 = VECTOR ( 'NONE', #71, 1000.000000000000000 ) ;
#92 = DIRECTION ( 'NONE',  ( 0.000000000000000000, -1.000000000000000000, 0.000000000000000000 ) ) ;
#93 = CIRCLE ( 'NONE', #222, 0.1999999999999987899 ) ;
#94 = CYLINDRICAL_SURFACE ( 'NONE', #257, 16.00000000000000000 ) ;
#95 = ORIENTED_EDGE ( 'NONE', *, *, #44, .F. ) ;
#96 = AXIS2_PLACEMENT_3D ( 'NONE', #32, #215, #148 ) ;
#97 = SECURITY_CLASSIFICATION_LEVEL ( 'unclassified' ) ;
#98 = EDGE_LOOP ( 'NONE', ( #52, #145, #170, #182 ) ) ;
#99 = ORIENTED_EDGE ( 'NONE', *, *, #185, .T. ) ;
#100 = EDGE_LOOP ( 'NONE', ( #50, #292 ) ) ;
#101 = CIRCLE ( 'NONE', #96, 20.00000000000000000 ) ;
#102 = EDGE_CURVE ( 'NONE', #55, #207, #134, .T. ) ;
#103 = DIRECTION ( 'NONE',  ( 0.000000000000000000, 0.000000000000000000, 1.000000000000000000 ) ) ;
#104 = PLANE ( 'NONE',  #193 ) ;
#105 = AXIS2_PLACEMENT_3D ( 'NONE', #7, #169, #266 ) ;
#106 = CARTESIAN_POINT ( 'NONE',  ( 20.00000000000000000, 2.449293598294706513E-15, 0.000000000000000000 ) ) ;
#107 = EDGE_CURVE ( 'NONE', #143, #167, #275, .T. ) ;
#108 = DIRECTION ( 'NONE',  ( 0.000000000000000000, 0.000000000000000000, 1.000000000000000000 ) ) ;
#109 = PRODUCT_DEFINITION_FORMATION_WITH_SPECIFIED_SOURCE ( 'LIBOVOLNÝ', '', #240, .NOT_KNOWN. ) ;
#110 = CC_DESIGN_DATE_AND_TIME_ASSIGNMENT ( #265, #5, ( #229 ) ) ;
#111 = DIRECTION ( 'NONE',  ( 1.000000000000000000, 0.000000000000000000, 0.000000000000000000 ) ) ;
#112 = DIRECTION ( 'NONE',  ( -0.000000000000000000, -0.000000000000000000, -1.000000000000000000 ) ) ;
#113 = CARTESIAN_POINT ( 'NONE',  ( 0.000000000000000000, 0.000000000000000000, 10.19999999999998685 ) ) ;
#114 = PRODUCT_RELATED_PRODUCT_CATEGORY ( 'detail', '', ( #240 ) ) ;
#115 = COORDINATED_UNIVERSAL_TIME_OFFSET ( 1, 0, .AHEAD. ) ;
#116 = ADVANCED_FACE ( 'NONE', ( #35 ), #205, .T. ) ;
#117 = VERTEX_POINT ( 'NONE', #59 ) ;
#118 = VECTOR ( 'NONE', #155, 1000.000000000000000 ) ;
#119 = LOCAL_TIME ( 11, 16, 36.00000000000000000, #65 ) ;
#120 = ORIENTED_EDGE ( 'NONE', *, *, #102, .F. ) ;
#121 = DATE_AND_TIME ( #242, #272 ) ;
#122 = ORIENTED_EDGE ( 'NONE', *, *, #277, .T. ) ;
#123 = SHAPE_DEFINITION_REPRESENTATION ( #138, #239 ) ;
#124 = CARTESIAN_POINT ( 'NONE',  ( -16.00000000000000000, 0.000000000000000000, 210.0000000000000284 ) ) ;
#125 = EDGE_LOOP ( 'NONE', ( #219, #307, #163, #251 ) ) ;
#126 = ADVANCED_FACE ( 'NONE', ( #279 ), #195, .F. ) ;
#127 = CARTESIAN_POINT ( 'NONE',  ( 0.000000000000000000, 0.000000000000000000, 10.19999999999998685 ) ) ;
#128 = CLOSED_SHELL ( 'NONE', ( #126, #291, #198, #116, #26, #87, #36, #153, #173 ) ) ;
#129 = DIRECTION ( 'NONE',  ( 0.000000000000000000, 0.000000000000000000, 1.000000000000000000 ) ) ;
#130 = CIRCLE ( 'NONE', #299, 20.00000000000000000 ) ;
#131 = DIRECTION ( 'NONE',  ( -1.000000000000000000, 1.224646799147353947E-16, 0.000000000000000000 ) ) ;
#132 = CARTESIAN_POINT ( 'NONE',  ( 0.000000000000000000, 0.000000000000000000, 210.0000000000000284 ) ) ;
#133 = EDGE_CURVE ( 'NONE', #199, #146, #76, .T. ) ;
#134 = CIRCLE ( 'NONE', #72, 16.00000000000000000 ) ;
#135 = CARTESIAN_POINT ( 'NONE',  ( 0.000000000000000000, 0.000000000000000000, 10.00000000000000000 ) ) ;
#136 = CC_DESIGN_PERSON_AND_ORGANIZATION_ASSIGNMENT ( #246, #142, ( #109 ) ) ;
#137 = AXIS2_PLACEMENT_3D ( 'NONE', #184, #241, #280 ) ;
#138 = PRODUCT_DEFINITION_SHAPE ( 'NONE', 'NONE',  #11 ) ;
#139 = APPROVAL_DATE_TIME ( #141, #233 ) ;
#140 = DATE_TIME_ROLE ( 'creation_date' ) ;
#141 = DATE_AND_TIME ( #283, #293 ) ;
#142 = PERSON_AND_ORGANIZATION_ROLE ( 'design_supplier' ) ;
#143 = VERTEX_POINT ( 'NONE', #81 ) ;
#144 = PERSON_AND_ORGANIZATION ( #187, #4 ) ;
#145 = ORIENTED_EDGE ( 'NONE', *, *, #69, .T. ) ;
#146 = VERTEX_POINT ( 'NONE', #15 ) ;
#147 = PERSON_AND_ORGANIZATION_ROLE ( 'creator' ) ;
#148 = DIRECTION ( 'NONE',  ( 1.000000000000000000, 0.000000000000000000, 0.000000000000000000 ) ) ;
#149 = ORIENTED_EDGE ( 'NONE', *, *, #248, .T. ) ;
#150 = AXIS2_PLACEMENT_3D ( 'NONE', #208, #92, #181 ) ;
#151 = DIRECTION ( 'NONE',  ( -0.000000000000000000, -0.000000000000000000, -1.000000000000000000 ) ) ;
#152 = CYLINDRICAL_SURFACE ( 'NONE', #1, 20.00000000000000000 ) ;
#153 = ADVANCED_FACE ( 'NONE', ( #301 ), #104, .T. ) ;
#154 = FACE_OUTER_BOUND ( 'NONE', #125, .T. ) ;
#155 = DIRECTION ( 'NONE',  ( -0.000000000000000000, -0.000000000000000000, -1.000000000000000000 ) ) ;
#156 = DIRECTION ( 'NONE',  ( 1.224646799147353207E-16, 1.000000000000000000, -0.000000000000000000 ) ) ;
#157 = CYLINDRICAL_SURFACE ( 'NONE', #67, 16.00000000000000000 ) ;
#158 = VECTOR ( 'NONE', #209, 1000.000000000000000 ) ;
#159 = ORIENTED_EDGE ( 'NONE', *, *, #133, .T. ) ;
#160 = CALENDAR_DATE ( 2022, 20, 6 ) ;
#161 = PERSON_AND_ORGANIZATION ( #187, #4 ) ;
#162 = CIRCLE ( 'NONE', #33, 16.00000000000000000 ) ;
#163 = ORIENTED_EDGE ( 'NONE', *, *, #282, .T. ) ;
#164 = LINE ( 'NONE', #124, #85 ) ;
#165 = CC_DESIGN_PERSON_AND_ORGANIZATION_ASSIGNMENT ( #244, #147, ( #109 ) ) ;
#166 = APPROVAL_STATUS ( 'not_yet_approved' ) ;
#167 = VERTEX_POINT ( 'NONE', #106 ) ;
#168 = CIRCLE ( 'NONE', #210, 16.19999999999999929 ) ;
#169 = DIRECTION ( 'NONE',  ( 0.000000000000000000, 0.000000000000000000, 1.000000000000000000 ) ) ;
#170 = ORIENTED_EDGE ( 'NONE', *, *, #3, .T. ) ;
#171 = AXIS2_PLACEMENT_3D ( 'NONE', #12, #278, #13 ) ;
#172 = ORIENTED_EDGE ( 'NONE', *, *, #287, .T. ) ;
#173 = ADVANCED_FACE ( 'NONE', ( #154 ), #86, .F. ) ;
#174 = APPROVAL_PERSON_ORGANIZATION ( #306, #233, #183 ) ;
#175 = DIRECTION ( 'NONE',  ( 1.000000000000000000, 0.000000000000000000, 0.000000000000000000 ) ) ;
#176 = CARTESIAN_POINT ( 'NONE',  ( 0.000000000000000000, 0.000000000000000000, 0.000000000000000000 ) ) ;
#177 = CARTESIAN_POINT ( 'NONE',  ( -16.00000000000000000, 0.000000000000000000, 10.19999999999998685 ) ) ;
#178 = CIRCLE ( 'NONE', #45, 16.00000000000000000 ) ;
#179 = CARTESIAN_POINT ( 'NONE',  ( -16.00000000000000000, 0.000000000000000000, 210.0000000000000284 ) ) ;
#180 = DIRECTION ( 'NONE',  ( 1.000000000000000000, 0.000000000000000000, 0.000000000000000000 ) ) ;
#181 = DIRECTION ( 'NONE',  ( 0.000000000000000000, 0.000000000000000000, -1.000000000000000000 ) ) ;
#182 = ORIENTED_EDGE ( 'NONE', *, *, #277, .F. ) ;
#183 = APPROVAL_ROLE ( '' ) ;
#184 = CARTESIAN_POINT ( 'NONE',  ( 0.000000000000000000, 0.000000000000000000, 0.000000000000000000 ) ) ;
#185 = EDGE_CURVE ( 'NONE', #55, #117, #276, .T. ) ;
#186 = DIRECTION ( 'NONE',  ( -1.000000000000000000, 0.000000000000000000, 0.000000000000000000 ) ) ;
#187 = PERSON ( 'NEURÈENÝ', 'NEURÈENÝ', 'NEURÈENÝ', ('NEURÈENÝ'), ('NEURÈENÝ'), ('NEURÈENÝ') ) ;
#188 = CC_DESIGN_PERSON_AND_ORGANIZATION_ASSIGNMENT ( #288, #31, ( #229 ) ) ;
#189 =( LENGTH_UNIT ( ) NAMED_UNIT ( * ) SI_UNIT ( .MILLI., .METRE. ) );
#190 =( GEOMETRIC_REPRESENTATION_CONTEXT ( 3 ) GLOBAL_UNCERTAINTY_ASSIGNED_CONTEXT ( ( #25 ) ) GLOBAL_UNIT_ASSIGNED_CONTEXT ( ( #189, #286, #68 ) ) REPRESENTATION_CONTEXT ( 'NONE', 'WORKASPACE' ) );
#191 = PLANE ( 'NONE',  #105 ) ;
#192 = EDGE_CURVE ( 'NONE', #73, #259, #130, .T. ) ;
#193 = AXIS2_PLACEMENT_3D ( 'NONE', #61, #254, #58 ) ;
#194 = EDGE_LOOP ( 'NONE', ( #120, #99, #172, #95 ) ) ;
#195 = TOROIDAL_SURFACE ( 'NONE', #2, 16.19999999999999929, 0.2000000000000000111 ) ;
#196 = ORIENTED_EDGE ( 'NONE', *, *, #238, .T. ) ;
#197 = VERTEX_POINT ( 'NONE', #177 ) ;
#198 = ADVANCED_FACE ( 'NONE', ( #255 ), #152, .T. ) ;
#199 = VERTEX_POINT ( 'NONE', #40 ) ;
#200 = CARTESIAN_POINT ( 'NONE',  ( 0.000000000000000000, 0.000000000000000000, 10.00000000000000000 ) ) ;
#201 = CARTESIAN_POINT ( 'NONE',  ( 0.000000000000000000, 0.000000000000000000, 10.00000000000000000 ) ) ;
#202 = CARTESIAN_POINT ( 'NONE',  ( 0.000000000000000000, 0.000000000000000000, 10.00000000000000000 ) ) ;
#203 = APPLICATION_CONTEXT ( 'configuration controlled 3d designs of mechanical parts and assemblies' ) ;
#204 = DIRECTION ( 'NONE',  ( 1.000000000000000000, 0.000000000000000000, 0.000000000000000000 ) ) ;
#205 = CYLINDRICAL_SURFACE ( 'NONE', #171, 20.00000000000000000 ) ;
#206 = LINE ( 'NONE', #62, #158 ) ;
#207 = VERTEX_POINT ( 'NONE', #179 ) ;
#208 = CARTESIAN_POINT ( 'NONE',  ( 16.19999999999999929, 0.000000000000000000, 10.19999999999998685 ) ) ;
#209 = DIRECTION ( 'NONE',  ( -0.000000000000000000, -0.000000000000000000, -1.000000000000000000 ) ) ;
#210 = AXIS2_PLACEMENT_3D ( 'NONE', #135, #232, #175 ) ;
#211 = CC_DESIGN_SECURITY_CLASSIFICATION ( #229, ( #109 ) ) ;
#212 = EDGE_CURVE ( 'NONE', #146, #199, #168, .T. ) ;
#213 = PERSON_AND_ORGANIZATION_ROLE ( 'creator' ) ;
#214 = CC_DESIGN_DATE_AND_TIME_ASSIGNMENT ( #260, #140, ( #11 ) ) ;
#215 = DIRECTION ( 'NONE',  ( 0.000000000000000000, 0.000000000000000000, 1.000000000000000000 ) ) ;
#216 = CIRCLE ( 'NONE', #270, 20.00000000000000000 ) ;
#217 = LOCAL_TIME ( 11, 16, 36.00000000000000000, #29 ) ;
#218 = FACE_OUTER_BOUND ( 'NONE', #100, .T. ) ;
#219 = ORIENTED_EDGE ( 'NONE', *, *, #248, .F. ) ;
#220 = DESIGN_CONTEXT ( 'detailed design', #203, 'design' ) ;
#221 = LINE ( 'NONE', #289, #91 ) ;
#222 = AXIS2_PLACEMENT_3D ( 'NONE', #83, #156, #131 ) ;
#223 = EDGE_CURVE ( 'NONE', #207, #55, #178, .T. ) ;
#224 = APPROVAL_ROLE ( '' ) ;
#225 = FACE_OUTER_BOUND ( 'NONE', #249, .T. ) ;
#226 = DIRECTION ( 'NONE',  ( 1.000000000000000000, 0.000000000000000000, -0.000000000000000000 ) ) ;
#227 = APPROVAL ( #42, 'NEURÈENÝ' ) ;
#228 = DIRECTION ( 'NONE',  ( 0.000000000000000000, 0.000000000000000000, 1.000000000000000000 ) ) ;
#229 = SECURITY_CLASSIFICATION ( '', '', #97 ) ;
#230 = CARTESIAN_POINT ( 'NONE',  ( 20.00000000000000000, 2.449293598294706513E-15, 10.00000000000000000 ) ) ;
#231 = DIRECTION ( 'NONE',  ( 1.000000000000000000, 0.000000000000000000, 0.000000000000000000 ) ) ;
#232 = DIRECTION ( 'NONE',  ( -0.000000000000000000, -0.000000000000000000, -1.000000000000000000 ) ) ;
#233 = APPROVAL ( #21, 'NEURÈENÝ' ) ;
#234 = APPROVAL_PERSON_ORGANIZATION ( #144, #89, #224 ) ;
#235 = APPLICATION_PROTOCOL_DEFINITION ( 'international standard', 'config_control_design', 1994, #297 ) ;
#236 = FACE_OUTER_BOUND ( 'NONE', #194, .T. ) ;
#237 = DIRECTION ( 'NONE',  ( 0.000000000000000000, 0.000000000000000000, 1.000000000000000000 ) ) ;
#238 = EDGE_CURVE ( 'NONE', #259, #73, #216, .T. ) ;
#239 = ADVANCED_BREP_SHAPE_REPRESENTATION ( '00ef', ( #23, #137 ), #190 ) ;
#240 = PRODUCT ( '00ef', '00ef', '', ( #258 ) ) ;
#241 = DIRECTION ( 'NONE',  ( 0.000000000000000000, 0.000000000000000000, 1.000000000000000000 ) ) ;
#242 = CALENDAR_DATE ( 2022, 20, 6 ) ;
#243 = CARTESIAN_POINT ( 'NONE',  ( 16.00000000000000000, 1.959434878635765131E-15, 210.0000000000000284 ) ) ;
#244 = PERSON_AND_ORGANIZATION ( #187, #4 ) ;
#245 = CARTESIAN_POINT ( 'NONE',  ( 0.000000000000000000, 0.000000000000000000, 210.0000000000000284 ) ) ;
#246 = PERSON_AND_ORGANIZATION ( #187, #4 ) ;
#247 = ORIENTED_EDGE ( 'NONE', *, *, #69, .F. ) ;
#248 = EDGE_CURVE ( 'NONE', #197, #199, #93, .T. ) ;
#249 = EDGE_LOOP ( 'NONE', ( #24, #196 ) ) ;
#250 = AXIS2_PLACEMENT_3D ( 'NONE', #113, #237, #111 ) ;
#251 = ORIENTED_EDGE ( 'NONE', *, *, #133, .F. ) ;
#252 = CARTESIAN_POINT ( 'NONE',  ( 0.000000000000000000, 0.000000000000000000, 10.00000000000000000 ) ) ;
#253 = AXIS2_PLACEMENT_3D ( 'NONE', #176, #228, #256 ) ;
#254 = DIRECTION ( 'NONE',  ( 0.000000000000000000, 0.000000000000000000, 1.000000000000000000 ) ) ;
#255 = FACE_OUTER_BOUND ( 'NONE', #98, .T. ) ;
#256 = DIRECTION ( 'NONE',  ( 1.000000000000000000, 0.000000000000000000, 0.000000000000000000 ) ) ;
#257 = AXIS2_PLACEMENT_3D ( 'NONE', #245, #28, #10 ) ;
#258 = MECHANICAL_CONTEXT ( 'NONE', #297, 'mechanical' ) ;
#259 = VERTEX_POINT ( 'NONE', #230 ) ;
#260 = DATE_AND_TIME ( #160, #119 ) ;
#261 = COORDINATED_UNIVERSAL_TIME_OFFSET ( 1, 0, .AHEAD. ) ;
#262 = ORIENTED_EDGE ( 'NONE', *, *, #107, .T. ) ;
#263 = ORIENTED_EDGE ( 'NONE', *, *, #102, .T. ) ;
#264 = EDGE_LOOP ( 'NONE', ( #247, #290, #122, #262 ) ) ;
#265 = DATE_AND_TIME ( #51, #217 ) ;
#266 = DIRECTION ( 'NONE',  ( 1.000000000000000000, 0.000000000000000000, -0.000000000000000000 ) ) ;
#267 = AXIS2_PLACEMENT_3D ( 'NONE', #14, #34, #226 ) ;
#268 = ORIENTED_EDGE ( 'NONE', *, *, #282, .F. ) ;
#269 = ORIENTED_EDGE ( 'NONE', *, *, #223, .T. ) ;
#270 = AXIS2_PLACEMENT_3D ( 'NONE', #252, #16, #80 ) ;
#271 = CC_DESIGN_PERSON_AND_ORGANIZATION_ASSIGNMENT ( #64, #213, ( #11 ) ) ;
#272 = LOCAL_TIME ( 11, 16, 36.00000000000000000, #70 ) ;
#273 = DIRECTION ( 'NONE',  ( -0.000000000000000000, -0.000000000000000000, -1.000000000000000000 ) ) ;
#274 = CARTESIAN_POINT ( 'NONE',  ( 0.000000000000000000, 0.000000000000000000, 10.19999999999998685 ) ) ;
#275 = CIRCLE ( 'NONE', #253, 20.00000000000000000 ) ;
#276 = LINE ( 'NONE', #37, #118 ) ;
#277 = EDGE_CURVE ( 'NONE', #73, #143, #206, .T. ) ;
#278 = DIRECTION ( 'NONE',  ( -0.000000000000000000, -0.000000000000000000, -1.000000000000000000 ) ) ;
#279 = FACE_OUTER_BOUND ( 'NONE', #6, .T. ) ;
#280 = DIRECTION ( 'NONE',  ( 1.000000000000000000, 0.000000000000000000, 0.000000000000000000 ) ) ;
#281 = ORIENTED_EDGE ( 'NONE', *, *, #302, .F. ) ;
#282 = EDGE_CURVE ( 'NONE', #117, #146, #304, .T. ) ;
#283 = CALENDAR_DATE ( 2022, 20, 6 ) ;
#284 = CARTESIAN_POINT ( 'NONE',  ( 0.000000000000000000, 0.000000000000000000, 10.19999999999998685 ) ) ;
#285 = APPROVAL_ROLE ( '' ) ;
#286 =( NAMED_UNIT ( * ) PLANE_ANGLE_UNIT ( ) SI_UNIT ( $, .RADIAN. ) );
#287 = EDGE_CURVE ( 'NONE', #117, #197, #162, .T. ) ;
#288 = PERSON_AND_ORGANIZATION ( #187, #4 ) ;
#289 = CARTESIAN_POINT ( 'NONE',  ( 20.00000000000000000, 2.449293598294706513E-15, 10.00000000000000000 ) ) ;
#290 = ORIENTED_EDGE ( 'NONE', *, *, #192, .F. ) ;
#291 = ADVANCED_FACE ( 'NONE', ( #236 ), #157, .T. ) ;
#292 = ORIENTED_EDGE ( 'NONE', *, *, #3, .F. ) ;
#293 = LOCAL_TIME ( 11, 16, 36.00000000000000000, #115 ) ;
#294 = ORIENTED_EDGE ( 'NONE', *, *, #44, .T. ) ;
#295 = APPROVAL_DATE_TIME ( #121, #89 ) ;
#296 = ORIENTED_EDGE ( 'NONE', *, *, #185, .F. ) ;
#297 = APPLICATION_CONTEXT ( 'configuration controlled 3d designs of mechanical parts and assemblies' ) ;
#298 = DIRECTION ( 'NONE',  ( 0.000000000000000000, 0.000000000000000000, 1.000000000000000000 ) ) ;
#299 = AXIS2_PLACEMENT_3D ( 'NONE', #200, #298, #303 ) ;
#300 = PLANE ( 'NONE',  #267 ) ;
#301 = FACE_OUTER_BOUND ( 'NONE', #53, .T. ) ;
#302 = EDGE_CURVE ( 'NONE', #197, #117, #66, .T. ) ;
#303 = DIRECTION ( 'NONE',  ( 1.000000000000000000, 0.000000000000000000, 0.000000000000000000 ) ) ;
#304 = CIRCLE ( 'NONE', #150, 0.2000000000000005107 ) ;
#305 = DIRECTION ( 'NONE',  ( 1.000000000000000000, 0.000000000000000000, 0.000000000000000000 ) ) ;
#306 = PERSON_AND_ORGANIZATION ( #187, #4 ) ;
#307 = ORIENTED_EDGE ( 'NONE', *, *, #287, .F. ) ;
ENDSEC;
END-ISO-10303-21;
