ISO-10303-21;
HEADER;
FILE_DESCRIPTION (( 'STEP AP203' ),
    '1' );
FILE_NAME ('fd66.STEP',
    '2022-06-20T09:40:02',
    ( '' ),
    ( '' ),
    'SwSTEP 2.0',
    'SolidWorks 2019',
    '' );
FILE_SCHEMA (( 'CONFIG_CONTROL_DESIGN' ));
ENDSEC;

DATA;
#1 = ORIENTED_EDGE ( 'NONE', *, *, #187, .F. ) ;
#2 = CARTESIAN_POINT ( 'NONE',  ( 0.000000000000000000, 0.000000000000000000, 5.000000000000000000 ) ) ;
#3 = ADVANCED_FACE ( 'NONE', ( #96 ), #27, .T. ) ;
#4 = AXIS2_PLACEMENT_3D ( 'NONE', #10, #37, #103 ) ;
#5 = PERSON_AND_ORGANIZATION_ROLE ( 'design_supplier' ) ;
#6 = ORIENTED_EDGE ( 'NONE', *, *, #292, .T. ) ;
#7 = ORIENTED_EDGE ( 'NONE', *, *, #87, .T. ) ;
#8 = CARTESIAN_POINT ( 'NONE',  ( 0.000000000000000000, 0.000000000000000000, 0.000000000000000000 ) ) ;
#9 = CARTESIAN_POINT ( 'NONE',  ( 5.000000000000000888, 6.123233995736767268E-16, 1204.999999999999773 ) ) ;
#10 = CARTESIAN_POINT ( 'NONE',  ( 0.000000000000000000, 0.000000000000000000, 0.000000000000000000 ) ) ;
#11 = CIRCLE ( 'NONE', #232, 5.000000000000000888 ) ;
#12 = LINE ( 'NONE', #35, #160 ) ;
#13 = PRODUCT_DEFINITION ( 'NEZNÁMÝ', '', #154, #107 ) ;
#14 = CC_DESIGN_APPROVAL ( #45, ( #72 ) ) ;
#15 = APPLICATION_CONTEXT ( 'configuration controlled 3d designs of mechanical parts and assemblies' ) ;
#16 = CYLINDRICAL_SURFACE ( 'NONE', #33, 5.000000000000000888 ) ;
#17 = DIRECTION ( 'NONE',  ( -1.000000000000000000, 1.224646799147353454E-16, 0.000000000000000000 ) ) ;
#18 = CALENDAR_DATE ( 2022, 20, 6 ) ;
#19 = CC_DESIGN_DATE_AND_TIME_ASSIGNMENT ( #303, #212, ( #13 ) ) ;
#20 = MECHANICAL_CONTEXT ( 'NONE', #15, 'mechanical' ) ;
#21 = APPLICATION_PROTOCOL_DEFINITION ( 'international standard', 'config_control_design', 1994, #15 ) ;
#22 = ORIENTED_EDGE ( 'NONE', *, *, #40, .F. ) ;
#23 =( LENGTH_UNIT ( ) NAMED_UNIT ( * ) SI_UNIT ( .MILLI., .METRE. ) );
#24 = ORIENTED_EDGE ( 'NONE', *, *, #148, .T. ) ;
#25 = ORIENTED_EDGE ( 'NONE', *, *, #131, .T. ) ;
#26 = CIRCLE ( 'NONE', #94, 5.200000000000001066 ) ;
#27 = CYLINDRICAL_SURFACE ( 'NONE', #257, 5.000000000000000888 ) ;
#28 = PERSON_AND_ORGANIZATION ( #76, #150 ) ;
#29 = ORIENTED_EDGE ( 'NONE', *, *, #77, .T. ) ;
#30 = CC_DESIGN_PERSON_AND_ORGANIZATION_ASSIGNMENT ( #189, #68, ( #233 ) ) ;
#31 = PERSON_AND_ORGANIZATION ( #76, #150 ) ;
#32 = ORIENTED_EDGE ( 'NONE', *, *, #138, .T. ) ;
#33 = AXIS2_PLACEMENT_3D ( 'NONE', #185, #105, #207 ) ;
#34 = LINE ( 'NONE', #102, #60 ) ;
#35 = CARTESIAN_POINT ( 'NONE',  ( 5.000000000000000888, 6.123233995736767268E-16, 1204.999999999999773 ) ) ;
#36 = AXIS2_PLACEMENT_3D ( 'NONE', #226, #200, #176 ) ;
#37 = DIRECTION ( 'NONE',  ( 0.000000000000000000, 0.000000000000000000, 1.000000000000000000 ) ) ;
#38 = CARTESIAN_POINT ( 'NONE',  ( 5.200000000000001066, 0.000000000000000000, 5.000000000000047073 ) ) ;
#39 = DIRECTION ( 'NONE',  ( 0.000000000000000000, 0.000000000000000000, 1.000000000000000000 ) ) ;
#40 = EDGE_CURVE ( 'NONE', #149, #225, #170, .T. ) ;
#41 = PRODUCT_DEFINITION_SHAPE ( 'NONE', 'NONE',  #13 ) ;
#42 = FACE_OUTER_BOUND ( 'NONE', #82, .T. ) ;
#43 = AXIS2_PLACEMENT_3D ( 'NONE', #44, #139, #213 ) ;
#44 = CARTESIAN_POINT ( 'NONE',  ( 5.200000000000001066, 0.000000000000000000, 5.200000000000093436 ) ) ;
#45 = APPROVAL ( #196, 'NEURÈENÝ' ) ;
#46 = APPLICATION_PROTOCOL_DEFINITION ( 'international standard', 'config_control_design', 1994, #98 ) ;
#47 = AXIS2_PLACEMENT_3D ( 'NONE', #133, #301, #251 ) ;
#48 = PLANE ( 'NONE',  #127 ) ;
#49 = VECTOR ( 'NONE', #108, 1000.000000000000000 ) ;
#50 = DIRECTION ( 'NONE',  ( 0.000000000000000000, 0.000000000000000000, 1.000000000000000000 ) ) ;
#51 = PERSON_AND_ORGANIZATION_ROLE ( 'creator' ) ;
#52 = ORIENTED_EDGE ( 'NONE', *, *, #274, .T. ) ;
#53 = APPROVAL_PERSON_ORGANIZATION ( #28, #45, #125 ) ;
#54 = PRODUCT_RELATED_PRODUCT_CATEGORY ( 'detail', '', ( #233 ) ) ;
#55 = DIRECTION ( 'NONE',  ( -0.000000000000000000, -0.000000000000000000, -1.000000000000000000 ) ) ;
#56 = DIRECTION ( 'NONE',  ( 1.000000000000000000, 0.000000000000000000, 0.000000000000000000 ) ) ;
#57 = COORDINATED_UNIVERSAL_TIME_OFFSET ( 1, 0, .AHEAD. ) ;
#58 = EDGE_LOOP ( 'NONE', ( #147, #201, #7, #32 ) ) ;
#59 = DIRECTION ( 'NONE',  ( 1.000000000000000000, 0.000000000000000000, 0.000000000000000000 ) ) ;
#60 = VECTOR ( 'NONE', #184, 1000.000000000000000 ) ;
#61 = DIRECTION ( 'NONE',  ( -0.000000000000000000, -0.000000000000000000, -1.000000000000000000 ) ) ;
#62 = CC_DESIGN_PERSON_AND_ORGANIZATION_ASSIGNMENT ( #31, #51, ( #154 ) ) ;
#63 = CARTESIAN_POINT ( 'NONE',  ( 5.000000000000000888, 6.123233995736767268E-16, 5.200000000000093436 ) ) ;
#64 = CARTESIAN_POINT ( 'NONE',  ( 0.000000000000000000, 0.000000000000000000, 5.000000000000000000 ) ) ;
#65 = APPROVAL_ROLE ( '' ) ;
#66 = CIRCLE ( 'NONE', #253, 0.1999999999999996503 ) ;
#67 = LINE ( 'NONE', #136, #192 ) ;
#68 = PERSON_AND_ORGANIZATION_ROLE ( 'design_owner' ) ;
#69 = DIRECTION ( 'NONE',  ( 1.000000000000000000, 0.000000000000000000, 0.000000000000000000 ) ) ;
#70 = ORIENTED_EDGE ( 'NONE', *, *, #274, .F. ) ;
#71 = ADVANCED_FACE ( 'NONE', ( #171 ), #293, .T. ) ;
#72 = SECURITY_CLASSIFICATION ( '', '', #78 ) ;
#73 = EDGE_LOOP ( 'NONE', ( #22, #247, #25, #84 ) ) ;
#74 = COORDINATED_UNIVERSAL_TIME_OFFSET ( 1, 0, .AHEAD. ) ;
#75 = DIRECTION ( 'NONE',  ( -1.000000000000000000, 0.000000000000000000, 0.000000000000000000 ) ) ;
#76 = PERSON ( 'NEURÈENÝ', 'NEURÈENÝ', 'NEURÈENÝ', ('NEURÈENÝ'), ('NEURÈENÝ'), ('NEURÈENÝ') ) ;
#77 = EDGE_CURVE ( 'NONE', #286, #211, #250, .T. ) ;
#78 = SECURITY_CLASSIFICATION_LEVEL ( 'unclassified' ) ;
#79 = VERTEX_POINT ( 'NONE', #269 ) ;
#80 = CIRCLE ( 'NONE', #43, 0.1999999999999996503 ) ;
#81 = APPROVAL_ROLE ( '' ) ;
#82 = EDGE_LOOP ( 'NONE', ( #244, #283, #6, #218 ) ) ;
#83 = VERTEX_POINT ( 'NONE', #248 ) ;
#84 = ORIENTED_EDGE ( 'NONE', *, *, #292, .F. ) ;
#85 = DIRECTION ( 'NONE',  ( 1.000000000000000000, 0.000000000000000000, 0.000000000000000000 ) ) ;
#86 = DIRECTION ( 'NONE',  ( -1.000000000000000000, 0.000000000000000000, 0.000000000000000000 ) ) ;
#87 = EDGE_CURVE ( 'NONE', #211, #142, #34, .T. ) ;
#88 = DIRECTION ( 'NONE',  ( 1.000000000000000000, 0.000000000000000000, 0.000000000000000000 ) ) ;
#89 = DIRECTION ( 'NONE',  ( 1.000000000000000000, 0.000000000000000000, 0.000000000000000000 ) ) ;
#90 = CARTESIAN_POINT ( 'NONE',  ( 0.000000000000000000, 0.000000000000000000, 5.000000000000000000 ) ) ;
#91 = EDGE_CURVE ( 'NONE', #225, #149, #237, .T. ) ;
#92 = CIRCLE ( 'NONE', #4, 8.000000000000000000 ) ;
#93 = PERSON_AND_ORGANIZATION ( #76, #150 ) ;
#94 = AXIS2_PLACEMENT_3D ( 'NONE', #64, #204, #180 ) ;
#95 = VERTEX_POINT ( 'NONE', #63 ) ;
#96 = FACE_OUTER_BOUND ( 'NONE', #73, .T. ) ;
#97 = ADVANCED_FACE ( 'NONE', ( #156 ), #109, .F. ) ;
#98 = APPLICATION_CONTEXT ( 'configuration controlled 3d designs of mechanical parts and assemblies' ) ;
#99 = ORIENTED_EDGE ( 'NONE', *, *, #296, .T. ) ;
#100 = EDGE_LOOP ( 'NONE', ( #126, #29 ) ) ;
#101 = ORIENTED_EDGE ( 'NONE', *, *, #214, .F. ) ;
#102 = CARTESIAN_POINT ( 'NONE',  ( -8.000000000000000000, 0.000000000000000000, 5.000000000000000000 ) ) ;
#103 = DIRECTION ( 'NONE',  ( 1.000000000000000000, 0.000000000000000000, 0.000000000000000000 ) ) ;
#104 = CC_DESIGN_APPROVAL ( #158, ( #13 ) ) ;
#105 = DIRECTION ( 'NONE',  ( -0.000000000000000000, -0.000000000000000000, -1.000000000000000000 ) ) ;
#106 = EDGE_CURVE ( 'NONE', #79, #142, #146, .T. ) ;
#107 = DESIGN_CONTEXT ( 'detailed design', #98, 'design' ) ;
#108 = DIRECTION ( 'NONE',  ( -0.000000000000000000, -0.000000000000000000, -1.000000000000000000 ) ) ;
#109 = TOROIDAL_SURFACE ( 'NONE', #47, 5.200000000000001066, 0.2000000000000000111 ) ;
#110 = CARTESIAN_POINT ( 'NONE',  ( 0.000000000000000000, 0.000000000000000000, 5.200000000000093436 ) ) ;
#111 = DIRECTION ( 'NONE',  ( -0.000000000000000000, -0.000000000000000000, -1.000000000000000000 ) ) ;
#112 = CALENDAR_DATE ( 2022, 20, 6 ) ;
#113 = AXIS2_PLACEMENT_3D ( 'NONE', #268, #222, #177 ) ;
#114 = PERSON_AND_ORGANIZATION_ROLE ( 'creator' ) ;
#115 =( GEOMETRIC_REPRESENTATION_CONTEXT ( 3 ) GLOBAL_UNCERTAINTY_ASSIGNED_CONTEXT ( ( #182 ) ) GLOBAL_UNIT_ASSIGNED_CONTEXT ( ( #23, #264, #193 ) ) REPRESENTATION_CONTEXT ( 'NONE', 'WORKASPACE' ) );
#116 = DIRECTION ( 'NONE',  ( 0.000000000000000000, 0.000000000000000000, 1.000000000000000000 ) ) ;
#117 = ADVANCED_FACE ( 'NONE', ( #135 ), #256, .F. ) ;
#118 = DIRECTION ( 'NONE',  ( 1.000000000000000000, 0.000000000000000000, 0.000000000000000000 ) ) ;
#119 = ORIENTED_EDGE ( 'NONE', *, *, #106, .T. ) ;
#120 = AXIS2_PLACEMENT_3D ( 'NONE', #300, #227, #89 ) ;
#121 = ORIENTED_EDGE ( 'NONE', *, *, #252, .T. ) ;
#122 = ORIENTED_EDGE ( 'NONE', *, *, #40, .T. ) ;
#123 = PERSON_AND_ORGANIZATION ( #76, #150 ) ;
#124 = EDGE_LOOP ( 'NONE', ( #199, #122 ) ) ;
#125 = APPROVAL_ROLE ( '' ) ;
#126 = ORIENTED_EDGE ( 'NONE', *, *, #230, .T. ) ;
#127 = AXIS2_PLACEMENT_3D ( 'NONE', #238, #159, #280 ) ;
#128 = CC_DESIGN_PERSON_AND_ORGANIZATION_ASSIGNMENT ( #93, #114, ( #13 ) ) ;
#129 = DIRECTION ( 'NONE',  ( 1.000000000000000000, 0.000000000000000000, 0.000000000000000000 ) ) ;
#130 = CLOSED_SHELL ( 'NONE', ( #97, #3, #71, #174, #262, #117, #206, #240, #284 ) ) ;
#131 = EDGE_CURVE ( 'NONE', #95, #83, #11, .T. ) ;
#132 = DIRECTION ( 'NONE',  ( 0.000000000000000000, 0.000000000000000000, 1.000000000000000000 ) ) ;
#133 = CARTESIAN_POINT ( 'NONE',  ( 0.000000000000000000, 0.000000000000000000, 5.200000000000093436 ) ) ;
#134 = FACE_OUTER_BOUND ( 'NONE', #58, .T. ) ;
#135 = FACE_OUTER_BOUND ( 'NONE', #266, .T. ) ;
#136 = CARTESIAN_POINT ( 'NONE',  ( -5.000000000000000888, 0.000000000000000000, 1204.999999999999773 ) ) ;
#137 = CARTESIAN_POINT ( 'NONE',  ( 0.000000000000000000, 0.000000000000000000, 0.000000000000000000 ) ) ;
#138 = EDGE_CURVE ( 'NONE', #142, #79, #92, .T. ) ;
#139 = DIRECTION ( 'NONE',  ( 0.000000000000000000, -1.000000000000000000, 0.000000000000000000 ) ) ;
#140 = APPROVAL_DATE_TIME ( #145, #45 ) ;
#141 = CC_DESIGN_APPROVAL ( #220, ( #154 ) ) ;
#142 = VERTEX_POINT ( 'NONE', #151 ) ;
#143 = COORDINATED_UNIVERSAL_TIME_OFFSET ( 1, 0, .AHEAD. ) ;
#144 = ORIENTED_EDGE ( 'NONE', *, *, #87, .F. ) ;
#145 = DATE_AND_TIME ( #265, #285 ) ;
#146 = CIRCLE ( 'NONE', #260, 8.000000000000000000 ) ;
#147 = ORIENTED_EDGE ( 'NONE', *, *, #148, .F. ) ;
#148 = EDGE_CURVE ( 'NONE', #286, #79, #203, .T. ) ;
#149 = VERTEX_POINT ( 'NONE', #9 ) ;
#150 = ORGANIZATION ( 'NEURÈENÝ', 'NEURÈENÝ', '' ) ;
#151 = CARTESIAN_POINT ( 'NONE',  ( -8.000000000000000000, 0.000000000000000000, 0.000000000000000000 ) ) ;
#152 = FACE_BOUND ( 'NONE', #291, .T. ) ;
#153 = DIRECTION ( 'NONE',  ( 1.000000000000000000, 0.000000000000000000, 0.000000000000000000 ) ) ;
#154 = PRODUCT_DEFINITION_FORMATION_WITH_SPECIFIED_SOURCE ( 'LIBOVOLNÝ', '', #233, .NOT_KNOWN. ) ;
#155 = ADVANCED_BREP_SHAPE_REPRESENTATION ( 'fd66', ( #223, #188 ), #115 ) ;
#156 = FACE_OUTER_BOUND ( 'NONE', #178, .T. ) ;
#157 = CARTESIAN_POINT ( 'NONE',  ( 0.000000000000000000, 0.000000000000000000, 1204.999999999999773 ) ) ;
#158 = APPROVAL ( #215, 'NEURÈENÝ' ) ;
#159 = DIRECTION ( 'NONE',  ( 0.000000000000000000, 0.000000000000000000, 1.000000000000000000 ) ) ;
#160 = VECTOR ( 'NONE', #228, 1000.000000000000000 ) ;
#161 = CARTESIAN_POINT ( 'NONE',  ( 0.000000000000000000, 0.000000000000000000, 5.200000000000093436 ) ) ;
#162 = ORIENTED_EDGE ( 'NONE', *, *, #77, .F. ) ;
#163 = CC_DESIGN_DATE_AND_TIME_ASSIGNMENT ( #245, #267, ( #72 ) ) ;
#164 = DIRECTION ( 'NONE',  ( 1.224646799147353207E-16, 1.000000000000000000, -0.000000000000000000 ) ) ;
#165 = CARTESIAN_POINT ( 'NONE',  ( 8.000000000000000000, 9.797174393178825657E-16, 5.000000000000000000 ) ) ;
#166 = ORIENTED_EDGE ( 'NONE', *, *, #131, .F. ) ;
#167 = LOCAL_TIME ( 11, 40, 2.000000000000000000, #57 ) ;
#168 = APPROVAL_DATE_TIME ( #210, #158 ) ;
#169 = APPROVAL_DATE_TIME ( #287, #220 ) ;
#170 = CIRCLE ( 'NONE', #36, 5.000000000000000888 ) ;
#171 = FACE_OUTER_BOUND ( 'NONE', #239, .T. ) ;
#172 = AXIS2_PLACEMENT_3D ( 'NONE', #110, #299, #153 ) ;
#173 = CARTESIAN_POINT ( 'NONE',  ( 0.000000000000000000, 0.000000000000000000, 1204.999999999999773 ) ) ;
#174 = ADVANCED_FACE ( 'NONE', ( #134 ), #205, .T. ) ;
#175 = CALENDAR_DATE ( 2022, 20, 6 ) ;
#176 = DIRECTION ( 'NONE',  ( 1.000000000000000000, 0.000000000000000000, 0.000000000000000000 ) ) ;
#177 = DIRECTION ( 'NONE',  ( -1.000000000000000000, 0.000000000000000000, 0.000000000000000000 ) ) ;
#178 = EDGE_LOOP ( 'NONE', ( #1, #99, #101, #70 ) ) ;
#179 = CARTESIAN_POINT ( 'NONE',  ( -5.200000000000001066, 6.368163355566237368E-16, 5.000000000000047073 ) ) ;
#180 = DIRECTION ( 'NONE',  ( 1.000000000000000000, 0.000000000000000000, 0.000000000000000000 ) ) ;
#181 = AXIS2_PLACEMENT_3D ( 'NONE', #277, #39, #88 ) ;
#182 = UNCERTAINTY_MEASURE_WITH_UNIT (LENGTH_MEASURE( 1.000000000000000082E-05 ), #23, 'distance_accuracy_value', 'NONE');
#183 = EDGE_CURVE ( 'NONE', #149, #95, #12, .T. ) ;
#184 = DIRECTION ( 'NONE',  ( -0.000000000000000000, -0.000000000000000000, -1.000000000000000000 ) ) ;
#185 = CARTESIAN_POINT ( 'NONE',  ( 0.000000000000000000, 0.000000000000000000, 1204.999999999999773 ) ) ;
#186 = PERSON_AND_ORGANIZATION ( #76, #150 ) ;
#187 = EDGE_CURVE ( 'NONE', #83, #95, #304, .T. ) ;
#188 = AXIS2_PLACEMENT_3D ( 'NONE', #137, #116, #69 ) ;
#189 = PERSON_AND_ORGANIZATION ( #76, #150 ) ;
#190 = ORIENTED_EDGE ( 'NONE', *, *, #214, .T. ) ;
#191 = PERSON_AND_ORGANIZATION ( #76, #150 ) ;
#192 = VECTOR ( 'NONE', #259, 1000.000000000000000 ) ;
#193 =( NAMED_UNIT ( * ) SI_UNIT ( $, .STERADIAN. ) SOLID_ANGLE_UNIT ( ) );
#194 = ORIENTED_EDGE ( 'NONE', *, *, #252, .F. ) ;
#195 = AXIS2_PLACEMENT_3D ( 'NONE', #2, #288, #56 ) ;
#196 = APPROVAL_STATUS ( 'not_yet_approved' ) ;
#197 = VERTEX_POINT ( 'NONE', #38 ) ;
#198 = CALENDAR_DATE ( 2022, 20, 6 ) ;
#199 = ORIENTED_EDGE ( 'NONE', *, *, #91, .T. ) ;
#200 = DIRECTION ( 'NONE',  ( 0.000000000000000000, 0.000000000000000000, 1.000000000000000000 ) ) ;
#201 = ORIENTED_EDGE ( 'NONE', *, *, #230, .F. ) ;
#202 = TOROIDAL_SURFACE ( 'NONE', #307, 5.200000000000001066, 0.2000000000000000111 ) ;
#203 = LINE ( 'NONE', #229, #49 ) ;
#204 = DIRECTION ( 'NONE',  ( -0.000000000000000000, -0.000000000000000000, -1.000000000000000000 ) ) ;
#205 = CYLINDRICAL_SURFACE ( 'NONE', #276, 8.000000000000000000 ) ;
#206 = ADVANCED_FACE ( 'NONE', ( #42 ), #16, .T. ) ;
#207 = DIRECTION ( 'NONE',  ( -1.000000000000000000, 0.000000000000000000, 0.000000000000000000 ) ) ;
#208 = CIRCLE ( 'NONE', #294, 5.200000000000001066 ) ;
#209 = DIRECTION ( 'NONE',  ( 0.000000000000000000, 0.000000000000000000, 1.000000000000000000 ) ) ;
#210 = DATE_AND_TIME ( #112, #242 ) ;
#211 = VERTEX_POINT ( 'NONE', #254 ) ;
#212 = DATE_TIME_ROLE ( 'creation_date' ) ;
#213 = DIRECTION ( 'NONE',  ( 0.000000000000000000, 0.000000000000000000, -1.000000000000000000 ) ) ;
#214 = EDGE_CURVE ( 'NONE', #197, #246, #26, .T. ) ;
#215 = APPROVAL_STATUS ( 'not_yet_approved' ) ;
#216 = ORIENTED_EDGE ( 'NONE', *, *, #106, .F. ) ;
#217 = LOCAL_TIME ( 11, 40, 2.000000000000000000, #143 ) ;
#218 = ORIENTED_EDGE ( 'NONE', *, *, #187, .T. ) ;
#219 = ORIENTED_EDGE ( 'NONE', *, *, #296, .F. ) ;
#220 = APPROVAL ( #282, 'NEURÈENÝ' ) ;
#221 = SHAPE_DEFINITION_REPRESENTATION ( #41, #155 ) ;
#222 = DIRECTION ( 'NONE',  ( -0.000000000000000000, -0.000000000000000000, -1.000000000000000000 ) ) ;
#223 = MANIFOLD_SOLID_BREP ( 'Zaoblit1', #130 ) ;
#224 = CIRCLE ( 'NONE', #120, 8.000000000000000000 ) ;
#225 = VERTEX_POINT ( 'NONE', #295 ) ;
#226 = CARTESIAN_POINT ( 'NONE',  ( 0.000000000000000000, 0.000000000000000000, 1204.999999999999773 ) ) ;
#227 = DIRECTION ( 'NONE',  ( 0.000000000000000000, 0.000000000000000000, 1.000000000000000000 ) ) ;
#228 = DIRECTION ( 'NONE',  ( -0.000000000000000000, -0.000000000000000000, -1.000000000000000000 ) ) ;
#229 = CARTESIAN_POINT ( 'NONE',  ( 8.000000000000000000, 9.797174393178825657E-16, 5.000000000000000000 ) ) ;
#230 = EDGE_CURVE ( 'NONE', #211, #286, #224, .T. ) ;
#231 = DIRECTION ( 'NONE',  ( 0.000000000000000000, 0.000000000000000000, 1.000000000000000000 ) ) ;
#232 = AXIS2_PLACEMENT_3D ( 'NONE', #255, #132, #129 ) ;
#233 = PRODUCT ( 'fd66', 'fd66', '', ( #20 ) ) ;
#234 = DIRECTION ( 'NONE',  ( 1.000000000000000000, 0.000000000000000000, -0.000000000000000000 ) ) ;
#235 = LOCAL_TIME ( 11, 40, 2.000000000000000000, #302 ) ;
#236 = COORDINATED_UNIVERSAL_TIME_OFFSET ( 1, 0, .AHEAD. ) ;
#237 = CIRCLE ( 'NONE', #181, 5.000000000000000888 ) ;
#238 = CARTESIAN_POINT ( 'NONE',  ( 0.000000000000000000, 0.000000000000000000, 5.000000000000000000 ) ) ;
#239 = EDGE_LOOP ( 'NONE', ( #162, #24, #119, #144 ) ) ;
#240 = ADVANCED_FACE ( 'NONE', ( #278 ), #275, .T. ) ;
#241 = PERSON_AND_ORGANIZATION ( #76, #150 ) ;
#242 = LOCAL_TIME ( 11, 40, 2.000000000000000000, #236 ) ;
#243 = CC_DESIGN_PERSON_AND_ORGANIZATION_ASSIGNMENT ( #123, #5, ( #154 ) ) ;
#244 = ORIENTED_EDGE ( 'NONE', *, *, #183, .F. ) ;
#245 = DATE_AND_TIME ( #175, #217 ) ;
#246 = VERTEX_POINT ( 'NONE', #179 ) ;
#247 = ORIENTED_EDGE ( 'NONE', *, *, #183, .T. ) ;
#248 = CARTESIAN_POINT ( 'NONE',  ( -5.000000000000000888, 0.000000000000000000, 5.200000000000093436 ) ) ;
#249 = CARTESIAN_POINT ( 'NONE',  ( 0.000000000000000000, 0.000000000000000000, 0.000000000000000000 ) ) ;
#250 = CIRCLE ( 'NONE', #195, 8.000000000000000000 ) ;
#251 = DIRECTION ( 'NONE',  ( 1.000000000000000000, 0.000000000000000000, 0.000000000000000000 ) ) ;
#252 = EDGE_CURVE ( 'NONE', #246, #197, #208, .T. ) ;
#253 = AXIS2_PLACEMENT_3D ( 'NONE', #261, #164, #17 ) ;
#254 = CARTESIAN_POINT ( 'NONE',  ( -8.000000000000000000, 0.000000000000000000, 5.000000000000000000 ) ) ;
#255 = CARTESIAN_POINT ( 'NONE',  ( 0.000000000000000000, 0.000000000000000000, 5.200000000000093436 ) ) ;
#256 = PLANE ( 'NONE',  #298 ) ;
#257 = AXIS2_PLACEMENT_3D ( 'NONE', #173, #55, #75 ) ;
#258 = FACE_OUTER_BOUND ( 'NONE', #272, .T. ) ;
#259 = DIRECTION ( 'NONE',  ( -0.000000000000000000, -0.000000000000000000, -1.000000000000000000 ) ) ;
#260 = AXIS2_PLACEMENT_3D ( 'NONE', #249, #297, #85 ) ;
#261 = CARTESIAN_POINT ( 'NONE',  ( -5.200000000000001066, 6.368163355566237368E-16, 5.200000000000093436 ) ) ;
#262 = ADVANCED_FACE ( 'NONE', ( #152, #305 ), #48, .T. ) ;
#263 = AXIS2_PLACEMENT_3D ( 'NONE', #157, #209, #279 ) ;
#264 =( NAMED_UNIT ( * ) PLANE_ANGLE_UNIT ( ) SI_UNIT ( $, .RADIAN. ) );
#265 = CALENDAR_DATE ( 2022, 20, 6 ) ;
#266 = EDGE_LOOP ( 'NONE', ( #306, #216 ) ) ;
#267 = DATE_TIME_ROLE ( 'classification_date' ) ;
#268 = CARTESIAN_POINT ( 'NONE',  ( 0.000000000000000000, 0.000000000000000000, 5.000000000000000000 ) ) ;
#269 = CARTESIAN_POINT ( 'NONE',  ( 8.000000000000000000, 9.797174393178825657E-16, 0.000000000000000000 ) ) ;
#270 = CC_DESIGN_PERSON_AND_ORGANIZATION_ASSIGNMENT ( #241, #290, ( #72 ) ) ;
#271 = CC_DESIGN_SECURITY_CLASSIFICATION ( #72, ( #154 ) ) ;
#272 = EDGE_LOOP ( 'NONE', ( #219, #166, #52, #194 ) ) ;
#273 = CARTESIAN_POINT ( 'NONE',  ( 0.000000000000000000, 0.000000000000000000, 5.000000000000000000 ) ) ;
#274 = EDGE_CURVE ( 'NONE', #95, #197, #80, .T. ) ;
#275 = PLANE ( 'NONE',  #263 ) ;
#276 = AXIS2_PLACEMENT_3D ( 'NONE', #90, #111, #86 ) ;
#277 = CARTESIAN_POINT ( 'NONE',  ( 0.000000000000000000, 0.000000000000000000, 1204.999999999999773 ) ) ;
#278 = FACE_OUTER_BOUND ( 'NONE', #124, .T. ) ;
#279 = DIRECTION ( 'NONE',  ( 1.000000000000000000, 0.000000000000000000, -0.000000000000000000 ) ) ;
#280 = DIRECTION ( 'NONE',  ( 1.000000000000000000, 0.000000000000000000, -0.000000000000000000 ) ) ;
#281 = APPROVAL_PERSON_ORGANIZATION ( #186, #220, #81 ) ;
#282 = APPROVAL_STATUS ( 'not_yet_approved' ) ;
#283 = ORIENTED_EDGE ( 'NONE', *, *, #91, .F. ) ;
#284 = ADVANCED_FACE ( 'NONE', ( #258 ), #202, .F. ) ;
#285 = LOCAL_TIME ( 11, 40, 2.000000000000000000, #74 ) ;
#286 = VERTEX_POINT ( 'NONE', #165 ) ;
#287 = DATE_AND_TIME ( #198, #167 ) ;
#288 = DIRECTION ( 'NONE',  ( 0.000000000000000000, 0.000000000000000000, 1.000000000000000000 ) ) ;
#289 = APPROVAL_PERSON_ORGANIZATION ( #191, #158, #65 ) ;
#290 = PERSON_AND_ORGANIZATION_ROLE ( 'classification_officer' ) ;
#291 = EDGE_LOOP ( 'NONE', ( #190, #121 ) ) ;
#292 = EDGE_CURVE ( 'NONE', #225, #83, #67, .T. ) ;
#293 = CYLINDRICAL_SURFACE ( 'NONE', #113, 8.000000000000000000 ) ;
#294 = AXIS2_PLACEMENT_3D ( 'NONE', #273, #61, #59 ) ;
#295 = CARTESIAN_POINT ( 'NONE',  ( -5.000000000000000888, 0.000000000000000000, 1204.999999999999773 ) ) ;
#296 = EDGE_CURVE ( 'NONE', #83, #246, #66, .T. ) ;
#297 = DIRECTION ( 'NONE',  ( 0.000000000000000000, 0.000000000000000000, 1.000000000000000000 ) ) ;
#298 = AXIS2_PLACEMENT_3D ( 'NONE', #8, #231, #234 ) ;
#299 = DIRECTION ( 'NONE',  ( 0.000000000000000000, 0.000000000000000000, 1.000000000000000000 ) ) ;
#300 = CARTESIAN_POINT ( 'NONE',  ( 0.000000000000000000, 0.000000000000000000, 5.000000000000000000 ) ) ;
#301 = DIRECTION ( 'NONE',  ( 0.000000000000000000, 0.000000000000000000, 1.000000000000000000 ) ) ;
#302 = COORDINATED_UNIVERSAL_TIME_OFFSET ( 1, 0, .AHEAD. ) ;
#303 = DATE_AND_TIME ( #18, #235 ) ;
#304 = CIRCLE ( 'NONE', #172, 5.000000000000000888 ) ;
#305 = FACE_OUTER_BOUND ( 'NONE', #100, .T. ) ;
#306 = ORIENTED_EDGE ( 'NONE', *, *, #138, .F. ) ;
#307 = AXIS2_PLACEMENT_3D ( 'NONE', #161, #50, #118 ) ;
ENDSEC;
END-ISO-10303-21;
