ISO-10303-21;
HEADER;
FILE_DESCRIPTION (( 'STEP AP203' ),
    '1' );
FILE_NAME ('13f4.STEP',
    '2024-01-02T23:02:13',
    ( '' ),
    ( '' ),
    'SwSTEP 2.0',
    'SolidWorks 2019',
    '' );
FILE_SCHEMA (( 'CONFIG_CONTROL_DESIGN' ));
ENDSEC;

DATA;
#1 = ORIENTED_EDGE ( 'NONE', *, *, #209, .T. ) ;
#2 = DIRECTION ( 'NONE',  ( 0.000000000000000000, 0.000000000000000000, -1.000000000000000000 ) ) ;
#3 = AXIS2_PLACEMENT_3D ( 'NONE', #268, #386, #96 ) ;
#4 = ORIENTED_EDGE ( 'NONE', *, *, #363, .F. ) ;
#5 = CARTESIAN_POINT ( 'NONE',  ( 0.000000000000000000, 0.000000000000000000, 0.000000000000000000 ) ) ;
#6 = EDGE_CURVE ( 'NONE', #301, #373, #408, .T. ) ;
#7 = CARTESIAN_POINT ( 'NONE',  ( 0.000000000000000000, 0.000000000000000000, -6.000000000000000000 ) ) ;
#8 = PRODUCT_DEFINITION_FORMATION_WITH_SPECIFIED_SOURCE ( 'LIBOVOLNÝ', '', #69, .NOT_KNOWN. ) ;
#9 = CIRCLE ( 'NONE', #95, 11.00000000000000000 ) ;
#10 = EDGE_CURVE ( 'NONE', #301, #143, #198, .T. ) ;
#11 = DIRECTION ( 'NONE',  ( 1.000000000000000000, 0.000000000000000000, 0.000000000000000000 ) ) ;
#12 = ORIENTED_EDGE ( 'NONE', *, *, #91, .T. ) ;
#13 = EDGE_CURVE ( 'NONE', #31, #342, #263, .T. ) ;
#14 = APPROVAL_PERSON_ORGANIZATION ( #276, #79, #158 ) ;
#15 = CARTESIAN_POINT ( 'NONE',  ( 10.50000000000001243, 1.285879139104722408E-15, 0.000000000000000000 ) ) ;
#16 = DIRECTION ( 'NONE',  ( 1.000000000000000000, 0.000000000000000000, 0.000000000000000000 ) ) ;
#17 = CARTESIAN_POINT ( 'NONE',  ( 9.000000000000000000, 1.102182119232617714E-15, -5.500000000000000000 ) ) ;
#18 = EDGE_LOOP ( 'NONE', ( #77, #299, #356, #121 ) ) ;
#19 = AXIS2_PLACEMENT_3D ( 'NONE', #180, #28, #149 ) ;
#20 = DIRECTION ( 'NONE',  ( 1.000000000000000000, 0.000000000000000000, 0.000000000000000000 ) ) ;
#21 = LINE ( 'NONE', #144, #294 ) ;
#22 = APPROVAL_STATUS ( 'not_yet_approved' ) ;
#23 = FACE_OUTER_BOUND ( 'NONE', #38, .T. ) ;
#24 = COORDINATED_UNIVERSAL_TIME_OFFSET ( 1, 0, .AHEAD. ) ;
#25 = CIRCLE ( 'NONE', #222, 9.000000000000000000 ) ;
#26 = EDGE_LOOP ( 'NONE', ( #155, #1 ) ) ;
#27 = AXIS2_PLACEMENT_3D ( 'NONE', #365, #164, #35 ) ;
#28 = DIRECTION ( 'NONE',  ( -0.000000000000000000, -0.000000000000000000, 1.000000000000000000 ) ) ;
#29 = APPLICATION_PROTOCOL_DEFINITION ( 'international standard', 'config_control_design', 1994, #108 ) ;
#30 = CARTESIAN_POINT ( 'NONE',  ( 0.000000000000000000, 0.000000000000000000, -0.4999999999999882871 ) ) ;
#31 = VERTEX_POINT ( 'NONE', #132 ) ;
#32 = DIRECTION ( 'NONE',  ( 0.000000000000000000, 0.000000000000000000, -1.000000000000000000 ) ) ;
#33 =( NAMED_UNIT ( * ) SI_UNIT ( $, .STERADIAN. ) SOLID_ANGLE_UNIT ( ) );
#34 = ORIENTED_EDGE ( 'NONE', *, *, #267, .T. ) ;
#35 = DIRECTION ( 'NONE',  ( 0.000000000000000000, 0.000000000000000000, -1.000000000000000000 ) ) ;
#36 = CARTESIAN_POINT ( 'NONE',  ( 0.000000000000000000, 0.000000000000000000, -12.50000000000000000 ) ) ;
#37 = DIRECTION ( 'NONE',  ( 0.000000000000000000, 0.000000000000000000, -1.000000000000000000 ) ) ;
#38 = EDGE_LOOP ( 'NONE', ( #339, #260, #308, #141 ) ) ;
#39 = LINE ( 'NONE', #105, #229 ) ;
#40 = ADVANCED_FACE ( 'NONE', ( #379 ), #64, .T. ) ;
#41 = DIRECTION ( 'NONE',  ( -0.000000000000000000, -0.000000000000000000, 1.000000000000000000 ) ) ;
#42 = AXIS2_PLACEMENT_3D ( 'NONE', #17, #393, #359 ) ;
#43 = LOCAL_TIME ( 0, 2, 13.00000000000000000, #257 ) ;
#44 = CC_DESIGN_DATE_AND_TIME_ASSIGNMENT ( #284, #78, ( #194 ) ) ;
#45 = ADVANCED_FACE ( 'NONE', ( #237 ), #142, .T. ) ;
#46 = PERSON_AND_ORGANIZATION ( #184, #206 ) ;
#47 = ORIENTED_EDGE ( 'NONE', *, *, #131, .F. ) ;
#48 = FACE_OUTER_BOUND ( 'NONE', #335, .T. ) ;
#49 = AXIS2_PLACEMENT_3D ( 'NONE', #295, #193, #133 ) ;
#50 = ORIENTED_EDGE ( 'NONE', *, *, #336, .T. ) ;
#51 = SECURITY_CLASSIFICATION ( '', '', #332 ) ;
#52 = PLANE ( 'NONE',  #329 ) ;
#53 = EDGE_CURVE ( 'NONE', #282, #56, #168, .T. ) ;
#54 = AXIS2_PLACEMENT_3D ( 'NONE', #394, #116, #235 ) ;
#55 = COORDINATED_UNIVERSAL_TIME_OFFSET ( 1, 0, .AHEAD. ) ;
#56 = VERTEX_POINT ( 'NONE', #331 ) ;
#57 = DIRECTION ( 'NONE',  ( 0.000000000000000000, 0.000000000000000000, -1.000000000000000000 ) ) ;
#58 = ORIENTED_EDGE ( 'NONE', *, *, #73, .F. ) ;
#59 = CARTESIAN_POINT ( 'NONE',  ( 0.000000000000000000, 0.000000000000000000, 0.000000000000000000 ) ) ;
#60 = PERSON_AND_ORGANIZATION_ROLE ( 'classification_officer' ) ;
#61 = EDGE_LOOP ( 'NONE', ( #127, #151, #134, #285 ) ) ;
#62 = AXIS2_PLACEMENT_3D ( 'NONE', #30, #57, #186 ) ;
#63 = FACE_OUTER_BOUND ( 'NONE', #316, .T. ) ;
#64 = PLANE ( 'NONE',  #182 ) ;
#65 = ADVANCED_FACE ( 'NONE', ( #106 ), #272, .T. ) ;
#66 = ADVANCED_FACE ( 'NONE', ( #23 ), #100, .F. ) ;
#67 = DIRECTION ( 'NONE',  ( 1.000000000000000000, 0.000000000000000000, 0.000000000000000000 ) ) ;
#68 = AXIS2_PLACEMENT_3D ( 'NONE', #311, #80, #122 ) ;
#69 = PRODUCT ( '13f4', '13f4', '', ( #154 ) ) ;
#70 = AXIS2_PLACEMENT_3D ( 'NONE', #7, #348, #293 ) ;
#71 = CARTESIAN_POINT ( 'NONE',  ( 0.000000000000000000, 0.000000000000000000, -5.500000000000000000 ) ) ;
#72 = EDGE_LOOP ( 'NONE', ( #4, #319 ) ) ;
#73 = EDGE_CURVE ( 'NONE', #102, #398, #337, .T. ) ;
#74 = ORIENTED_EDGE ( 'NONE', *, *, #13, .T. ) ;
#75 = CARTESIAN_POINT ( 'NONE',  ( 0.000000000000000000, 0.000000000000000000, 0.000000000000000000 ) ) ;
#76 = DATE_AND_TIME ( #117, #83 ) ;
#77 = ORIENTED_EDGE ( 'NONE', *, *, #146, .F. ) ;
#78 = DATE_TIME_ROLE ( 'creation_date' ) ;
#79 = APPROVAL ( #253, 'NEURÈENÝ' ) ;
#80 = DIRECTION ( 'NONE',  ( -0.000000000000000000, -0.000000000000000000, 1.000000000000000000 ) ) ;
#81 = COORDINATED_UNIVERSAL_TIME_OFFSET ( 1, 0, .AHEAD. ) ;
#82 = ORIENTED_EDGE ( 'NONE', *, *, #160, .F. ) ;
#83 = LOCAL_TIME ( 0, 2, 13.00000000000000000, #81 ) ;
#84 = DIRECTION ( 'NONE',  ( -1.000000000000000000, 1.224646799147353454E-16, 0.000000000000000000 ) ) ;
#85 = ADVANCED_FACE ( 'NONE', ( #355 ), #328, .T. ) ;
#86 = APPROVAL_ROLE ( '' ) ;
#87 = APPLICATION_CONTEXT ( 'configuration controlled 3d designs of mechanical parts and assemblies' ) ;
#88 = ORIENTED_EDGE ( 'NONE', *, *, #165, .F. ) ;
#89 = DIRECTION ( 'NONE',  ( 0.000000000000000000, 0.000000000000000000, -1.000000000000000000 ) ) ;
#90 = PRODUCT_RELATED_PRODUCT_CATEGORY ( 'detail', '', ( #69 ) ) ;
#91 = EDGE_CURVE ( 'NONE', #373, #342, #409, .T. ) ;
#92 = AXIS2_PLACEMENT_3D ( 'NONE', #71, #325, #391 ) ;
#93 = EDGE_CURVE ( 'NONE', #201, #357, #21, .T. ) ;
#94 = CIRCLE ( 'NONE', #181, 9.000000000000000000 ) ;
#95 = AXIS2_PLACEMENT_3D ( 'NONE', #274, #200, #11 ) ;
#96 = DIRECTION ( 'NONE',  ( 1.000000000000000000, 0.000000000000000000, 0.000000000000000000 ) ) ;
#97 = LINE ( 'NONE', #15, #152 ) ;
#98 = PRODUCT_DEFINITION_SHAPE ( 'NONE', 'NONE',  #194 ) ;
#99 = DIRECTION ( 'NONE',  ( 1.000000000000000000, 0.000000000000000000, 0.000000000000000000 ) ) ;
#100 = TOROIDAL_SURFACE ( 'NONE', #54, 9.000000000000000000, 0.5000000000000000000 ) ;
#101 = DIRECTION ( 'NONE',  ( 0.000000000000000000, 0.000000000000000000, -1.000000000000000000 ) ) ;
#102 = VERTEX_POINT ( 'NONE', #259 ) ;
#103 = DIRECTION ( 'NONE',  ( 0.000000000000000000, 0.000000000000000000, -1.000000000000000000 ) ) ;
#104 = CONICAL_SURFACE ( 'NONE', #341, 10.50000000000001243, 0.7853981633974482790 ) ;
#105 = CARTESIAN_POINT ( 'NONE',  ( 9.000000000000000000, 0.000000000000000000, 0.000000000000000000 ) ) ;
#106 = FACE_OUTER_BOUND ( 'NONE', #72, .T. ) ;
#107 = EDGE_CURVE ( 'NONE', #401, #143, #25, .T. ) ;
#108 = APPLICATION_CONTEXT ( 'configuration controlled 3d designs of mechanical parts and assemblies' ) ;
#109 = ORIENTED_EDGE ( 'NONE', *, *, #324, .F. ) ;
#110 = DIRECTION ( 'NONE',  ( -0.000000000000000000, -0.000000000000000000, 1.000000000000000000 ) ) ;
#111 = ADVANCED_BREP_SHAPE_REPRESENTATION ( '13f4', ( #170, #385 ), #218 ) ;
#112 = CIRCLE ( 'NONE', #204, 9.000000000000000000 ) ;
#113 = APPROVAL_PERSON_ORGANIZATION ( #278, #240, #86 ) ;
#114 = CARTESIAN_POINT ( 'NONE',  ( 0.000000000000000000, 0.000000000000000000, 0.000000000000000000 ) ) ;
#115 = EDGE_CURVE ( 'NONE', #342, #31, #112, .T. ) ;
#116 = DIRECTION ( 'NONE',  ( 0.000000000000000000, 0.000000000000000000, -1.000000000000000000 ) ) ;
#117 = CALENDAR_DATE ( 2024, 3, 1 ) ;
#118 = DIRECTION ( 'NONE',  ( -0.000000000000000000, -0.000000000000000000, 1.000000000000000000 ) ) ;
#119 = FACE_OUTER_BOUND ( 'NONE', #162, .T. ) ;
#120 = PERSON_AND_ORGANIZATION ( #184, #206 ) ;
#121 = ORIENTED_EDGE ( 'NONE', *, *, #13, .F. ) ;
#122 = DIRECTION ( 'NONE',  ( 1.000000000000000000, 0.000000000000000000, 0.000000000000000000 ) ) ;
#123 = TOROIDAL_SURFACE ( 'NONE', #360, 9.000000000000000000, 0.5000000000000000000 ) ;
#124 = ORIENTED_EDGE ( 'NONE', *, *, #327, .F. ) ;
#125 = CYLINDRICAL_SURFACE ( 'NONE', #197, 9.000000000000000000 ) ;
#126 = CALENDAR_DATE ( 2024, 3, 1 ) ;
#127 = ORIENTED_EDGE ( 'NONE', *, *, #363, .T. ) ;
#128 = CARTESIAN_POINT ( 'NONE',  ( 11.00000000000000000, 0.000000000000000000, -5.000000000000000000 ) ) ;
#129 = APPROVAL ( #22, 'NEURÈENÝ' ) ;
#130 = ORIENTED_EDGE ( 'NONE', *, *, #10, .F. ) ;
#131 = EDGE_CURVE ( 'NONE', #102, #56, #346, .T. ) ;
#132 = CARTESIAN_POINT ( 'NONE',  ( -9.000000000000000000, 1.102182119232617714E-15, -6.000000000000000000 ) ) ;
#133 = DIRECTION ( 'NONE',  ( 1.000000000000000000, 0.000000000000000000, 0.000000000000000000 ) ) ;
#134 = ORIENTED_EDGE ( 'NONE', *, *, #115, .F. ) ;
#135 = DATE_AND_TIME ( #338, #384 ) ;
#136 = AXIS2_PLACEMENT_3D ( 'NONE', #243, #2, #286 ) ;
#137 = CARTESIAN_POINT ( 'NONE',  ( 9.000000000000000000, 0.000000000000000000, -6.000000000000000000 ) ) ;
#138 = ORIENTED_EDGE ( 'NONE', *, *, #53, .T. ) ;
#139 = CC_DESIGN_PERSON_AND_ORGANIZATION_ASSIGNMENT ( #46, #60, ( #51 ) ) ;
#140 = CARTESIAN_POINT ( 'NONE',  ( 10.50000000000001243, 1.316495309083405604E-15, 0.000000000000000000 ) ) ;
#141 = ORIENTED_EDGE ( 'NONE', *, *, #107, .F. ) ;
#142 = CYLINDRICAL_SURFACE ( 'NONE', #232, 9.000000000000000000 ) ;
#143 = VERTEX_POINT ( 'NONE', #159 ) ;
#144 = CARTESIAN_POINT ( 'NONE',  ( 11.00000000000000178, 0.000000000000000000, 0.000000000000000000 ) ) ;
#145 = CARTESIAN_POINT ( 'NONE',  ( -11.00000000000000178, 1.347111479062088602E-15, 0.000000000000000000 ) ) ;
#146 = EDGE_CURVE ( 'NONE', #217, #31, #407, .T. ) ;
#147 = PERSON_AND_ORGANIZATION_ROLE ( 'creator' ) ;
#148 = EDGE_LOOP ( 'NONE', ( #185, #258 ) ) ;
#149 = DIRECTION ( 'NONE',  ( 1.000000000000000000, 0.000000000000000000, 0.000000000000000000 ) ) ;
#150 = APPROVAL_DATE_TIME ( #372, #79 ) ;
#151 = ORIENTED_EDGE ( 'NONE', *, *, #146, .T. ) ;
#152 = VECTOR ( 'NONE', #298, 1000.000000000000114 ) ;
#153 = CARTESIAN_POINT ( 'NONE',  ( 0.000000000000000000, 0.000000000000000000, -5.500000000000000000 ) ) ;
#154 = MECHANICAL_CONTEXT ( 'NONE', #87, 'mechanical' ) ;
#155 = ORIENTED_EDGE ( 'NONE', *, *, #73, .T. ) ;
#156 = CARTESIAN_POINT ( 'NONE',  ( -9.000000000000000000, 1.102182119232617714E-15, -5.500000000000000000 ) ) ;
#157 = CIRCLE ( 'NONE', #42, 0.5000000000000004441 ) ;
#158 = APPROVAL_ROLE ( '' ) ;
#159 = CARTESIAN_POINT ( 'NONE',  ( -9.000000000000000000, 0.000000000000000000, -4.999999999999999112 ) ) ;
#160 = EDGE_CURVE ( 'NONE', #143, #401, #94, .T. ) ;
#161 = UNCERTAINTY_MEASURE_WITH_UNIT (LENGTH_MEASURE( 1.000000000000000082E-05 ), #246, 'distance_accuracy_value', 'NONE');
#162 = EDGE_LOOP ( 'NONE', ( #88, #124, #12, #234 ) ) ;
#163 = CARTESIAN_POINT ( 'NONE',  ( -10.50000000000001243, 0.000000000000000000, 0.000000000000000000 ) ) ;
#164 = DIRECTION ( 'NONE',  ( -0.000000000000000000, -1.000000000000000000, -0.000000000000000000 ) ) ;
#165 = EDGE_CURVE ( 'NONE', #301, #31, #388, .T. ) ;
#166 = ADVANCED_FACE ( 'NONE', ( #63 ), #370, .T. ) ;
#167 = DIRECTION ( 'NONE',  ( -1.000000000000000000, 0.000000000000000000, 0.000000000000000000 ) ) ;
#168 = LINE ( 'NONE', #145, #347 ) ;
#169 = ORIENTED_EDGE ( 'NONE', *, *, #320, .T. ) ;
#170 = MANIFOLD_SOLID_BREP ( 'Zkosení1', #381 ) ;
#171 = CARTESIAN_POINT ( 'NONE',  ( 0.000000000000000000, 0.000000000000000000, 0.000000000000000000 ) ) ;
#172 = DIRECTION ( 'NONE',  ( 1.000000000000000000, 0.000000000000000000, 0.000000000000000000 ) ) ;
#173 = TOROIDAL_SURFACE ( 'NONE', #68, 9.000000000000000000, 0.5000000000000000000 ) ;
#174 = ORIENTED_EDGE ( 'NONE', *, *, #93, .F. ) ;
#175 = CARTESIAN_POINT ( 'NONE',  ( -8.499999999999998224, 1.071565949253933927E-15, -5.500000000000000000 ) ) ;
#176 = CARTESIAN_POINT ( 'NONE',  ( 0.000000000000000000, 9.000000000000000000, -12.50000000000000000 ) ) ;
#177 = PERSON_AND_ORGANIZATION_ROLE ( 'design_owner' ) ;
#178 = ORIENTED_EDGE ( 'NONE', *, *, #6, .F. ) ;
#179 = ADVANCED_FACE ( 'NONE', ( #189 ), #125, .T. ) ;
#180 = CARTESIAN_POINT ( 'NONE',  ( 0.000000000000000000, 0.000000000000000000, 0.000000000000000000 ) ) ;
#181 = AXIS2_PLACEMENT_3D ( 'NONE', #317, #343, #290 ) ;
#182 = AXIS2_PLACEMENT_3D ( 'NONE', #171, #305, #307 ) ;
#183 = DIRECTION ( 'NONE',  ( 1.000000000000000000, 0.000000000000000000, 0.000000000000000000 ) ) ;
#184 = PERSON ( 'NEURÈENÝ', 'NEURÈENÝ', 'NEURÈENÝ', ('NEURÈENÝ'), ('NEURÈENÝ'), ('NEURÈENÝ') ) ;
#185 = ORIENTED_EDGE ( 'NONE', *, *, #160, .T. ) ;
#186 = DIRECTION ( 'NONE',  ( 1.000000000000000000, 0.000000000000000000, 0.000000000000000000 ) ) ;
#187 = PERSON_AND_ORGANIZATION ( #184, #206 ) ;
#188 = ORIENTED_EDGE ( 'NONE', *, *, #91, .F. ) ;
#189 = FACE_OUTER_BOUND ( 'NONE', #61, .T. ) ;
#190 = ORIENTED_EDGE ( 'NONE', *, *, #267, .F. ) ;
#191 = ADVANCED_FACE ( 'NONE', ( #48 ), #271, .F. ) ;
#192 = CIRCLE ( 'NONE', #19, 10.50000000000001243 ) ;
#193 = DIRECTION ( 'NONE',  ( -0.000000000000000000, -0.000000000000000000, 1.000000000000000000 ) ) ;
#194 = PRODUCT_DEFINITION ( 'NEZNÁMÝ', '', #8, #375 ) ;
#195 = CARTESIAN_POINT ( 'NONE',  ( 9.000000000000000000, 0.000000000000000000, -12.50000000000000000 ) ) ;
#196 = FACE_OUTER_BOUND ( 'NONE', #264, .T. ) ;
#197 = AXIS2_PLACEMENT_3D ( 'NONE', #5, #248, #183 ) ;
#198 = CIRCLE ( 'NONE', #27, 0.5000000000000004441 ) ;
#199 = CC_DESIGN_DATE_AND_TIME_ASSIGNMENT ( #211, #306, ( #51 ) ) ;
#200 = DIRECTION ( 'NONE',  ( -0.000000000000000000, -0.000000000000000000, 1.000000000000000000 ) ) ;
#201 = VERTEX_POINT ( 'NONE', #128 ) ;
#202 = DIRECTION ( 'NONE',  ( -0.000000000000000000, -0.000000000000000000, 1.000000000000000000 ) ) ;
#203 = DIRECTION ( 'NONE',  ( 0.000000000000000000, 0.000000000000000000, -1.000000000000000000 ) ) ;
#204 = AXIS2_PLACEMENT_3D ( 'NONE', #219, #334, #321 ) ;
#205 = ADVANCED_FACE ( 'NONE', ( #378, #369 ), #52, .T. ) ;
#206 = ORGANIZATION ( 'NEURÈENÝ', 'NEURÈENÝ', '' ) ;
#207 = PERSON_AND_ORGANIZATION_ROLE ( 'design_supplier' ) ;
#208 = ORIENTED_EDGE ( 'NONE', *, *, #131, .T. ) ;
#209 = EDGE_CURVE ( 'NONE', #398, #102, #192, .T. ) ;
#210 = DIRECTION ( 'NONE',  ( -1.000000000000000000, 0.000000000000000000, -0.000000000000000000 ) ) ;
#211 = DATE_AND_TIME ( #344, #43 ) ;
#212 = AXIS2_PLACEMENT_3D ( 'NONE', #156, #255, #84 ) ;
#213 = COORDINATED_UNIVERSAL_TIME_OFFSET ( 1, 0, .AHEAD. ) ;
#214 = ORIENTED_EDGE ( 'NONE', *, *, #392, .T. ) ;
#215 = DIRECTION ( 'NONE',  ( 1.000000000000000000, 0.000000000000000000, 0.000000000000000000 ) ) ;
#216 = CARTESIAN_POINT ( 'NONE',  ( 9.000000000000000000, 1.102182119232617714E-15, -4.999999999999999112 ) ) ;
#217 = VERTEX_POINT ( 'NONE', #366 ) ;
#218 =( GEOMETRIC_REPRESENTATION_CONTEXT ( 3 ) GLOBAL_UNCERTAINTY_ASSIGNED_CONTEXT ( ( #161 ) ) GLOBAL_UNIT_ASSIGNED_CONTEXT ( ( #246, #376, #33 ) ) REPRESENTATION_CONTEXT ( 'NONE', 'WORKASPACE' ) );
#219 = CARTESIAN_POINT ( 'NONE',  ( 0.000000000000000000, 0.000000000000000000, -6.000000000000000000 ) ) ;
#220 = EDGE_LOOP ( 'NONE', ( #34, #138, #236, #174 ) ) ;
#221 = CARTESIAN_POINT ( 'NONE',  ( 0.000000000000000000, 0.000000000000000000, -5.000000000000000000 ) ) ;
#222 = AXIS2_PLACEMENT_3D ( 'NONE', #221, #402, #252 ) ;
#223 = CC_DESIGN_PERSON_AND_ORGANIZATION_ASSIGNMENT ( #361, #400, ( #8 ) ) ;
#224 = EDGE_LOOP ( 'NONE', ( #178, #368, #74, #188 ) ) ;
#225 = DIRECTION ( 'NONE',  ( 1.000000000000000000, 0.000000000000000000, 0.000000000000000000 ) ) ;
#226 = APPROVAL_DATE_TIME ( #135, #129 ) ;
#227 = CIRCLE ( 'NONE', #266, 9.000000000000000000 ) ;
#228 = AXIS2_PLACEMENT_3D ( 'NONE', #269, #41, #172 ) ;
#229 = VECTOR ( 'NONE', #233, 1000.000000000000000 ) ;
#230 = AXIS2_PLACEMENT_3D ( 'NONE', #350, #353, #225 ) ;
#231 = CC_DESIGN_APPROVAL ( #240, ( #8 ) ) ;
#232 = AXIS2_PLACEMENT_3D ( 'NONE', #326, #238, #16 ) ;
#233 = DIRECTION ( 'NONE',  ( -0.000000000000000000, -0.000000000000000000, 1.000000000000000000 ) ) ;
#234 = ORIENTED_EDGE ( 'NONE', *, *, #115, .T. ) ;
#235 = DIRECTION ( 'NONE',  ( -1.000000000000000000, 0.000000000000000000, 0.000000000000000000 ) ) ;
#236 = ORIENTED_EDGE ( 'NONE', *, *, #256, .T. ) ;
#237 = FACE_OUTER_BOUND ( 'NONE', #18, .T. ) ;
#238 = DIRECTION ( 'NONE',  ( -0.000000000000000000, -0.000000000000000000, 1.000000000000000000 ) ) ;
#239 = AXIS2_PLACEMENT_3D ( 'NONE', #59, #32, #292 ) ;
#240 = APPROVAL ( #403, 'NEURÈENÝ' ) ;
#241 = APPROVAL_DATE_TIME ( #76, #240 ) ;
#242 = ADVANCED_FACE ( 'NONE', ( #399 ), #173, .F. ) ;
#243 = CARTESIAN_POINT ( 'NONE',  ( 0.000000000000000000, 0.000000000000000000, -5.500000000000000000 ) ) ;
#244 = LOCAL_TIME ( 0, 2, 13.00000000000000000, #24 ) ;
#245 = ADVANCED_FACE ( 'NONE', ( #119 ), #123, .F. ) ;
#246 =( LENGTH_UNIT ( ) NAMED_UNIT ( * ) SI_UNIT ( .MILLI., .METRE. ) );
#247 = DIRECTION ( 'NONE',  ( 1.000000000000000000, 0.000000000000000000, 0.000000000000000000 ) ) ;
#248 = DIRECTION ( 'NONE',  ( -0.000000000000000000, -0.000000000000000000, 1.000000000000000000 ) ) ;
#249 = APPROVAL_ROLE ( '' ) ;
#250 = ORIENTED_EDGE ( 'NONE', *, *, #53, .F. ) ;
#251 = CC_DESIGN_PERSON_AND_ORGANIZATION_ASSIGNMENT ( #289, #207, ( #8 ) ) ;
#252 = DIRECTION ( 'NONE',  ( -1.000000000000000000, 0.000000000000000000, 0.000000000000000000 ) ) ;
#253 = APPROVAL_STATUS ( 'not_yet_approved' ) ;
#254 = EDGE_LOOP ( 'NONE', ( #250, #50, #390, #333 ) ) ;
#255 = DIRECTION ( 'NONE',  ( 1.224646799147353207E-16, 1.000000000000000000, 0.000000000000000000 ) ) ;
#256 = EDGE_CURVE ( 'NONE', #56, #357, #262, .T. ) ;
#257 = COORDINATED_UNIVERSAL_TIME_OFFSET ( 1, 0, .AHEAD. ) ;
#258 = ORIENTED_EDGE ( 'NONE', *, *, #107, .T. ) ;
#259 = CARTESIAN_POINT ( 'NONE',  ( -10.50000000000001243, 0.000000000000000000, 0.000000000000000000 ) ) ;
#260 = ORIENTED_EDGE ( 'NONE', *, *, #327, .T. ) ;
#261 = ADVANCED_FACE ( 'NONE', ( #314 ), #382, .T. ) ;
#262 = CIRCLE ( 'NONE', #62, 11.00000000000000178 ) ;
#263 = CIRCLE ( 'NONE', #70, 9.000000000000000000 ) ;
#264 = EDGE_LOOP ( 'NONE', ( #310, #214, #345, #47 ) ) ;
#265 = SHAPE_DEFINITION_REPRESENTATION ( #98, #111 ) ;
#266 = AXIS2_PLACEMENT_3D ( 'NONE', #36, #297, #67 ) ;
#267 = EDGE_CURVE ( 'NONE', #201, #282, #406, .T. ) ;
#268 = CARTESIAN_POINT ( 'NONE',  ( 0.000000000000000000, 0.000000000000000000, -12.50000000000000000 ) ) ;
#269 = CARTESIAN_POINT ( 'NONE',  ( 0.000000000000000000, 0.000000000000000000, 0.000000000000000000 ) ) ;
#270 = ORIENTED_EDGE ( 'NONE', *, *, #392, .F. ) ;
#271 = TOROIDAL_SURFACE ( 'NONE', #136, 9.000000000000000000, 0.5000000000000000000 ) ;
#272 = PLANE ( 'NONE',  #287 ) ;
#273 = AXIS2_PLACEMENT_3D ( 'NONE', #75, #202, #99 ) ;
#274 = CARTESIAN_POINT ( 'NONE',  ( 0.000000000000000000, 0.000000000000000000, -5.000000000000000000 ) ) ;
#275 = CARTESIAN_POINT ( 'NONE',  ( 9.000000000000000000, 0.000000000000000000, -5.500000000000000000 ) ) ;
#276 = PERSON_AND_ORGANIZATION ( #184, #206 ) ;
#277 = CC_DESIGN_SECURITY_CLASSIFICATION ( #51, ( #8 ) ) ;
#278 = PERSON_AND_ORGANIZATION ( #184, #206 ) ;
#279 = VERTEX_POINT ( 'NONE', #195 ) ;
#280 = EDGE_CURVE ( 'NONE', #217, #279, #227, .T. ) ;
#281 = DIRECTION ( 'NONE',  ( 1.000000000000000000, 0.000000000000000000, 0.000000000000000000 ) ) ;
#282 = VERTEX_POINT ( 'NONE', #304 ) ;
#283 = DIRECTION ( 'NONE',  ( -0.000000000000000000, -0.000000000000000000, 1.000000000000000000 ) ) ;
#284 = DATE_AND_TIME ( #315, #322 ) ;
#285 = ORIENTED_EDGE ( 'NONE', *, *, #351, .F. ) ;
#286 = DIRECTION ( 'NONE',  ( -1.000000000000000000, 0.000000000000000000, 0.000000000000000000 ) ) ;
#287 = AXIS2_PLACEMENT_3D ( 'NONE', #176, #103, #397 ) ;
#288 = AXIS2_PLACEMENT_3D ( 'NONE', #275, #303, #203 ) ;
#289 = PERSON_AND_ORGANIZATION ( #184, #206 ) ;
#290 = DIRECTION ( 'NONE',  ( -1.000000000000000000, 0.000000000000000000, 0.000000000000000000 ) ) ;
#291 = CARTESIAN_POINT ( 'NONE',  ( 0.000000000000000000, 0.000000000000000000, -5.500000000000000000 ) ) ;
#292 = DIRECTION ( 'NONE',  ( -1.000000000000000000, 0.000000000000000000, 0.000000000000000000 ) ) ;
#293 = DIRECTION ( 'NONE',  ( 1.000000000000000000, 0.000000000000000000, 0.000000000000000000 ) ) ;
#294 = VECTOR ( 'NONE', #110, 1000.000000000000000 ) ;
#295 = CARTESIAN_POINT ( 'NONE',  ( 0.000000000000000000, 0.000000000000000000, -5.000000000000000000 ) ) ;
#296 = AXIS2_PLACEMENT_3D ( 'NONE', #389, #101, #20 ) ;
#297 = DIRECTION ( 'NONE',  ( -0.000000000000000000, -0.000000000000000000, 1.000000000000000000 ) ) ;
#298 = DIRECTION ( 'NONE',  ( 0.7071067811865474617, 8.659560562354932858E-17, -0.7071067811865474617 ) ) ;
#299 = ORIENTED_EDGE ( 'NONE', *, *, #280, .T. ) ;
#300 = CC_DESIGN_PERSON_AND_ORGANIZATION_ASSIGNMENT ( #395, #147, ( #194 ) ) ;
#301 = VERTEX_POINT ( 'NONE', #175 ) ;
#302 = CARTESIAN_POINT ( 'NONE',  ( 11.00000000000000178, 0.000000000000000000, -0.4999999999999882871 ) ) ;
#303 = DIRECTION ( 'NONE',  ( 0.000000000000000000, -1.000000000000000000, 0.000000000000000000 ) ) ;
#304 = CARTESIAN_POINT ( 'NONE',  ( -11.00000000000000000, 1.347111479062088602E-15, -5.000000000000000000 ) ) ;
#305 = DIRECTION ( 'NONE',  ( 0.000000000000000000, -0.000000000000000000, 1.000000000000000000 ) ) ;
#306 = DATE_TIME_ROLE ( 'classification_date' ) ;
#307 = DIRECTION ( 'NONE',  ( 1.000000000000000000, 0.000000000000000000, 0.000000000000000000 ) ) ;
#308 = ORIENTED_EDGE ( 'NONE', *, *, #10, .T. ) ;
#309 = DIRECTION ( 'NONE',  ( -0.7071067811865474617, 0.000000000000000000, -0.7071067811865474617 ) ) ;
#310 = ORIENTED_EDGE ( 'NONE', *, *, #209, .F. ) ;
#311 = CARTESIAN_POINT ( 'NONE',  ( 0.000000000000000000, 0.000000000000000000, -5.500000000000000000 ) ) ;
#312 = CIRCLE ( 'NONE', #3, 9.000000000000000000 ) ;
#313 = ORIENTED_EDGE ( 'NONE', *, *, #6, .T. ) ;
#314 = FACE_OUTER_BOUND ( 'NONE', #254, .T. ) ;
#315 = CALENDAR_DATE ( 2024, 3, 1 ) ;
#316 = EDGE_LOOP ( 'NONE', ( #270, #58, #208, #109 ) ) ;
#317 = CARTESIAN_POINT ( 'NONE',  ( 0.000000000000000000, 0.000000000000000000, -5.000000000000000000 ) ) ;
#318 = VECTOR ( 'NONE', #340, 1000.000000000000000 ) ;
#319 = ORIENTED_EDGE ( 'NONE', *, *, #280, .F. ) ;
#320 = EDGE_CURVE ( 'NONE', #373, #401, #157, .T. ) ;
#321 = DIRECTION ( 'NONE',  ( 1.000000000000000000, 0.000000000000000000, 0.000000000000000000 ) ) ;
#322 = LOCAL_TIME ( 0, 2, 13.00000000000000000, #55 ) ;
#323 = CARTESIAN_POINT ( 'NONE',  ( 0.000000000000000000, 0.000000000000000000, 0.000000000000000000 ) ) ;
#324 = EDGE_CURVE ( 'NONE', #357, #56, #383, .T. ) ;
#325 = DIRECTION ( 'NONE',  ( -0.000000000000000000, -0.000000000000000000, 1.000000000000000000 ) ) ;
#326 = CARTESIAN_POINT ( 'NONE',  ( 0.000000000000000000, 0.000000000000000000, 0.000000000000000000 ) ) ;
#327 = EDGE_CURVE ( 'NONE', #373, #301, #349, .T. ) ;
#328 = CYLINDRICAL_SURFACE ( 'NONE', #228, 11.00000000000000178 ) ;
#329 = AXIS2_PLACEMENT_3D ( 'NONE', #362, #89, #210 ) ;
#330 = APPROVAL_PERSON_ORGANIZATION ( #120, #129, #249 ) ;
#331 = CARTESIAN_POINT ( 'NONE',  ( -11.00000000000000178, 1.347111479062088602E-15, -0.4999999999999882871 ) ) ;
#332 = SECURITY_CLASSIFICATION_LEVEL ( 'unclassified' ) ;
#333 = ORIENTED_EDGE ( 'NONE', *, *, #324, .T. ) ;
#334 = DIRECTION ( 'NONE',  ( -0.000000000000000000, -0.000000000000000000, 1.000000000000000000 ) ) ;
#335 = EDGE_LOOP ( 'NONE', ( #313, #169, #82, #130 ) ) ;
#336 = EDGE_CURVE ( 'NONE', #282, #201, #9, .T. ) ;
#337 = CIRCLE ( 'NONE', #273, 10.50000000000001243 ) ;
#338 = CALENDAR_DATE ( 2024, 3, 1 ) ;
#339 = ORIENTED_EDGE ( 'NONE', *, *, #320, .F. ) ;
#340 = DIRECTION ( 'NONE',  ( -0.000000000000000000, -0.000000000000000000, 1.000000000000000000 ) ) ;
#341 = AXIS2_PLACEMENT_3D ( 'NONE', #323, #37, #167 ) ;
#342 = VERTEX_POINT ( 'NONE', #137 ) ;
#343 = DIRECTION ( 'NONE',  ( -0.000000000000000000, -0.000000000000000000, 1.000000000000000000 ) ) ;
#344 = CALENDAR_DATE ( 2024, 3, 1 ) ;
#345 = ORIENTED_EDGE ( 'NONE', *, *, #256, .F. ) ;
#346 = LINE ( 'NONE', #163, #380 ) ;
#347 = VECTOR ( 'NONE', #358, 1000.000000000000000 ) ;
#348 = DIRECTION ( 'NONE',  ( -0.000000000000000000, -0.000000000000000000, 1.000000000000000000 ) ) ;
#349 = CIRCLE ( 'NONE', #92, 8.499999999999998224 ) ;
#350 = CARTESIAN_POINT ( 'NONE',  ( 0.000000000000000000, 0.000000000000000000, 0.000000000000000000 ) ) ;
#351 = EDGE_CURVE ( 'NONE', #279, #342, #39, .T. ) ;
#352 = CC_DESIGN_APPROVAL ( #79, ( #194 ) ) ;
#353 = DIRECTION ( 'NONE',  ( -0.000000000000000000, -0.000000000000000000, 1.000000000000000000 ) ) ;
#354 = CARTESIAN_POINT ( 'NONE',  ( 8.499999999999998224, 0.000000000000000000, -5.500000000000000000 ) ) ;
#355 = FACE_OUTER_BOUND ( 'NONE', #220, .T. ) ;
#356 = ORIENTED_EDGE ( 'NONE', *, *, #351, .T. ) ;
#357 = VERTEX_POINT ( 'NONE', #302 ) ;
#358 = DIRECTION ( 'NONE',  ( -0.000000000000000000, -0.000000000000000000, 1.000000000000000000 ) ) ;
#359 = DIRECTION ( 'NONE',  ( -1.000000000000000000, -1.224646799147353454E-16, 0.000000000000000000 ) ) ;
#360 = AXIS2_PLACEMENT_3D ( 'NONE', #153, #283, #215 ) ;
#361 = PERSON_AND_ORGANIZATION ( #184, #206 ) ;
#362 = CARTESIAN_POINT ( 'NONE',  ( 0.000000000000000000, 11.00000000000000000, -5.000000000000000000 ) ) ;
#363 = EDGE_CURVE ( 'NONE', #279, #217, #312, .T. ) ;
#364 = APPLICATION_PROTOCOL_DEFINITION ( 'international standard', 'config_control_design', 1994, #87 ) ;
#365 = CARTESIAN_POINT ( 'NONE',  ( -9.000000000000000000, 0.000000000000000000, -5.500000000000000000 ) ) ;
#366 = CARTESIAN_POINT ( 'NONE',  ( -9.000000000000000000, 1.102182119232617714E-15, -12.50000000000000000 ) ) ;
#367 = DIRECTION ( 'NONE',  ( 0.000000000000000000, 0.000000000000000000, 1.000000000000000000 ) ) ;
#368 = ORIENTED_EDGE ( 'NONE', *, *, #165, .T. ) ;
#369 = FACE_OUTER_BOUND ( 'NONE', #377, .T. ) ;
#370 = CONICAL_SURFACE ( 'NONE', #239, 10.50000000000001243, 0.7853981633974482790 ) ;
#371 = AXIS2_PLACEMENT_3D ( 'NONE', #291, #118, #247 ) ;
#372 = DATE_AND_TIME ( #126, #244 ) ;
#373 = VERTEX_POINT ( 'NONE', #354 ) ;
#374 = CARTESIAN_POINT ( 'NONE',  ( -9.000000000000000000, 1.102182119232617714E-15, 0.000000000000000000 ) ) ;
#375 = DESIGN_CONTEXT ( 'detailed design', #108, 'design' ) ;
#376 =( NAMED_UNIT ( * ) PLANE_ANGLE_UNIT ( ) SI_UNIT ( $, .RADIAN. ) );
#377 = EDGE_LOOP ( 'NONE', ( #190, #404 ) ) ;
#378 = FACE_BOUND ( 'NONE', #148, .T. ) ;
#379 = FACE_OUTER_BOUND ( 'NONE', #26, .T. ) ;
#380 = VECTOR ( 'NONE', #309, 1000.000000000000114 ) ;
#381 = CLOSED_SHELL ( 'NONE', ( #387, #191, #242, #179, #85, #65, #40, #261, #205, #45, #245, #66, #166 ) ) ;
#382 = CYLINDRICAL_SURFACE ( 'NONE', #230, 11.00000000000000178 ) ;
#383 = CIRCLE ( 'NONE', #296, 11.00000000000000178 ) ;
#384 = LOCAL_TIME ( 0, 2, 13.00000000000000000, #213 ) ;
#385 = AXIS2_PLACEMENT_3D ( 'NONE', #114, #367, #281 ) ;
#386 = DIRECTION ( 'NONE',  ( -0.000000000000000000, -0.000000000000000000, 1.000000000000000000 ) ) ;
#387 = ADVANCED_FACE ( 'NONE', ( #196 ), #104, .T. ) ;
#388 = CIRCLE ( 'NONE', #212, 0.5000000000000004441 ) ;
#389 = CARTESIAN_POINT ( 'NONE',  ( 0.000000000000000000, 0.000000000000000000, -0.4999999999999882871 ) ) ;
#390 = ORIENTED_EDGE ( 'NONE', *, *, #93, .T. ) ;
#391 = DIRECTION ( 'NONE',  ( 1.000000000000000000, 0.000000000000000000, 0.000000000000000000 ) ) ;
#392 = EDGE_CURVE ( 'NONE', #398, #357, #97, .T. ) ;
#393 = DIRECTION ( 'NONE',  ( -1.224646799147353207E-16, 1.000000000000000000, 0.000000000000000000 ) ) ;
#394 = CARTESIAN_POINT ( 'NONE',  ( 0.000000000000000000, 0.000000000000000000, -5.500000000000000000 ) ) ;
#395 = PERSON_AND_ORGANIZATION ( #184, #206 ) ;
#396 = CC_DESIGN_APPROVAL ( #129, ( #51 ) ) ;
#397 = DIRECTION ( 'NONE',  ( -1.000000000000000000, 0.000000000000000000, -0.000000000000000000 ) ) ;
#398 = VERTEX_POINT ( 'NONE', #140 ) ;
#399 = FACE_OUTER_BOUND ( 'NONE', #224, .T. ) ;
#400 = PERSON_AND_ORGANIZATION_ROLE ( 'creator' ) ;
#401 = VERTEX_POINT ( 'NONE', #216 ) ;
#402 = DIRECTION ( 'NONE',  ( -0.000000000000000000, -0.000000000000000000, 1.000000000000000000 ) ) ;
#403 = APPROVAL_STATUS ( 'not_yet_approved' ) ;
#404 = ORIENTED_EDGE ( 'NONE', *, *, #336, .F. ) ;
#405 = CC_DESIGN_PERSON_AND_ORGANIZATION_ASSIGNMENT ( #187, #177, ( #69 ) ) ;
#406 = CIRCLE ( 'NONE', #49, 11.00000000000000000 ) ;
#407 = LINE ( 'NONE', #374, #318 ) ;
#408 = CIRCLE ( 'NONE', #371, 8.499999999999998224 ) ;
#409 = CIRCLE ( 'NONE', #288, 0.5000000000000004441 ) ;
ENDSEC;
END-ISO-10303-21;
