ISO-10303-21;
HEADER;
FILE_DESCRIPTION (( 'STEP AP203' ),
    '1' );
FILE_NAME ('7804.STEP',
    '2024-01-02T18:54:11',
    ( '' ),
    ( '' ),
    'SwSTEP 2.0',
    'SolidWorks 2019',
    '' );
FILE_SCHEMA (( 'CONFIG_CONTROL_DESIGN' ));
ENDSEC;

DATA;
#1 = DIRECTION ( 'NONE',  ( 0.000000000000000000, 0.000000000000000000, -1.000000000000000000 ) ) ;
#2 = CYLINDRICAL_SURFACE ( 'NONE', #145, 18.50000000000000000 ) ;
#3 = ADVANCED_FACE ( 'NONE', ( #48 ), #334, .F. ) ;
#4 = FACE_BOUND ( 'NONE', #303, .T. ) ;
#5 = AXIS2_PLACEMENT_3D ( 'NONE', #220, #314, #383 ) ;
#6 = DIRECTION ( 'NONE',  ( 1.000000000000000000, 0.000000000000000000, 0.000000000000000000 ) ) ;
#7 = ADVANCED_FACE ( 'NONE', ( #177 ), #9, .T. ) ;
#8 = DIRECTION ( 'NONE',  ( 1.000000000000000000, 0.000000000000000000, 0.000000000000000000 ) ) ;
#9 = PLANE ( 'NONE',  #255 ) ;
#10 = AXIS2_PLACEMENT_3D ( 'NONE', #60, #312, #159 ) ;
#11 = DIRECTION ( 'NONE',  ( 1.000000000000000000, 0.000000000000000000, 0.000000000000000000 ) ) ;
#12 = EDGE_CURVE ( 'NONE', #116, #366, #151, .T. ) ;
#13 = APPROVAL_DATE_TIME ( #295, #130 ) ;
#14 = PERSON_AND_ORGANIZATION ( #362, #88 ) ;
#15 = PRODUCT_RELATED_PRODUCT_CATEGORY ( 'detail', '', ( #306 ) ) ;
#16 = DIRECTION ( 'NONE',  ( 0.000000000000000000, 0.000000000000000000, -1.000000000000000000 ) ) ;
#17 = ORIENTED_EDGE ( 'NONE', *, *, #134, .F. ) ;
#18 = PERSON_AND_ORGANIZATION_ROLE ( 'design_supplier' ) ;
#19 = ORIENTED_EDGE ( 'NONE', *, *, #113, .T. ) ;
#20 = DIRECTION ( 'NONE',  ( -0.000000000000000000, -0.000000000000000000, 1.000000000000000000 ) ) ;
#21 = VERTEX_POINT ( 'NONE', #407 ) ;
#22 = DIRECTION ( 'NONE',  ( -0.000000000000000000, -0.000000000000000000, 1.000000000000000000 ) ) ;
#23 = CIRCLE ( 'NONE', #165, 0.5000000000000004441 ) ;
#24 = DIRECTION ( 'NONE',  ( 1.000000000000000000, 0.000000000000000000, 0.000000000000000000 ) ) ;
#25 = DIRECTION ( 'NONE',  ( -0.000000000000000000, -0.000000000000000000, 1.000000000000000000 ) ) ;
#26 = CIRCLE ( 'NONE', #284, 15.50000000000000000 ) ;
#27 = CARTESIAN_POINT ( 'NONE',  ( 16.00000000000000000, 1.959434878635765131E-15, -6.999999999999999112 ) ) ;
#28 = DIRECTION ( 'NONE',  ( 1.000000000000000000, 0.000000000000000000, 0.000000000000000000 ) ) ;
#29 = AXIS2_PLACEMENT_3D ( 'NONE', #370, #339, #336 ) ;
#30 = DIRECTION ( 'NONE',  ( -0.000000000000000000, -0.000000000000000000, 1.000000000000000000 ) ) ;
#31 = CIRCLE ( 'NONE', #68, 18.50000000000000000 ) ;
#32 = CC_DESIGN_APPROVAL ( #130, ( #372 ) ) ;
#33 = DIRECTION ( 'NONE',  ( 1.000000000000000000, 0.000000000000000000, 0.000000000000000000 ) ) ;
#34 = EDGE_CURVE ( 'NONE', #305, #364, #23, .T. ) ;
#35 = AXIS2_PLACEMENT_3D ( 'NONE', #346, #30, #251 ) ;
#36 = SECURITY_CLASSIFICATION ( '', '', #203 ) ;
#37 = ORIENTED_EDGE ( 'NONE', *, *, #34, .F. ) ;
#38 = CARTESIAN_POINT ( 'NONE',  ( -16.00000000000000000, 1.959434878635765131E-15, -7.500000000000000000 ) ) ;
#39 = CARTESIAN_POINT ( 'NONE',  ( 0.000000000000000000, 0.000000000000000000, -6.999999999999998224 ) ) ;
#40 = CALENDAR_DATE ( 2024, 2, 1 ) ;
#41 =( GEOMETRIC_REPRESENTATION_CONTEXT ( 3 ) GLOBAL_UNCERTAINTY_ASSIGNED_CONTEXT ( ( #270 ) ) GLOBAL_UNIT_ASSIGNED_CONTEXT ( ( #378, #275, #61 ) ) REPRESENTATION_CONTEXT ( 'NONE', 'WORKASPACE' ) );
#42 = CARTESIAN_POINT ( 'NONE',  ( 17.99999999999998224, 2.234980408443918426E-15, 0.000000000000000000 ) ) ;
#43 = APPROVAL_STATUS ( 'not_yet_approved' ) ;
#44 = PERSON_AND_ORGANIZATION ( #362, #88 ) ;
#45 = DIRECTION ( 'NONE',  ( 0.000000000000000000, 0.000000000000000000, -1.000000000000000000 ) ) ;
#46 = ORIENTED_EDGE ( 'NONE', *, *, #82, .T. ) ;
#47 = CALENDAR_DATE ( 2024, 2, 1 ) ;
#48 = FACE_OUTER_BOUND ( 'NONE', #100, .T. ) ;
#49 = EDGE_LOOP ( 'NONE', ( #223, #340, #396, #138 ) ) ;
#50 = DIRECTION ( 'NONE',  ( -0.000000000000000000, -1.000000000000000000, -0.000000000000000000 ) ) ;
#51 = TOROIDAL_SURFACE ( 'NONE', #95, 16.00000000000000000, 0.5000000000000000000 ) ;
#52 = EDGE_LOOP ( 'NONE', ( #70, #186, #149, #233 ) ) ;
#53 = FACE_OUTER_BOUND ( 'NONE', #80, .T. ) ;
#54 = DIRECTION ( 'NONE',  ( 1.000000000000000000, 0.000000000000000000, 0.000000000000000000 ) ) ;
#55 = EDGE_CURVE ( 'NONE', #21, #67, #290, .T. ) ;
#56 = DIRECTION ( 'NONE',  ( 0.000000000000000000, -0.000000000000000000, 1.000000000000000000 ) ) ;
#57 = DIRECTION ( 'NONE',  ( -0.000000000000000000, -0.000000000000000000, 1.000000000000000000 ) ) ;
#58 = AXIS2_PLACEMENT_3D ( 'NONE', #317, #348, #28 ) ;
#59 = APPROVAL ( #43, 'NEURÈENÝ' ) ;
#60 = CARTESIAN_POINT ( 'NONE',  ( 0.000000000000000000, 0.000000000000000000, 0.000000000000000000 ) ) ;
#61 =( NAMED_UNIT ( * ) SI_UNIT ( $, .STERADIAN. ) SOLID_ANGLE_UNIT ( ) );
#62 = FACE_OUTER_BOUND ( 'NONE', #49, .T. ) ;
#63 = EDGE_CURVE ( 'NONE', #268, #183, #393, .T. ) ;
#64 = AXIS2_PLACEMENT_3D ( 'NONE', #123, #56, #24 ) ;
#65 = CARTESIAN_POINT ( 'NONE',  ( -17.99999999999998224, 0.000000000000000000, 0.000000000000000000 ) ) ;
#66 = CYLINDRICAL_SURFACE ( 'NONE', #166, 16.00000000000000000 ) ;
#67 = VERTEX_POINT ( 'NONE', #148 ) ;
#68 = AXIS2_PLACEMENT_3D ( 'NONE', #39, #356, #11 ) ;
#69 = CARTESIAN_POINT ( 'NONE',  ( -18.50000000000000000, 2.265596578422603396E-15, 0.000000000000000000 ) ) ;
#70 = ORIENTED_EDGE ( 'NONE', *, *, #265, .F. ) ;
#71 = DIRECTION ( 'NONE',  ( 1.224646799147353207E-16, 1.000000000000000000, 0.000000000000000000 ) ) ;
#72 = ORIENTED_EDGE ( 'NONE', *, *, #196, .T. ) ;
#73 = CALENDAR_DATE ( 2024, 2, 1 ) ;
#74 = EDGE_LOOP ( 'NONE', ( #385, #235, #353, #266 ) ) ;
#75 = CARTESIAN_POINT ( 'NONE',  ( 16.00000000000000000, 0.000000000000000000, -54.99999999999999289 ) ) ;
#76 = PERSON_AND_ORGANIZATION ( #362, #88 ) ;
#77 = AXIS2_PLACEMENT_3D ( 'NONE', #172, #384, #8 ) ;
#78 = ORIENTED_EDGE ( 'NONE', *, *, #63, .T. ) ;
#79 = VERTEX_POINT ( 'NONE', #27 ) ;
#80 = EDGE_LOOP ( 'NONE', ( #322, #81, #298, #238 ) ) ;
#81 = ORIENTED_EDGE ( 'NONE', *, *, #318, .T. ) ;
#82 = EDGE_CURVE ( 'NONE', #79, #364, #319, .T. ) ;
#83 = PRODUCT_DEFINITION_SHAPE ( 'NONE', 'NONE',  #330 ) ;
#84 = ORIENTED_EDGE ( 'NONE', *, *, #12, .T. ) ;
#85 = APPLICATION_CONTEXT ( 'configuration controlled 3d designs of mechanical parts and assemblies' ) ;
#86 = CARTESIAN_POINT ( 'NONE',  ( 0.000000000000000000, 0.000000000000000000, 0.000000000000000000 ) ) ;
#87 = CONICAL_SURFACE ( 'NONE', #201, 17.99999999999998224, 0.7853981633974517207 ) ;
#88 = ORGANIZATION ( 'NEURÈENÝ', 'NEURÈENÝ', '' ) ;
#89 = ORIENTED_EDGE ( 'NONE', *, *, #168, .F. ) ;
#90 = EDGE_CURVE ( 'NONE', #368, #268, #187, .T. ) ;
#91 = CARTESIAN_POINT ( 'NONE',  ( 16.00000000000000000, 1.959434878635765131E-15, -7.500000000000000000 ) ) ;
#92 = DIRECTION ( 'NONE',  ( -0.000000000000000000, -0.000000000000000000, 1.000000000000000000 ) ) ;
#93 = MECHANICAL_CONTEXT ( 'NONE', #85, 'mechanical' ) ;
#94 = DIRECTION ( 'NONE',  ( -0.000000000000000000, -0.000000000000000000, 1.000000000000000000 ) ) ;
#95 = AXIS2_PLACEMENT_3D ( 'NONE', #360, #226, #105 ) ;
#96 = CARTESIAN_POINT ( 'NONE',  ( 0.000000000000000000, 0.000000000000000000, 0.000000000000000000 ) ) ;
#97 = DIRECTION ( 'NONE',  ( 1.000000000000000000, 0.000000000000000000, 0.000000000000000000 ) ) ;
#98 = AXIS2_PLACEMENT_3D ( 'NONE', #217, #277, #350 ) ;
#99 = DIRECTION ( 'NONE',  ( -0.7071067811865500152, 0.000000000000000000, -0.7071067811865451302 ) ) ;
#100 = EDGE_LOOP ( 'NONE', ( #289, #301, #146, #394 ) ) ;
#101 = DIRECTION ( 'NONE',  ( -0.000000000000000000, -0.000000000000000000, 1.000000000000000000 ) ) ;
#102 = LINE ( 'NONE', #323, #263 ) ;
#103 = CIRCLE ( 'NONE', #98, 17.99999999999998224 ) ;
#104 = DIRECTION ( 'NONE',  ( -1.000000000000000000, 0.000000000000000000, 0.000000000000000000 ) ) ;
#105 = DIRECTION ( 'NONE',  ( -1.000000000000000000, 0.000000000000000000, 0.000000000000000000 ) ) ;
#106 = PERSON_AND_ORGANIZATION_ROLE ( 'creator' ) ;
#107 = ADVANCED_FACE ( 'NONE', ( #53 ), #150, .T. ) ;
#108 = CARTESIAN_POINT ( 'NONE',  ( -16.00000000000000000, 1.959434878635765131E-15, 0.000000000000000000 ) ) ;
#109 = COORDINATED_UNIVERSAL_TIME_OFFSET ( 1, 0, .AHEAD. ) ;
#110 = EDGE_LOOP ( 'NONE', ( #351, #337, #329, #359 ) ) ;
#111 = APPROVAL_STATUS ( 'not_yet_approved' ) ;
#112 = AXIS2_PLACEMENT_3D ( 'NONE', #164, #222, #245 ) ;
#113 = EDGE_CURVE ( 'NONE', #399, #174, #142, .T. ) ;
#114 = ORIENTED_EDGE ( 'NONE', *, *, #392, .F. ) ;
#115 = ORIENTED_EDGE ( 'NONE', *, *, #198, .T. ) ;
#116 = VERTEX_POINT ( 'NONE', #373 ) ;
#117 = DIRECTION ( 'NONE',  ( 1.000000000000000000, 0.000000000000000000, 0.000000000000000000 ) ) ;
#118 = TOROIDAL_SURFACE ( 'NONE', #77, 16.00000000000000000, 0.5000000000000000000 ) ;
#119 = DESIGN_CONTEXT ( 'detailed design', #199, 'design' ) ;
#120 = CC_DESIGN_APPROVAL ( #59, ( #330 ) ) ;
#121 = DIRECTION ( 'NONE',  ( 1.000000000000000000, 0.000000000000000000, 0.000000000000000000 ) ) ;
#122 = CARTESIAN_POINT ( 'NONE',  ( 16.00000000000000000, 0.000000000000000000, -7.500000000000000000 ) ) ;
#123 = CARTESIAN_POINT ( 'NONE',  ( 0.000000000000000000, 0.000000000000000000, 0.000000000000000000 ) ) ;
#124 = LINE ( 'NONE', #65, #371 ) ;
#125 = EDGE_CURVE ( 'NONE', #364, #79, #194, .T. ) ;
#126 = CIRCLE ( 'NONE', #354, 0.5000000000000004441 ) ;
#127 = CARTESIAN_POINT ( 'NONE',  ( 0.000000000000000000, 0.000000000000000000, -8.000000000000000000 ) ) ;
#128 = DIRECTION ( 'NONE',  ( -1.000000000000000000, 0.000000000000000000, 0.000000000000000000 ) ) ;
#129 = EDGE_CURVE ( 'NONE', #332, #268, #325, .T. ) ;
#130 = APPROVAL ( #358, 'NEURÈENÝ' ) ;
#131 = DIRECTION ( 'NONE',  ( 0.7071067811865500152, 8.659560562354962440E-17, -0.7071067811865451302 ) ) ;
#132 = EDGE_LOOP ( 'NONE', ( #357, #84, #286, #72 ) ) ;
#133 = LINE ( 'NONE', #108, #211 ) ;
#134 = EDGE_CURVE ( 'NONE', #332, #305, #365, .T. ) ;
#135 = PERSON_AND_ORGANIZATION ( #362, #88 ) ;
#136 = LOCAL_TIME ( 19, 54, 11.00000000000000000, #231 ) ;
#137 = CARTESIAN_POINT ( 'NONE',  ( 16.00000000000000000, 0.000000000000000000, -8.000000000000000000 ) ) ;
#138 = ORIENTED_EDGE ( 'NONE', *, *, #242, .F. ) ;
#139 = APPROVAL_ROLE ( '' ) ;
#140 = PERSON_AND_ORGANIZATION ( #362, #88 ) ;
#141 = ADVANCED_FACE ( 'NONE', ( #308 ), #293, .F. ) ;
#142 = CIRCLE ( 'NONE', #375, 17.99999999999998224 ) ;
#143 = EDGE_LOOP ( 'NONE', ( #398, #333, #236, #369 ) ) ;
#144 = DATE_AND_TIME ( #176, #382 ) ;
#145 = AXIS2_PLACEMENT_3D ( 'NONE', #279, #409, #33 ) ;
#146 = ORIENTED_EDGE ( 'NONE', *, *, #34, .T. ) ;
#147 = EDGE_LOOP ( 'NONE', ( #205, #291 ) ) ;
#148 = CARTESIAN_POINT ( 'NONE',  ( 18.50000000000000000, 0.000000000000000000, -0.5000000000000143219 ) ) ;
#149 = ORIENTED_EDGE ( 'NONE', *, *, #242, .T. ) ;
#150 = CYLINDRICAL_SURFACE ( 'NONE', #313, 18.50000000000000000 ) ;
#151 = CIRCLE ( 'NONE', #171, 18.50000000000000000 ) ;
#152 = EDGE_CURVE ( 'NONE', #332, #79, #320, .T. ) ;
#153 = DIRECTION ( 'NONE',  ( -1.224646799147353207E-16, 1.000000000000000000, 0.000000000000000000 ) ) ;
#154 = AXIS2_PLACEMENT_3D ( 'NONE', #244, #20, #117 ) ;
#155 = CC_DESIGN_APPROVAL ( #232, ( #36 ) ) ;
#156 = DIRECTION ( 'NONE',  ( 1.000000000000000000, 0.000000000000000000, 0.000000000000000000 ) ) ;
#157 = EDGE_CURVE ( 'NONE', #366, #67, #405, .T. ) ;
#158 = CARTESIAN_POINT ( 'NONE',  ( -16.00000000000000000, 1.959434878635765131E-15, -8.000000000000000000 ) ) ;
#159 = DIRECTION ( 'NONE',  ( 1.000000000000000000, 0.000000000000000000, 0.000000000000000000 ) ) ;
#160 = FACE_OUTER_BOUND ( 'NONE', #110, .T. ) ;
#161 = AXIS2_PLACEMENT_3D ( 'NONE', #122, #269, #404 ) ;
#162 = CARTESIAN_POINT ( 'NONE',  ( -16.00000000000000000, 1.959434878635765131E-15, -54.99999999999999289 ) ) ;
#163 = ADVANCED_FACE ( 'NONE', ( #62 ), #219, .T. ) ;
#164 = CARTESIAN_POINT ( 'NONE',  ( 0.000000000000000000, 0.000000000000000000, 0.000000000000000000 ) ) ;
#165 = AXIS2_PLACEMENT_3D ( 'NONE', #237, #50, #188 ) ;
#166 = AXIS2_PLACEMENT_3D ( 'NONE', #388, #227, #6 ) ;
#167 = LINE ( 'NONE', #69, #387 ) ;
#168 = EDGE_CURVE ( 'NONE', #170, #368, #257, .T. ) ;
#169 = FACE_OUTER_BOUND ( 'NONE', #367, .T. ) ;
#170 = VERTEX_POINT ( 'NONE', #162 ) ;
#171 = AXIS2_PLACEMENT_3D ( 'NONE', #374, #22, #311 ) ;
#172 = CARTESIAN_POINT ( 'NONE',  ( 0.000000000000000000, 0.000000000000000000, -7.500000000000000000 ) ) ;
#173 = DATE_AND_TIME ( #228, #136 ) ;
#174 = VERTEX_POINT ( 'NONE', #381 ) ;
#175 = PERSON_AND_ORGANIZATION ( #362, #88 ) ;
#176 = CALENDAR_DATE ( 2024, 2, 1 ) ;
#177 = FACE_OUTER_BOUND ( 'NONE', #254, .T. ) ;
#178 = ORIENTED_EDGE ( 'NONE', *, *, #129, .T. ) ;
#179 = DATE_AND_TIME ( #47, #241 ) ;
#180 = EDGE_LOOP ( 'NONE', ( #207, #262, #401, #37 ) ) ;
#181 = CIRCLE ( 'NONE', #239, 16.00000000000000000 ) ;
#182 = DIRECTION ( 'NONE',  ( 1.000000000000000000, 0.000000000000000000, 0.000000000000000000 ) ) ;
#183 = VERTEX_POINT ( 'NONE', #158 ) ;
#184 = DIRECTION ( 'NONE',  ( -0.000000000000000000, -0.000000000000000000, 1.000000000000000000 ) ) ;
#185 = ADVANCED_FACE ( 'NONE', ( #4, #250 ), #380, .T. ) ;
#186 = ORIENTED_EDGE ( 'NONE', *, *, #345, .T. ) ;
#187 = LINE ( 'NONE', #215, #402 ) ;
#188 = DIRECTION ( 'NONE',  ( 0.000000000000000000, 0.000000000000000000, -1.000000000000000000 ) ) ;
#189 = AXIS2_PLACEMENT_3D ( 'NONE', #214, #25, #121 ) ;
#190 = CARTESIAN_POINT ( 'NONE',  ( 18.50000000000000000, 0.000000000000000000, 0.000000000000000000 ) ) ;
#191 = DIRECTION ( 'NONE',  ( 1.000000000000000000, 0.000000000000000000, 0.000000000000000000 ) ) ;
#192 = VECTOR ( 'NONE', #316, 1000.000000000000000 ) ;
#193 = FACE_OUTER_BOUND ( 'NONE', #74, .T. ) ;
#194 = CIRCLE ( 'NONE', #338, 16.00000000000000000 ) ;
#195 = CONICAL_SURFACE ( 'NONE', #112, 17.99999999999998224, 0.7853981633974517207 ) ;
#196 = EDGE_CURVE ( 'NONE', #67, #21, #278, .T. ) ;
#197 = DIRECTION ( 'NONE',  ( -1.000000000000000000, 1.224646799147349509E-16, 0.000000000000000000 ) ) ;
#198 = EDGE_CURVE ( 'NONE', #174, #399, #103, .T. ) ;
#199 = APPLICATION_CONTEXT ( 'configuration controlled 3d designs of mechanical parts and assemblies' ) ;
#200 = CARTESIAN_POINT ( 'NONE',  ( 0.000000000000000000, 0.000000000000000000, -54.99999999999999289 ) ) ;
#201 = AXIS2_PLACEMENT_3D ( 'NONE', #96, #1, #128 ) ;
#202 = PERSON_AND_ORGANIZATION_ROLE ( 'creator' ) ;
#203 = SECURITY_CLASSIFICATION_LEVEL ( 'unclassified' ) ;
#204 = CC_DESIGN_DATE_AND_TIME_ASSIGNMENT ( #173, #296, ( #330 ) ) ;
#205 = ORIENTED_EDGE ( 'NONE', *, *, #342, .F. ) ;
#206 = APPROVAL_ROLE ( '' ) ;
#207 = ORIENTED_EDGE ( 'NONE', *, *, #265, .T. ) ;
#208 = EDGE_LOOP ( 'NONE', ( #115, #19 ) ) ;
#209 = AXIS2_PLACEMENT_3D ( 'NONE', #341, #57, #54 ) ;
#210 = ORIENTED_EDGE ( 'NONE', *, *, #125, .T. ) ;
#211 = VECTOR ( 'NONE', #285, 1000.000000000000000 ) ;
#212 = DIRECTION ( 'NONE',  ( 1.000000000000000000, 0.000000000000000000, 0.000000000000000000 ) ) ;
#213 = APPROVAL_PERSON_ORGANIZATION ( #14, #59, #139 ) ;
#214 = CARTESIAN_POINT ( 'NONE',  ( 0.000000000000000000, 0.000000000000000000, -7.500000000000000000 ) ) ;
#215 = CARTESIAN_POINT ( 'NONE',  ( 16.00000000000000000, 0.000000000000000000, 0.000000000000000000 ) ) ;
#216 = ADVANCED_FACE ( 'NONE', ( #344 ), #2, .T. ) ;
#217 = CARTESIAN_POINT ( 'NONE',  ( 0.000000000000000000, 0.000000000000000000, 0.000000000000000000 ) ) ;
#218 = CC_DESIGN_DATE_AND_TIME_ASSIGNMENT ( #144, #395, ( #36 ) ) ;
#219 = CYLINDRICAL_SURFACE ( 'NONE', #58, 16.00000000000000000 ) ;
#220 = CARTESIAN_POINT ( 'NONE',  ( 0.000000000000000000, 18.50000000000000000, -6.999999999999999112 ) ) ;
#221 = LOCAL_TIME ( 19, 54, 11.00000000000000000, #109 ) ;
#222 = DIRECTION ( 'NONE',  ( 0.000000000000000000, 0.000000000000000000, -1.000000000000000000 ) ) ;
#223 = ORIENTED_EDGE ( 'NONE', *, *, #281, .F. ) ;
#224 = FACE_OUTER_BOUND ( 'NONE', #208, .T. ) ;
#225 = EDGE_CURVE ( 'NONE', #174, #21, #124, .T. ) ;
#226 = DIRECTION ( 'NONE',  ( 0.000000000000000000, 0.000000000000000000, -1.000000000000000000 ) ) ;
#227 = DIRECTION ( 'NONE',  ( -0.000000000000000000, -0.000000000000000000, 1.000000000000000000 ) ) ;
#228 = CALENDAR_DATE ( 2024, 2, 1 ) ;
#229 = ADVANCED_FACE ( 'NONE', ( #160 ), #87, .T. ) ;
#230 = DIRECTION ( 'NONE',  ( -0.000000000000000000, -0.000000000000000000, 1.000000000000000000 ) ) ;
#231 = COORDINATED_UNIVERSAL_TIME_OFFSET ( 1, 0, .AHEAD. ) ;
#232 = APPROVAL ( #111, 'NEURÈENÝ' ) ;
#233 = ORIENTED_EDGE ( 'NONE', *, *, #129, .F. ) ;
#234 = LOCAL_TIME ( 19, 54, 11.00000000000000000, #361 ) ;
#235 = ORIENTED_EDGE ( 'NONE', *, *, #300, .T. ) ;
#236 = ORIENTED_EDGE ( 'NONE', *, *, #63, .F. ) ;
#237 = CARTESIAN_POINT ( 'NONE',  ( -16.00000000000000000, 0.000000000000000000, -7.500000000000000000 ) ) ;
#238 = ORIENTED_EDGE ( 'NONE', *, *, #157, .F. ) ;
#239 = AXIS2_PLACEMENT_3D ( 'NONE', #200, #101, #326 ) ;
#240 = CARTESIAN_POINT ( 'NONE',  ( 0.000000000000000000, 0.000000000000000000, 0.000000000000000000 ) ) ;
#241 = LOCAL_TIME ( 19, 54, 11.00000000000000000, #331 ) ;
#242 = EDGE_CURVE ( 'NONE', #183, #268, #315, .T. ) ;
#243 = DIRECTION ( 'NONE',  ( -0.000000000000000000, -0.000000000000000000, 1.000000000000000000 ) ) ;
#244 = CARTESIAN_POINT ( 'NONE',  ( 0.000000000000000000, 0.000000000000000000, -7.500000000000000000 ) ) ;
#245 = DIRECTION ( 'NONE',  ( -1.000000000000000000, 0.000000000000000000, 0.000000000000000000 ) ) ;
#246 = CC_DESIGN_PERSON_AND_ORGANIZATION_ASSIGNMENT ( #140, #18, ( #372 ) ) ;
#247 = CARTESIAN_POINT ( 'NONE',  ( 0.000000000000000000, 0.000000000000000000, -0.5000000000000143219 ) ) ;
#248 = CC_DESIGN_SECURITY_CLASSIFICATION ( #36, ( #372 ) ) ;
#249 = DIRECTION ( 'NONE',  ( -0.000000000000000000, -0.000000000000000000, 1.000000000000000000 ) ) ;
#250 = FACE_OUTER_BOUND ( 'NONE', #147, .T. ) ;
#251 = DIRECTION ( 'NONE',  ( 1.000000000000000000, 0.000000000000000000, 0.000000000000000000 ) ) ;
#252 = ADVANCED_FACE ( 'NONE', ( #193 ), #195, .T. ) ;
#253 = FACE_OUTER_BOUND ( 'NONE', #143, .T. ) ;
#254 = EDGE_LOOP ( 'NONE', ( #114, #89 ) ) ;
#255 = AXIS2_PLACEMENT_3D ( 'NONE', #297, #16, #400 ) ;
#256 = FACE_OUTER_BOUND ( 'NONE', #180, .T. ) ;
#257 = CIRCLE ( 'NONE', #35, 16.00000000000000000 ) ;
#258 = DATE_AND_TIME ( #40, #234 ) ;
#259 = CARTESIAN_POINT ( 'NONE',  ( -16.00000000000000000, 0.000000000000000000, -6.999999999999999112 ) ) ;
#260 = PERSON_AND_ORGANIZATION ( #362, #88 ) ;
#261 = PERSON_AND_ORGANIZATION_ROLE ( 'classification_officer' ) ;
#262 = ORIENTED_EDGE ( 'NONE', *, *, #152, .T. ) ;
#263 = VECTOR ( 'NONE', #131, 1000.000000000000114 ) ;
#264 = PERSON_AND_ORGANIZATION ( #362, #88 ) ;
#265 = EDGE_CURVE ( 'NONE', #305, #332, #26, .T. ) ;
#266 = ORIENTED_EDGE ( 'NONE', *, *, #225, .F. ) ;
#267 = DIRECTION ( 'NONE',  ( 0.000000000000000000, 0.000000000000000000, -1.000000000000000000 ) ) ;
#268 = VERTEX_POINT ( 'NONE', #137 ) ;
#269 = DIRECTION ( 'NONE',  ( 0.000000000000000000, -1.000000000000000000, 0.000000000000000000 ) ) ;
#270 = UNCERTAINTY_MEASURE_WITH_UNIT (LENGTH_MEASURE( 1.000000000000000082E-05 ), #378, 'distance_accuracy_value', 'NONE');
#271 = ADVANCED_FACE ( 'NONE', ( #169 ), #118, .F. ) ;
#272 = APPLICATION_PROTOCOL_DEFINITION ( 'international standard', 'config_control_design', 1994, #85 ) ;
#273 = AXIS2_PLACEMENT_3D ( 'NONE', #127, #249, #97 ) ;
#274 = DIRECTION ( 'NONE',  ( -1.000000000000000000, -1.224646799147349509E-16, 0.000000000000000000 ) ) ;
#275 =( NAMED_UNIT ( * ) PLANE_ANGLE_UNIT ( ) SI_UNIT ( $, .RADIAN. ) );
#276 = CARTESIAN_POINT ( 'NONE',  ( 0.000000000000000000, 0.000000000000000000, -6.999999999999999112 ) ) ;
#277 = DIRECTION ( 'NONE',  ( -0.000000000000000000, -0.000000000000000000, 1.000000000000000000 ) ) ;
#278 = CIRCLE ( 'NONE', #379, 18.50000000000000000 ) ;
#279 = CARTESIAN_POINT ( 'NONE',  ( 0.000000000000000000, 0.000000000000000000, 0.000000000000000000 ) ) ;
#280 = APPROVAL_PERSON_ORGANIZATION ( #260, #130, #391 ) ;
#281 = EDGE_CURVE ( 'NONE', #170, #183, #133, .T. ) ;
#282 = DIRECTION ( 'NONE',  ( 0.000000000000000000, 0.000000000000000000, -1.000000000000000000 ) ) ;
#283 = ADVANCED_FACE ( 'NONE', ( #256 ), #51, .F. ) ;
#284 = AXIS2_PLACEMENT_3D ( 'NONE', #377, #94, #288 ) ;
#285 = DIRECTION ( 'NONE',  ( -0.000000000000000000, -0.000000000000000000, 1.000000000000000000 ) ) ;
#286 = ORIENTED_EDGE ( 'NONE', *, *, #157, .T. ) ;
#287 = CC_DESIGN_PERSON_AND_ORGANIZATION_ASSIGNMENT ( #44, #261, ( #36 ) ) ;
#288 = DIRECTION ( 'NONE',  ( 1.000000000000000000, 0.000000000000000000, 0.000000000000000000 ) ) ;
#289 = ORIENTED_EDGE ( 'NONE', *, *, #152, .F. ) ;
#290 = CIRCLE ( 'NONE', #307, 18.50000000000000000 ) ;
#291 = ORIENTED_EDGE ( 'NONE', *, *, #12, .F. ) ;
#292 = ADVANCED_FACE ( 'NONE', ( #253 ), #66, .T. ) ;
#293 = TOROIDAL_SURFACE ( 'NONE', #189, 16.00000000000000000, 0.5000000000000000000 ) ;
#294 = ORIENTED_EDGE ( 'NONE', *, *, #345, .F. ) ;
#295 = DATE_AND_TIME ( #73, #221 ) ;
#296 = DATE_TIME_ROLE ( 'creation_date' ) ;
#297 = CARTESIAN_POINT ( 'NONE',  ( 0.000000000000000000, 16.00000000000000000, -54.99999999999999289 ) ) ;
#298 = ORIENTED_EDGE ( 'NONE', *, *, #55, .T. ) ;
#299 = APPROVAL_DATE_TIME ( #179, #232 ) ;
#300 = EDGE_CURVE ( 'NONE', #399, #67, #102, .T. ) ;
#301 = ORIENTED_EDGE ( 'NONE', *, *, #134, .T. ) ;
#302 = DIRECTION ( 'NONE',  ( -0.000000000000000000, -0.000000000000000000, 1.000000000000000000 ) ) ;
#303 = EDGE_LOOP ( 'NONE', ( #210, #46 ) ) ;
#304 = DIRECTION ( 'NONE',  ( -1.000000000000000000, 0.000000000000000000, 0.000000000000000000 ) ) ;
#305 = VERTEX_POINT ( 'NONE', #355 ) ;
#306 = PRODUCT ( '7804', '7804', '', ( #93 ) ) ;
#307 = AXIS2_PLACEMENT_3D ( 'NONE', #343, #267, #182 ) ;
#308 = FACE_OUTER_BOUND ( 'NONE', #52, .T. ) ;
#309 = CC_DESIGN_PERSON_AND_ORGANIZATION_ASSIGNMENT ( #175, #106, ( #330 ) ) ;
#310 = APPROVAL_PERSON_ORGANIZATION ( #264, #232, #206 ) ;
#311 = DIRECTION ( 'NONE',  ( 1.000000000000000000, 0.000000000000000000, 0.000000000000000000 ) ) ;
#312 = DIRECTION ( 'NONE',  ( 0.000000000000000000, 0.000000000000000000, 1.000000000000000000 ) ) ;
#313 = AXIS2_PLACEMENT_3D ( 'NONE', #240, #302, #156 ) ;
#314 = DIRECTION ( 'NONE',  ( 0.000000000000000000, 0.000000000000000000, -1.000000000000000000 ) ) ;
#315 = CIRCLE ( 'NONE', #273, 16.00000000000000000 ) ;
#316 = DIRECTION ( 'NONE',  ( -0.000000000000000000, -0.000000000000000000, 1.000000000000000000 ) ) ;
#317 = CARTESIAN_POINT ( 'NONE',  ( 0.000000000000000000, 0.000000000000000000, 0.000000000000000000 ) ) ;
#318 = EDGE_CURVE ( 'NONE', #116, #21, #167, .T. ) ;
#319 = CIRCLE ( 'NONE', #29, 16.00000000000000000 ) ;
#320 = CIRCLE ( 'NONE', #349, 0.5000000000000004441 ) ;
#321 = CARTESIAN_POINT ( 'NONE',  ( 15.50000000000000000, 0.000000000000000000, -7.500000000000000000 ) ) ;
#322 = ORIENTED_EDGE ( 'NONE', *, *, #342, .T. ) ;
#323 = CARTESIAN_POINT ( 'NONE',  ( 17.99999999999998224, 2.204364238465233456E-15, 0.000000000000000000 ) ) ;
#324 = APPLICATION_PROTOCOL_DEFINITION ( 'international standard', 'config_control_design', 1994, #199 ) ;
#325 = CIRCLE ( 'NONE', #161, 0.5000000000000004441 ) ;
#326 = DIRECTION ( 'NONE',  ( 1.000000000000000000, 0.000000000000000000, 0.000000000000000000 ) ) ;
#327 = APPROVAL_DATE_TIME ( #258, #59 ) ;
#328 = CARTESIAN_POINT ( 'NONE',  ( 0.000000000000000000, 0.000000000000000000, -7.500000000000000000 ) ) ;
#329 = ORIENTED_EDGE ( 'NONE', *, *, #225, .T. ) ;
#330 = PRODUCT_DEFINITION ( 'NEZNÁMÝ', '', #372, #119 ) ;
#331 = COORDINATED_UNIVERSAL_TIME_OFFSET ( 1, 0, .AHEAD. ) ;
#332 = VERTEX_POINT ( 'NONE', #321 ) ;
#333 = ORIENTED_EDGE ( 'NONE', *, *, #281, .T. ) ;
#334 = TOROIDAL_SURFACE ( 'NONE', #386, 16.00000000000000000, 0.5000000000000000000 ) ;
#335 = CC_DESIGN_PERSON_AND_ORGANIZATION_ASSIGNMENT ( #76, #202, ( #372 ) ) ;
#336 = DIRECTION ( 'NONE',  ( -1.000000000000000000, 0.000000000000000000, 0.000000000000000000 ) ) ;
#337 = ORIENTED_EDGE ( 'NONE', *, *, #198, .F. ) ;
#338 = AXIS2_PLACEMENT_3D ( 'NONE', #276, #184, #304 ) ;
#339 = DIRECTION ( 'NONE',  ( -0.000000000000000000, -0.000000000000000000, 1.000000000000000000 ) ) ;
#340 = ORIENTED_EDGE ( 'NONE', *, *, #168, .T. ) ;
#341 = CARTESIAN_POINT ( 'NONE',  ( 0.000000000000000000, 0.000000000000000000, -8.000000000000000000 ) ) ;
#342 = EDGE_CURVE ( 'NONE', #366, #116, #31, .T. ) ;
#343 = CARTESIAN_POINT ( 'NONE',  ( 0.000000000000000000, 0.000000000000000000, -0.5000000000000143219 ) ) ;
#344 = FACE_OUTER_BOUND ( 'NONE', #132, .T. ) ;
#345 = EDGE_CURVE ( 'NONE', #305, #183, #126, .T. ) ;
#346 = CARTESIAN_POINT ( 'NONE',  ( 0.000000000000000000, 0.000000000000000000, -54.99999999999999289 ) ) ;
#347 = ADVANCED_BREP_SHAPE_REPRESENTATION ( '7804', ( #376, #10 ), #41 ) ;
#348 = DIRECTION ( 'NONE',  ( -0.000000000000000000, -0.000000000000000000, 1.000000000000000000 ) ) ;
#349 = AXIS2_PLACEMENT_3D ( 'NONE', #91, #153, #274 ) ;
#350 = DIRECTION ( 'NONE',  ( 1.000000000000000000, 0.000000000000000000, 0.000000000000000000 ) ) ;
#351 = ORIENTED_EDGE ( 'NONE', *, *, #300, .F. ) ;
#352 = PLANE ( 'NONE',  #64 ) ;
#353 = ORIENTED_EDGE ( 'NONE', *, *, #55, .F. ) ;
#354 = AXIS2_PLACEMENT_3D ( 'NONE', #38, #71, #197 ) ;
#355 = CARTESIAN_POINT ( 'NONE',  ( -15.50000000000000000, 1.928818708657081344E-15, -7.500000000000000000 ) ) ;
#356 = DIRECTION ( 'NONE',  ( -0.000000000000000000, -0.000000000000000000, 1.000000000000000000 ) ) ;
#357 = ORIENTED_EDGE ( 'NONE', *, *, #318, .F. ) ;
#358 = APPROVAL_STATUS ( 'not_yet_approved' ) ;
#359 = ORIENTED_EDGE ( 'NONE', *, *, #196, .F. ) ;
#360 = CARTESIAN_POINT ( 'NONE',  ( 0.000000000000000000, 0.000000000000000000, -7.500000000000000000 ) ) ;
#361 = COORDINATED_UNIVERSAL_TIME_OFFSET ( 1, 0, .AHEAD. ) ;
#362 = PERSON ( 'NEURÈENÝ', 'NEURÈENÝ', 'NEURÈENÝ', ('NEURÈENÝ'), ('NEURÈENÝ'), ('NEURÈENÝ') ) ;
#363 = COORDINATED_UNIVERSAL_TIME_OFFSET ( 1, 0, .AHEAD. ) ;
#364 = VERTEX_POINT ( 'NONE', #259 ) ;
#365 = CIRCLE ( 'NONE', #154, 15.50000000000000000 ) ;
#366 = VERTEX_POINT ( 'NONE', #390 ) ;
#367 = EDGE_LOOP ( 'NONE', ( #294, #17, #178, #78 ) ) ;
#368 = VERTEX_POINT ( 'NONE', #75 ) ;
#369 = ORIENTED_EDGE ( 'NONE', *, *, #90, .F. ) ;
#370 = CARTESIAN_POINT ( 'NONE',  ( 0.000000000000000000, 0.000000000000000000, -6.999999999999999112 ) ) ;
#371 = VECTOR ( 'NONE', #99, 1000.000000000000114 ) ;
#372 = PRODUCT_DEFINITION_FORMATION_WITH_SPECIFIED_SOURCE ( 'LIBOVOLNÝ', '', #306, .NOT_KNOWN. ) ;
#373 = CARTESIAN_POINT ( 'NONE',  ( -18.50000000000000000, 2.265596578422603396E-15, -6.999999999999998224 ) ) ;
#374 = CARTESIAN_POINT ( 'NONE',  ( 0.000000000000000000, 0.000000000000000000, -6.999999999999998224 ) ) ;
#375 = AXIS2_PLACEMENT_3D ( 'NONE', #86, #243, #212 ) ;
#376 = MANIFOLD_SOLID_BREP ( 'Zkosení1', #408 ) ;
#377 = CARTESIAN_POINT ( 'NONE',  ( 0.000000000000000000, 0.000000000000000000, -7.500000000000000000 ) ) ;
#378 =( LENGTH_UNIT ( ) NAMED_UNIT ( * ) SI_UNIT ( .MILLI., .METRE. ) );
#379 = AXIS2_PLACEMENT_3D ( 'NONE', #247, #282, #191 ) ;
#380 = PLANE ( 'NONE',  #5 ) ;
#381 = CARTESIAN_POINT ( 'NONE',  ( -17.99999999999998224, 0.000000000000000000, 0.000000000000000000 ) ) ;
#382 = LOCAL_TIME ( 19, 54, 11.00000000000000000, #363 ) ;
#383 = DIRECTION ( 'NONE',  ( -1.000000000000000000, 0.000000000000000000, -0.000000000000000000 ) ) ;
#384 = DIRECTION ( 'NONE',  ( -0.000000000000000000, -0.000000000000000000, 1.000000000000000000 ) ) ;
#385 = ORIENTED_EDGE ( 'NONE', *, *, #113, .F. ) ;
#386 = AXIS2_PLACEMENT_3D ( 'NONE', #328, #45, #104 ) ;
#387 = VECTOR ( 'NONE', #230, 1000.000000000000000 ) ;
#388 = CARTESIAN_POINT ( 'NONE',  ( 0.000000000000000000, 0.000000000000000000, 0.000000000000000000 ) ) ;
#389 = PERSON_AND_ORGANIZATION_ROLE ( 'design_owner' ) ;
#390 = CARTESIAN_POINT ( 'NONE',  ( 18.50000000000000000, 0.000000000000000000, -6.999999999999998224 ) ) ;
#391 = APPROVAL_ROLE ( '' ) ;
#392 = EDGE_CURVE ( 'NONE', #368, #170, #181, .T. ) ;
#393 = CIRCLE ( 'NONE', #209, 16.00000000000000000 ) ;
#394 = ORIENTED_EDGE ( 'NONE', *, *, #82, .F. ) ;
#395 = DATE_TIME_ROLE ( 'classification_date' ) ;
#396 = ORIENTED_EDGE ( 'NONE', *, *, #90, .T. ) ;
#397 = SHAPE_DEFINITION_REPRESENTATION ( #83, #347 ) ;
#398 = ORIENTED_EDGE ( 'NONE', *, *, #392, .T. ) ;
#399 = VERTEX_POINT ( 'NONE', #42 ) ;
#400 = DIRECTION ( 'NONE',  ( -1.000000000000000000, 0.000000000000000000, -0.000000000000000000 ) ) ;
#401 = ORIENTED_EDGE ( 'NONE', *, *, #125, .F. ) ;
#402 = VECTOR ( 'NONE', #92, 1000.000000000000000 ) ;
#403 = ADVANCED_FACE ( 'NONE', ( #224 ), #352, .T. ) ;
#404 = DIRECTION ( 'NONE',  ( 0.000000000000000000, 0.000000000000000000, -1.000000000000000000 ) ) ;
#405 = LINE ( 'NONE', #190, #192 ) ;
#406 = CC_DESIGN_PERSON_AND_ORGANIZATION_ASSIGNMENT ( #135, #389, ( #306 ) ) ;
#407 = CARTESIAN_POINT ( 'NONE',  ( -18.50000000000000000, 2.265596578422603396E-15, -0.5000000000000143219 ) ) ;
#408 = CLOSED_SHELL ( 'NONE', ( #252, #283, #141, #292, #107, #7, #403, #216, #185, #163, #271, #3, #229 ) ) ;
#409 = DIRECTION ( 'NONE',  ( -0.000000000000000000, -0.000000000000000000, 1.000000000000000000 ) ) ;
ENDSEC;
END-ISO-10303-21;
