ISO-10303-21;
HEADER;
FILE_DESCRIPTION (( 'STEP AP203' ),
    '1' );
FILE_NAME ('909d.STEP',
    '2024-01-02T18:55:34',
    ( '' ),
    ( '' ),
    'SwSTEP 2.0',
    'SolidWorks 2019',
    '' );
FILE_SCHEMA (( 'CONFIG_CONTROL_DESIGN' ));
ENDSEC;

DATA;
#1 = ORIENTED_EDGE ( 'NONE', *, *, #220, .F. ) ;
#2 = DIRECTION ( 'NONE',  ( 0.000000000000000000, -0.000000000000000000, 1.000000000000000000 ) ) ;
#3 = CARTESIAN_POINT ( 'NONE',  ( 0.000000000000000000, 0.000000000000000000, -7.500000000000000000 ) ) ;
#4 = AXIS2_PLACEMENT_3D ( 'NONE', #145, #239, #392 ) ;
#5 = CIRCLE ( 'NONE', #247, 16.00000000000000000 ) ;
#6 = SECURITY_CLASSIFICATION ( '', '', #93 ) ;
#7 = DIRECTION ( 'NONE',  ( 0.000000000000000000, 0.000000000000000000, -1.000000000000000000 ) ) ;
#8 = EDGE_CURVE ( 'NONE', #348, #353, #318, .T. ) ;
#9 = PERSON_AND_ORGANIZATION ( #327, #251 ) ;
#10 = COORDINATED_UNIVERSAL_TIME_OFFSET ( 1, 0, .AHEAD. ) ;
#11 = ORIENTED_EDGE ( 'NONE', *, *, #333, .F. ) ;
#12 = PRODUCT_DEFINITION_SHAPE ( 'NONE', 'NONE',  #123 ) ;
#13 = ORIENTED_EDGE ( 'NONE', *, *, #263, .T. ) ;
#14 = EDGE_LOOP ( 'NONE', ( #336, #393, #100, #255 ) ) ;
#15 = DIRECTION ( 'NONE',  ( -0.000000000000000000, -0.000000000000000000, 1.000000000000000000 ) ) ;
#16 = CARTESIAN_POINT ( 'NONE',  ( -18.00000000000001066, 0.000000000000000000, 0.000000000000000000 ) ) ;
#17 = AXIS2_PLACEMENT_3D ( 'NONE', #302, #295, #143 ) ;
#18 = AXIS2_PLACEMENT_3D ( 'NONE', #305, #244, #397 ) ;
#19 = PERSON_AND_ORGANIZATION ( #327, #251 ) ;
#20 = DIRECTION ( 'NONE',  ( -0.000000000000000000, -0.000000000000000000, 1.000000000000000000 ) ) ;
#21 = DATE_AND_TIME ( #390, #144 ) ;
#22 = DIRECTION ( 'NONE',  ( -0.000000000000000000, -0.000000000000000000, 1.000000000000000000 ) ) ;
#23 = CARTESIAN_POINT ( 'NONE',  ( 16.00000000000000000, 0.000000000000000000, -40.00000000000000000 ) ) ;
#24 = EDGE_CURVE ( 'NONE', #353, #201, #257, .T. ) ;
#25 = FACE_OUTER_BOUND ( 'NONE', #341, .T. ) ;
#26 = PERSON_AND_ORGANIZATION ( #327, #251 ) ;
#27 =( LENGTH_UNIT ( ) NAMED_UNIT ( * ) SI_UNIT ( .MILLI., .METRE. ) );
#28 = CARTESIAN_POINT ( 'NONE',  ( 18.00000000000001066, 2.234980408443920004E-15, 0.000000000000000000 ) ) ;
#29 = ADVANCED_FACE ( 'NONE', ( #72 ), #155, .F. ) ;
#30 = CARTESIAN_POINT ( 'NONE',  ( 18.50000000000000000, 0.000000000000000000, -6.999999999999998224 ) ) ;
#31 = TOROIDAL_SURFACE ( 'NONE', #223, 16.00000000000000000, 0.5000000000000000000 ) ;
#32 = ORIENTED_EDGE ( 'NONE', *, *, #24, .F. ) ;
#33 = AXIS2_PLACEMENT_3D ( 'NONE', #316, #232, #7 ) ;
#34 = VERTEX_POINT ( 'NONE', #102 ) ;
#35 = ADVANCED_FACE ( 'NONE', ( #260, #25 ), #297, .T. ) ;
#36 = CIRCLE ( 'NONE', #290, 0.5000000000000004441 ) ;
#37 = ORIENTED_EDGE ( 'NONE', *, *, #309, .F. ) ;
#38 = CARTESIAN_POINT ( 'NONE',  ( -18.00000000000001066, 0.000000000000000000, 0.000000000000000000 ) ) ;
#39 = CARTESIAN_POINT ( 'NONE',  ( 0.000000000000000000, 0.000000000000000000, -8.000000000000000000 ) ) ;
#40 = ORIENTED_EDGE ( 'NONE', *, *, #176, .T. ) ;
#41 = ORIENTED_EDGE ( 'NONE', *, *, #309, .T. ) ;
#42 = AXIS2_PLACEMENT_3D ( 'NONE', #131, #376, #101 ) ;
#43 = VERTEX_POINT ( 'NONE', #300 ) ;
#44 = ORIENTED_EDGE ( 'NONE', *, *, #333, .T. ) ;
#45 = CARTESIAN_POINT ( 'NONE',  ( 0.000000000000000000, 0.000000000000000000, 0.000000000000000000 ) ) ;
#46 = DIRECTION ( 'NONE',  ( 1.000000000000000000, 0.000000000000000000, 0.000000000000000000 ) ) ;
#47 = CARTESIAN_POINT ( 'NONE',  ( 0.000000000000000000, 0.000000000000000000, 0.000000000000000000 ) ) ;
#48 = FACE_OUTER_BOUND ( 'NONE', #237, .T. ) ;
#49 = PERSON_AND_ORGANIZATION ( #327, #251 ) ;
#50 = CARTESIAN_POINT ( 'NONE',  ( 16.00000000000000000, 0.000000000000000000, 0.000000000000000000 ) ) ;
#51 = APPROVAL ( #264, 'NEURÈENÝ' ) ;
#52 = LINE ( 'NONE', #181, #373 ) ;
#53 = VECTOR ( 'NONE', #231, 1000.000000000000114 ) ;
#54 = LOCAL_TIME ( 19, 55, 34.00000000000000000, #165 ) ;
#55 = DIRECTION ( 'NONE',  ( -1.000000000000000000, 0.000000000000000000, 0.000000000000000000 ) ) ;
#56 = EDGE_CURVE ( 'NONE', #343, #189, #52, .T. ) ;
#57 = CARTESIAN_POINT ( 'NONE',  ( -16.00000000000000000, 0.000000000000000000, -7.500000000000000000 ) ) ;
#58 = DIRECTION ( 'NONE',  ( -0.000000000000000000, -0.000000000000000000, 1.000000000000000000 ) ) ;
#59 = CIRCLE ( 'NONE', #217, 18.00000000000001066 ) ;
#60 = ORIENTED_EDGE ( 'NONE', *, *, #283, .T. ) ;
#61 = EDGE_CURVE ( 'NONE', #252, #43, #269, .T. ) ;
#62 = CARTESIAN_POINT ( 'NONE',  ( 16.00000000000000000, 1.959434878635765131E-15, -6.999999999999999112 ) ) ;
#63 = DIRECTION ( 'NONE',  ( -1.224646799147353207E-16, 1.000000000000000000, 0.000000000000000000 ) ) ;
#64 = EDGE_LOOP ( 'NONE', ( #13, #104 ) ) ;
#65 = CARTESIAN_POINT ( 'NONE',  ( 0.000000000000000000, 0.000000000000000000, -6.999999999999999112 ) ) ;
#66 = VECTOR ( 'NONE', #182, 1000.000000000000000 ) ;
#67 = DIRECTION ( 'NONE',  ( 1.000000000000000000, 0.000000000000000000, 0.000000000000000000 ) ) ;
#68 = ORIENTED_EDGE ( 'NONE', *, *, #220, .T. ) ;
#69 = ADVANCED_FACE ( 'NONE', ( #173 ), #160, .T. ) ;
#70 = CALENDAR_DATE ( 2024, 2, 1 ) ;
#71 = ORIENTED_EDGE ( 'NONE', *, *, #235, .F. ) ;
#72 = FACE_OUTER_BOUND ( 'NONE', #141, .T. ) ;
#73 = CLOSED_SHELL ( 'NONE', ( #259, #389, #147, #338, #94, #99, #366, #185, #35, #321, #29, #294, #69 ) ) ;
#74 = AXIS2_PLACEMENT_3D ( 'NONE', #221, #119, #85 ) ;
#75 = DIRECTION ( 'NONE',  ( -0.000000000000000000, -0.000000000000000000, 1.000000000000000000 ) ) ;
#76 = EDGE_LOOP ( 'NONE', ( #71, #293, #129, #106 ) ) ;
#77 = CC_DESIGN_PERSON_AND_ORGANIZATION_ASSIGNMENT ( #304, #401, ( #134 ) ) ;
#78 = PERSON_AND_ORGANIZATION_ROLE ( 'design_owner' ) ;
#79 = CARTESIAN_POINT ( 'NONE',  ( 0.000000000000000000, 0.000000000000000000, -40.00000000000000000 ) ) ;
#80 = VECTOR ( 'NONE', #138, 1000.000000000000114 ) ;
#81 =( GEOMETRIC_REPRESENTATION_CONTEXT ( 3 ) GLOBAL_UNCERTAINTY_ASSIGNED_CONTEXT ( ( #213 ) ) GLOBAL_UNIT_ASSIGNED_CONTEXT ( ( #27, #161, #226 ) ) REPRESENTATION_CONTEXT ( 'NONE', 'WORKASPACE' ) );
#82 = CARTESIAN_POINT ( 'NONE',  ( -18.50000000000000000, 2.265596578422603396E-15, -6.999999999999998224 ) ) ;
#83 = DIRECTION ( 'NONE',  ( 1.000000000000000000, 0.000000000000000000, 0.000000000000000000 ) ) ;
#84 = CARTESIAN_POINT ( 'NONE',  ( 0.000000000000000000, 0.000000000000000000, 0.000000000000000000 ) ) ;
#85 = DIRECTION ( 'NONE',  ( -1.000000000000000000, 0.000000000000000000, 0.000000000000000000 ) ) ;
#86 = CARTESIAN_POINT ( 'NONE',  ( 0.000000000000000000, 0.000000000000000000, -7.500000000000000000 ) ) ;
#87 = FACE_OUTER_BOUND ( 'NONE', #248, .T. ) ;
#88 = DIRECTION ( 'NONE',  ( -0.000000000000000000, -0.000000000000000000, 1.000000000000000000 ) ) ;
#89 = DIRECTION ( 'NONE',  ( -0.000000000000000000, -0.000000000000000000, 1.000000000000000000 ) ) ;
#90 = APPLICATION_CONTEXT ( 'configuration controlled 3d designs of mechanical parts and assemblies' ) ;
#91 = CARTESIAN_POINT ( 'NONE',  ( 0.000000000000000000, 0.000000000000000000, -6.999999999999998224 ) ) ;
#92 = ORIENTED_EDGE ( 'NONE', *, *, #153, .T. ) ;
#93 = SECURITY_CLASSIFICATION_LEVEL ( 'unclassified' ) ;
#94 = ADVANCED_FACE ( 'NONE', ( #325 ), #208, .T. ) ;
#95 = CARTESIAN_POINT ( 'NONE',  ( 16.00000000000000000, 1.959434878635765131E-15, -7.500000000000000000 ) ) ;
#96 = APPROVAL_ROLE ( '' ) ;
#97 = APPLICATION_CONTEXT ( 'configuration controlled 3d designs of mechanical parts and assemblies' ) ;
#98 = ORIENTED_EDGE ( 'NONE', *, *, #283, .F. ) ;
#99 = ADVANCED_FACE ( 'NONE', ( #108 ), #323, .T. ) ;
#100 = ORIENTED_EDGE ( 'NONE', *, *, #137, .T. ) ;
#101 = DIRECTION ( 'NONE',  ( 1.000000000000000000, 0.000000000000000000, 0.000000000000000000 ) ) ;
#102 = CARTESIAN_POINT ( 'NONE',  ( -16.00000000000000000, 1.959434878635765131E-15, -40.00000000000000000 ) ) ;
#103 = DIRECTION ( 'NONE',  ( -0.000000000000000000, -0.000000000000000000, 1.000000000000000000 ) ) ;
#104 = ORIENTED_EDGE ( 'NONE', *, *, #195, .T. ) ;
#105 = CARTESIAN_POINT ( 'NONE',  ( 0.000000000000000000, 0.000000000000000000, 0.000000000000000000 ) ) ;
#106 = ORIENTED_EDGE ( 'NONE', *, *, #372, .F. ) ;
#107 = CC_DESIGN_PERSON_AND_ORGANIZATION_ASSIGNMENT ( #355, #78, ( #162 ) ) ;
#108 = FACE_OUTER_BOUND ( 'NONE', #339, .T. ) ;
#109 = DIRECTION ( 'NONE',  ( 1.000000000000000000, 0.000000000000000000, 0.000000000000000000 ) ) ;
#110 = DIRECTION ( 'NONE',  ( 0.000000000000000000, 0.000000000000000000, -1.000000000000000000 ) ) ;
#111 = DIRECTION ( 'NONE',  ( -0.000000000000000000, -0.000000000000000000, 1.000000000000000000 ) ) ;
#112 = DIRECTION ( 'NONE',  ( 0.000000000000000000, 0.000000000000000000, -1.000000000000000000 ) ) ;
#113 = CYLINDRICAL_SURFACE ( 'NONE', #351, 16.00000000000000000 ) ;
#114 = MECHANICAL_CONTEXT ( 'NONE', #97, 'mechanical' ) ;
#115 = CIRCLE ( 'NONE', #375, 16.00000000000000000 ) ;
#116 = LINE ( 'NONE', #121, #200 ) ;
#117 = CARTESIAN_POINT ( 'NONE',  ( -16.00000000000000000, 1.959434878635765131E-15, -7.500000000000000000 ) ) ;
#118 = APPLICATION_PROTOCOL_DEFINITION ( 'international standard', 'config_control_design', 1994, #90 ) ;
#119 = DIRECTION ( 'NONE',  ( -0.000000000000000000, -0.000000000000000000, 1.000000000000000000 ) ) ;
#120 = CC_DESIGN_SECURITY_CLASSIFICATION ( #6, ( #134 ) ) ;
#121 = CARTESIAN_POINT ( 'NONE',  ( -16.00000000000000000, 1.959434878635765131E-15, 0.000000000000000000 ) ) ;
#122 = CARTESIAN_POINT ( 'NONE',  ( 15.50000000000000000, 0.000000000000000000, -7.500000000000000000 ) ) ;
#123 = PRODUCT_DEFINITION ( 'NEZNÁMÝ', '', #134, #192 ) ;
#124 = CIRCLE ( 'NONE', #385, 0.5000000000000004441 ) ;
#125 = AXIS2_PLACEMENT_3D ( 'NONE', #47, #22, #148 ) ;
#126 = EDGE_LOOP ( 'NONE', ( #11, #387, #380, #308 ) ) ;
#127 = DIRECTION ( 'NONE',  ( -1.000000000000000000, 0.000000000000000000, 0.000000000000000000 ) ) ;
#128 = EDGE_CURVE ( 'NONE', #286, #34, #287, .T. ) ;
#129 = ORIENTED_EDGE ( 'NONE', *, *, #61, .T. ) ;
#130 = APPROVAL_DATE_TIME ( #282, #407 ) ;
#131 = CARTESIAN_POINT ( 'NONE',  ( 0.000000000000000000, 0.000000000000000000, -0.4999999999999935052 ) ) ;
#132 = DIRECTION ( 'NONE',  ( -0.000000000000000000, -0.000000000000000000, 1.000000000000000000 ) ) ;
#133 = CIRCLE ( 'NONE', #360, 16.00000000000000000 ) ;
#134 = PRODUCT_DEFINITION_FORMATION_WITH_SPECIFIED_SOURCE ( 'LIBOVOLNÝ', '', #162, .NOT_KNOWN. ) ;
#135 = COORDINATED_UNIVERSAL_TIME_OFFSET ( 1, 0, .AHEAD. ) ;
#136 = COORDINATED_UNIVERSAL_TIME_OFFSET ( 1, 0, .AHEAD. ) ;
#137 = EDGE_CURVE ( 'NONE', #43, #189, #274, .T. ) ;
#138 = DIRECTION ( 'NONE',  ( -0.7071067811865451302, 0.000000000000000000, -0.7071067811865500152 ) ) ;
#139 = VERTEX_POINT ( 'NONE', #394 ) ;
#140 = AXIS2_PLACEMENT_3D ( 'NONE', #178, #110, #179 ) ;
#141 = EDGE_LOOP ( 'NONE', ( #291, #1, #403, #197 ) ) ;
#142 = DIRECTION ( 'NONE',  ( -1.000000000000000000, 0.000000000000000000, 0.000000000000000000 ) ) ;
#143 = DIRECTION ( 'NONE',  ( 1.000000000000000000, 0.000000000000000000, 0.000000000000000000 ) ) ;
#144 = LOCAL_TIME ( 19, 55, 34.00000000000000000, #352 ) ;
#145 = CARTESIAN_POINT ( 'NONE',  ( 0.000000000000000000, 16.00000000000000000, -40.00000000000000000 ) ) ;
#146 = DIRECTION ( 'NONE',  ( -1.000000000000000000, 0.000000000000000000, 0.000000000000000000 ) ) ;
#147 = ADVANCED_FACE ( 'NONE', ( #391 ), #193, .F. ) ;
#148 = DIRECTION ( 'NONE',  ( 1.000000000000000000, 0.000000000000000000, 0.000000000000000000 ) ) ;
#149 = DIRECTION ( 'NONE',  ( -1.000000000000000000, 1.224646799147349509E-16, 0.000000000000000000 ) ) ;
#150 = DIRECTION ( 'NONE',  ( 1.000000000000000000, 0.000000000000000000, 0.000000000000000000 ) ) ;
#151 = DIRECTION ( 'NONE',  ( 1.000000000000000000, 0.000000000000000000, 0.000000000000000000 ) ) ;
#152 = DIRECTION ( 'NONE',  ( -0.000000000000000000, -0.000000000000000000, 1.000000000000000000 ) ) ;
#153 = EDGE_CURVE ( 'NONE', #252, #209, #369, .T. ) ;
#154 = LINE ( 'NONE', #335, #183 ) ;
#155 = TOROIDAL_SURFACE ( 'NONE', #383, 16.00000000000000000, 0.5000000000000000000 ) ;
#156 = CIRCLE ( 'NONE', #405, 18.50000000000000000 ) ;
#157 = DATE_AND_TIME ( #271, #184 ) ;
#158 = ORIENTED_EDGE ( 'NONE', *, *, #312, .F. ) ;
#159 = ORIENTED_EDGE ( 'NONE', *, *, #128, .T. ) ;
#160 = CONICAL_SURFACE ( 'NONE', #358, 18.00000000000001066, 0.7853981633974447263 ) ;
#161 =( NAMED_UNIT ( * ) PLANE_ANGLE_UNIT ( ) SI_UNIT ( $, .RADIAN. ) );
#162 = PRODUCT ( '909d', '909d', '', ( #114 ) ) ;
#163 = PLANE ( 'NONE',  #395 ) ;
#164 = ORIENTED_EDGE ( 'NONE', *, *, #227, .F. ) ;
#165 = COORDINATED_UNIVERSAL_TIME_OFFSET ( 1, 0, .AHEAD. ) ;
#166 = DIRECTION ( 'NONE',  ( -1.000000000000000000, -1.224646799147349509E-16, 0.000000000000000000 ) ) ;
#167 = FACE_OUTER_BOUND ( 'NONE', #196, .T. ) ;
#168 = ORIENTED_EDGE ( 'NONE', *, *, #357, .F. ) ;
#169 = CALENDAR_DATE ( 2024, 2, 1 ) ;
#170 = AXIS2_PLACEMENT_3D ( 'NONE', #79, #240, #46 ) ;
#171 = ORIENTED_EDGE ( 'NONE', *, *, #214, .F. ) ;
#172 = DIRECTION ( 'NONE',  ( -0.000000000000000000, -0.000000000000000000, 1.000000000000000000 ) ) ;
#173 = FACE_OUTER_BOUND ( 'NONE', #76, .T. ) ;
#174 = AXIS2_PLACEMENT_3D ( 'NONE', #84, #89, #186 ) ;
#175 = CIRCLE ( 'NONE', #203, 15.50000000000000000 ) ;
#176 = EDGE_CURVE ( 'NONE', #34, #201, #116, .T. ) ;
#177 = CARTESIAN_POINT ( 'NONE',  ( 0.000000000000000000, 0.000000000000000000, -0.4999999999999935052 ) ) ;
#178 = CARTESIAN_POINT ( 'NONE',  ( 0.000000000000000000, 18.50000000000000000, -6.999999999999999112 ) ) ;
#179 = DIRECTION ( 'NONE',  ( -1.000000000000000000, 0.000000000000000000, -0.000000000000000000 ) ) ;
#180 = CARTESIAN_POINT ( 'NONE',  ( 0.000000000000000000, 0.000000000000000000, 0.000000000000000000 ) ) ;
#181 = CARTESIAN_POINT ( 'NONE',  ( 18.50000000000000000, 0.000000000000000000, 0.000000000000000000 ) ) ;
#182 = DIRECTION ( 'NONE',  ( -0.000000000000000000, -0.000000000000000000, 1.000000000000000000 ) ) ;
#183 = VECTOR ( 'NONE', #58, 1000.000000000000000 ) ;
#184 = LOCAL_TIME ( 19, 55, 34.00000000000000000, #10 ) ;
#185 = ADVANCED_FACE ( 'NONE', ( #87 ), #246, .T. ) ;
#186 = DIRECTION ( 'NONE',  ( 1.000000000000000000, 0.000000000000000000, 0.000000000000000000 ) ) ;
#187 = CARTESIAN_POINT ( 'NONE',  ( 0.000000000000000000, 0.000000000000000000, -6.999999999999998224 ) ) ;
#188 = CARTESIAN_POINT ( 'NONE',  ( -16.00000000000000000, 1.959434878635765131E-15, -8.000000000000000000 ) ) ;
#189 = VERTEX_POINT ( 'NONE', #270 ) ;
#190 = CONICAL_SURFACE ( 'NONE', #330, 18.00000000000001066, 0.7853981633974447263 ) ;
#191 = CC_DESIGN_APPROVAL ( #51, ( #123 ) ) ;
#192 = DESIGN_CONTEXT ( 'detailed design', #90, 'design' ) ;
#193 = TOROIDAL_SURFACE ( 'NONE', #17, 16.00000000000000000, 0.5000000000000000000 ) ;
#194 = AXIS2_PLACEMENT_3D ( 'NONE', #105, #265, #364 ) ;
#195 = EDGE_CURVE ( 'NONE', #349, #139, #319, .T. ) ;
#196 = EDGE_LOOP ( 'NONE', ( #371, #292, #276, #234 ) ) ;
#197 = ORIENTED_EDGE ( 'NONE', *, *, #24, .T. ) ;
#198 = EDGE_CURVE ( 'NONE', #205, #139, #124, .T. ) ;
#199 = PERSON_AND_ORGANIZATION_ROLE ( 'creator' ) ;
#200 = VECTOR ( 'NONE', #329, 1000.000000000000000 ) ;
#201 = VERTEX_POINT ( 'NONE', #188 ) ;
#202 = DIRECTION ( 'NONE',  ( 1.000000000000000000, 0.000000000000000000, 0.000000000000000000 ) ) ;
#203 = AXIS2_PLACEMENT_3D ( 'NONE', #406, #253, #83 ) ;
#204 = ADVANCED_BREP_SHAPE_REPRESENTATION ( '909d', ( #207, #194 ), #81 ) ;
#205 = VERTEX_POINT ( 'NONE', #249 ) ;
#206 = LINE ( 'NONE', #313, #53 ) ;
#207 = MANIFOLD_SOLID_BREP ( 'Zkosení1', #73 ) ;
#208 = CYLINDRICAL_SURFACE ( 'NONE', #262, 18.50000000000000000 ) ;
#209 = VERTEX_POINT ( 'NONE', #28 ) ;
#210 = CYLINDRICAL_SURFACE ( 'NONE', #125, 16.00000000000000000 ) ;
#211 = CIRCLE ( 'NONE', #42, 18.50000000000000000 ) ;
#212 = APPROVAL_DATE_TIME ( #21, #51 ) ;
#213 = UNCERTAINTY_MEASURE_WITH_UNIT (LENGTH_MEASURE( 1.000000000000000082E-05 ), #27, 'distance_accuracy_value', 'NONE');
#214 = EDGE_CURVE ( 'NONE', #277, #43, #154, .T. ) ;
#215 = CARTESIAN_POINT ( 'NONE',  ( 0.000000000000000000, 0.000000000000000000, -40.00000000000000000 ) ) ;
#216 = DIRECTION ( 'NONE',  ( -0.000000000000000000, -1.000000000000000000, -0.000000000000000000 ) ) ;
#217 = AXIS2_PLACEMENT_3D ( 'NONE', #45, #111, #202 ) ;
#218 = CIRCLE ( 'NONE', #258, 18.50000000000000000 ) ;
#219 = DIRECTION ( 'NONE',  ( 1.000000000000000000, 0.000000000000000000, 0.000000000000000000 ) ) ;
#220 = EDGE_CURVE ( 'NONE', #348, #205, #404, .T. ) ;
#221 = CARTESIAN_POINT ( 'NONE',  ( 0.000000000000000000, 0.000000000000000000, -6.999999999999999112 ) ) ;
#222 = CARTESIAN_POINT ( 'NONE',  ( 16.00000000000000000, 0.000000000000000000, -8.000000000000000000 ) ) ;
#223 = AXIS2_PLACEMENT_3D ( 'NONE', #86, #272, #55 ) ;
#224 = DIRECTION ( 'NONE',  ( -0.000000000000000000, -0.000000000000000000, 1.000000000000000000 ) ) ;
#225 = DATE_TIME_ROLE ( 'classification_date' ) ;
#226 =( NAMED_UNIT ( * ) SI_UNIT ( $, .STERADIAN. ) SOLID_ANGLE_UNIT ( ) );
#227 = EDGE_CURVE ( 'NONE', #201, #353, #133, .T. ) ;
#228 = EDGE_LOOP ( 'NONE', ( #44, #279, #382, #256 ) ) ;
#229 = AXIS2_PLACEMENT_3D ( 'NONE', #177, #359, #150 ) ;
#230 = LOCAL_TIME ( 19, 55, 34.00000000000000000, #136 ) ;
#231 = DIRECTION ( 'NONE',  ( 0.7071067811865451302, 8.659560562354904508E-17, -0.7071067811865500152 ) ) ;
#232 = DIRECTION ( 'NONE',  ( 0.000000000000000000, -1.000000000000000000, 0.000000000000000000 ) ) ;
#233 = EDGE_LOOP ( 'NONE', ( #159, #40, #32, #98 ) ) ;
#234 = ORIENTED_EDGE ( 'NONE', *, *, #61, .F. ) ;
#235 = EDGE_CURVE ( 'NONE', #209, #189, #206, .T. ) ;
#236 = DIRECTION ( 'NONE',  ( 1.000000000000000000, 0.000000000000000000, 0.000000000000000000 ) ) ;
#237 = EDGE_LOOP ( 'NONE', ( #324, #311, #60, #164 ) ) ;
#238 = AXIS2_PLACEMENT_3D ( 'NONE', #95, #63, #166 ) ;
#239 = DIRECTION ( 'NONE',  ( 0.000000000000000000, 0.000000000000000000, -1.000000000000000000 ) ) ;
#240 = DIRECTION ( 'NONE',  ( -0.000000000000000000, -0.000000000000000000, 1.000000000000000000 ) ) ;
#241 = CC_DESIGN_APPROVAL ( #407, ( #6 ) ) ;
#242 = APPLICATION_PROTOCOL_DEFINITION ( 'international standard', 'config_control_design', 1994, #97 ) ;
#243 = CC_DESIGN_PERSON_AND_ORGANIZATION_ASSIGNMENT ( #337, #347, ( #6 ) ) ;
#244 = DIRECTION ( 'NONE',  ( 0.000000000000000000, 0.000000000000000000, -1.000000000000000000 ) ) ;
#245 = LINE ( 'NONE', #50, #66 ) ;
#246 = CYLINDRICAL_SURFACE ( 'NONE', #174, 18.50000000000000000 ) ;
#247 = AXIS2_PLACEMENT_3D ( 'NONE', #65, #15, #142 ) ;
#248 = EDGE_LOOP ( 'NONE', ( #171, #41, #317, #334 ) ) ;
#249 = CARTESIAN_POINT ( 'NONE',  ( -15.50000000000000000, 1.928818708657081344E-15, -7.500000000000000000 ) ) ;
#250 = PERSON_AND_ORGANIZATION_ROLE ( 'design_supplier' ) ;
#251 = ORGANIZATION ( 'NEURÈENÝ', 'NEURÈENÝ', '' ) ;
#252 = VERTEX_POINT ( 'NONE', #38 ) ;
#253 = DIRECTION ( 'NONE',  ( -0.000000000000000000, -0.000000000000000000, 1.000000000000000000 ) ) ;
#254 = APPROVAL ( #328, 'NEURÈENÝ' ) ;
#255 = ORIENTED_EDGE ( 'NONE', *, *, #56, .F. ) ;
#256 = ORIENTED_EDGE ( 'NONE', *, *, #198, .F. ) ;
#257 = CIRCLE ( 'NONE', #303, 16.00000000000000000 ) ;
#258 = AXIS2_PLACEMENT_3D ( 'NONE', #187, #398, #151 ) ;
#259 = ADVANCED_FACE ( 'NONE', ( #167 ), #190, .T. ) ;
#260 = FACE_BOUND ( 'NONE', #64, .T. ) ;
#261 = DATE_AND_TIME ( #70, #230 ) ;
#262 = AXIS2_PLACEMENT_3D ( 'NONE', #384, #266, #296 ) ;
#263 = EDGE_CURVE ( 'NONE', #139, #349, #5, .T. ) ;
#264 = APPROVAL_STATUS ( 'not_yet_approved' ) ;
#265 = DIRECTION ( 'NONE',  ( 0.000000000000000000, 0.000000000000000000, 1.000000000000000000 ) ) ;
#266 = DIRECTION ( 'NONE',  ( -0.000000000000000000, -0.000000000000000000, 1.000000000000000000 ) ) ;
#267 = EDGE_CURVE ( 'NONE', #209, #252, #59, .T. ) ;
#268 = TOROIDAL_SURFACE ( 'NONE', #18, 16.00000000000000000, 0.5000000000000000000 ) ;
#269 = LINE ( 'NONE', #16, #80 ) ;
#270 = CARTESIAN_POINT ( 'NONE',  ( 18.50000000000000000, 0.000000000000000000, -0.4999999999999935052 ) ) ;
#271 = CALENDAR_DATE ( 2024, 2, 1 ) ;
#272 = DIRECTION ( 'NONE',  ( 0.000000000000000000, 0.000000000000000000, -1.000000000000000000 ) ) ;
#273 = APPROVAL_DATE_TIME ( #344, #254 ) ;
#274 = CIRCLE ( 'NONE', #229, 18.50000000000000000 ) ;
#275 = AXIS2_PLACEMENT_3D ( 'NONE', #379, #75, #67 ) ;
#276 = ORIENTED_EDGE ( 'NONE', *, *, #137, .F. ) ;
#277 = VERTEX_POINT ( 'NONE', #82 ) ;
#278 = EDGE_CURVE ( 'NONE', #205, #201, #36, .T. ) ;
#279 = ORIENTED_EDGE ( 'NONE', *, *, #357, .T. ) ;
#280 = CALENDAR_DATE ( 2024, 2, 1 ) ;
#281 = EDGE_LOOP ( 'NONE', ( #168, #68, #322, #363 ) ) ;
#282 = DATE_AND_TIME ( #169, #54 ) ;
#283 = EDGE_CURVE ( 'NONE', #286, #353, #245, .T. ) ;
#284 = DIRECTION ( 'NONE',  ( 1.000000000000000000, 0.000000000000000000, 0.000000000000000000 ) ) ;
#285 = ORIENTED_EDGE ( 'NONE', *, *, #128, .F. ) ;
#286 = VERTEX_POINT ( 'NONE', #23 ) ;
#287 = CIRCLE ( 'NONE', #170, 16.00000000000000000 ) ;
#288 = CARTESIAN_POINT ( 'NONE',  ( 0.000000000000000000, 0.000000000000000000, 0.000000000000000000 ) ) ;
#289 = SHAPE_DEFINITION_REPRESENTATION ( #12, #204 ) ;
#290 = AXIS2_PLACEMENT_3D ( 'NONE', #117, #301, #149 ) ;
#291 = ORIENTED_EDGE ( 'NONE', *, *, #278, .F. ) ;
#292 = ORIENTED_EDGE ( 'NONE', *, *, #235, .T. ) ;
#293 = ORIENTED_EDGE ( 'NONE', *, *, #153, .F. ) ;
#294 = ADVANCED_FACE ( 'NONE', ( #365 ), #31, .F. ) ;
#295 = DIRECTION ( 'NONE',  ( -0.000000000000000000, -0.000000000000000000, 1.000000000000000000 ) ) ;
#296 = DIRECTION ( 'NONE',  ( 1.000000000000000000, 0.000000000000000000, 0.000000000000000000 ) ) ;
#297 = PLANE ( 'NONE',  #140 ) ;
#298 = LOCAL_TIME ( 19, 55, 34.00000000000000000, #135 ) ;
#299 = CC_DESIGN_DATE_AND_TIME_ASSIGNMENT ( #261, #225, ( #6 ) ) ;
#300 = CARTESIAN_POINT ( 'NONE',  ( -18.50000000000000000, 2.265596578422603396E-15, -0.4999999999999935052 ) ) ;
#301 = DIRECTION ( 'NONE',  ( 1.224646799147353207E-16, 1.000000000000000000, 0.000000000000000000 ) ) ;
#302 = CARTESIAN_POINT ( 'NONE',  ( 0.000000000000000000, 0.000000000000000000, -7.500000000000000000 ) ) ;
#303 = AXIS2_PLACEMENT_3D ( 'NONE', #39, #103, #236 ) ;
#304 = PERSON_AND_ORGANIZATION ( #327, #251 ) ;
#305 = CARTESIAN_POINT ( 'NONE',  ( 0.000000000000000000, 0.000000000000000000, -7.500000000000000000 ) ) ;
#306 = AXIS2_PLACEMENT_3D ( 'NONE', #180, #172, #356 ) ;
#307 = APPROVAL_PERSON_ORGANIZATION ( #19, #51, #326 ) ;
#308 = ORIENTED_EDGE ( 'NONE', *, *, #8, .F. ) ;
#309 = EDGE_CURVE ( 'NONE', #277, #343, #218, .T. ) ;
#310 = FACE_OUTER_BOUND ( 'NONE', #346, .T. ) ;
#311 = ORIENTED_EDGE ( 'NONE', *, *, #312, .T. ) ;
#312 = EDGE_CURVE ( 'NONE', #34, #286, #115, .T. ) ;
#313 = CARTESIAN_POINT ( 'NONE',  ( 18.00000000000001066, 2.204364238465237006E-15, 0.000000000000000000 ) ) ;
#314 = APPROVAL_ROLE ( '' ) ;
#315 = FACE_OUTER_BOUND ( 'NONE', #228, .T. ) ;
#316 = CARTESIAN_POINT ( 'NONE',  ( 16.00000000000000000, 0.000000000000000000, -7.500000000000000000 ) ) ;
#317 = ORIENTED_EDGE ( 'NONE', *, *, #56, .T. ) ;
#318 = CIRCLE ( 'NONE', #33, 0.5000000000000004441 ) ;
#319 = CIRCLE ( 'NONE', #74, 16.00000000000000000 ) ;
#320 = CARTESIAN_POINT ( 'NONE',  ( 0.000000000000000000, 0.000000000000000000, -8.000000000000000000 ) ) ;
#321 = ADVANCED_FACE ( 'NONE', ( #48 ), #113, .T. ) ;
#322 = ORIENTED_EDGE ( 'NONE', *, *, #198, .T. ) ;
#323 = PLANE ( 'NONE',  #4 ) ;
#324 = ORIENTED_EDGE ( 'NONE', *, *, #176, .F. ) ;
#325 = FACE_OUTER_BOUND ( 'NONE', #14, .T. ) ;
#326 = APPROVAL_ROLE ( '' ) ;
#327 = PERSON ( 'NEURÈENÝ', 'NEURÈENÝ', 'NEURÈENÝ', ('NEURÈENÝ'), ('NEURÈENÝ'), ('NEURÈENÝ') ) ;
#328 = APPROVAL_STATUS ( 'not_yet_approved' ) ;
#329 = DIRECTION ( 'NONE',  ( -0.000000000000000000, -0.000000000000000000, 1.000000000000000000 ) ) ;
#330 = AXIS2_PLACEMENT_3D ( 'NONE', #288, #354, #127 ) ;
#331 = DIRECTION ( 'NONE',  ( 0.000000000000000000, 0.000000000000000000, -1.000000000000000000 ) ) ;
#332 = FACE_OUTER_BOUND ( 'NONE', #233, .T. ) ;
#333 = EDGE_CURVE ( 'NONE', #205, #348, #175, .T. ) ;
#334 = ORIENTED_EDGE ( 'NONE', *, *, #372, .T. ) ;
#335 = CARTESIAN_POINT ( 'NONE',  ( -18.50000000000000000, 2.265596578422603396E-15, 0.000000000000000000 ) ) ;
#336 = ORIENTED_EDGE ( 'NONE', *, *, #342, .T. ) ;
#337 = PERSON_AND_ORGANIZATION ( #327, #251 ) ;
#338 = ADVANCED_FACE ( 'NONE', ( #332 ), #210, .T. ) ;
#339 = EDGE_LOOP ( 'NONE', ( #285, #158 ) ) ;
#340 = DIRECTION ( 'NONE',  ( 1.000000000000000000, 0.000000000000000000, 0.000000000000000000 ) ) ;
#341 = EDGE_LOOP ( 'NONE', ( #378, #37 ) ) ;
#342 = EDGE_CURVE ( 'NONE', #343, #277, #156, .T. ) ;
#343 = VERTEX_POINT ( 'NONE', #30 ) ;
#344 = DATE_AND_TIME ( #280, #298 ) ;
#345 = APPROVAL_PERSON_ORGANIZATION ( #9, #407, #314 ) ;
#346 = EDGE_LOOP ( 'NONE', ( #92, #374 ) ) ;
#347 = PERSON_AND_ORGANIZATION_ROLE ( 'classification_officer' ) ;
#348 = VERTEX_POINT ( 'NONE', #122 ) ;
#349 = VERTEX_POINT ( 'NONE', #62 ) ;
#350 = CC_DESIGN_DATE_AND_TIME_ASSIGNMENT ( #157, #399, ( #123 ) ) ;
#351 = AXIS2_PLACEMENT_3D ( 'NONE', #362, #152, #402 ) ;
#352 = COORDINATED_UNIVERSAL_TIME_OFFSET ( 1, 0, .AHEAD. ) ;
#353 = VERTEX_POINT ( 'NONE', #222 ) ;
#354 = DIRECTION ( 'NONE',  ( 0.000000000000000000, 0.000000000000000000, -1.000000000000000000 ) ) ;
#355 = PERSON_AND_ORGANIZATION ( #327, #251 ) ;
#356 = DIRECTION ( 'NONE',  ( 1.000000000000000000, 0.000000000000000000, 0.000000000000000000 ) ) ;
#357 = EDGE_CURVE ( 'NONE', #348, #349, #367, .T. ) ;
#358 = AXIS2_PLACEMENT_3D ( 'NONE', #388, #112, #146 ) ;
#359 = DIRECTION ( 'NONE',  ( 0.000000000000000000, 0.000000000000000000, -1.000000000000000000 ) ) ;
#360 = AXIS2_PLACEMENT_3D ( 'NONE', #320, #386, #109 ) ;
#361 = CC_DESIGN_APPROVAL ( #254, ( #134 ) ) ;
#362 = CARTESIAN_POINT ( 'NONE',  ( 0.000000000000000000, 0.000000000000000000, 0.000000000000000000 ) ) ;
#363 = ORIENTED_EDGE ( 'NONE', *, *, #195, .F. ) ;
#364 = DIRECTION ( 'NONE',  ( 1.000000000000000000, 0.000000000000000000, 0.000000000000000000 ) ) ;
#365 = FACE_OUTER_BOUND ( 'NONE', #281, .T. ) ;
#366 = ADVANCED_FACE ( 'NONE', ( #310 ), #163, .T. ) ;
#367 = CIRCLE ( 'NONE', #238, 0.5000000000000004441 ) ;
#368 = PERSON_AND_ORGANIZATION ( #327, #251 ) ;
#369 = CIRCLE ( 'NONE', #306, 18.00000000000001066 ) ;
#370 = APPROVAL_PERSON_ORGANIZATION ( #368, #254, #96 ) ;
#371 = ORIENTED_EDGE ( 'NONE', *, *, #267, .F. ) ;
#372 = EDGE_CURVE ( 'NONE', #189, #43, #211, .T. ) ;
#373 = VECTOR ( 'NONE', #20, 1000.000000000000000 ) ;
#374 = ORIENTED_EDGE ( 'NONE', *, *, #267, .T. ) ;
#375 = AXIS2_PLACEMENT_3D ( 'NONE', #215, #88, #219 ) ;
#376 = DIRECTION ( 'NONE',  ( 0.000000000000000000, 0.000000000000000000, -1.000000000000000000 ) ) ;
#377 = DIRECTION ( 'NONE',  ( 1.000000000000000000, 0.000000000000000000, 0.000000000000000000 ) ) ;
#378 = ORIENTED_EDGE ( 'NONE', *, *, #342, .F. ) ;
#379 = CARTESIAN_POINT ( 'NONE',  ( 0.000000000000000000, 0.000000000000000000, -7.500000000000000000 ) ) ;
#380 = ORIENTED_EDGE ( 'NONE', *, *, #227, .T. ) ;
#381 = CC_DESIGN_PERSON_AND_ORGANIZATION_ASSIGNMENT ( #26, #250, ( #134 ) ) ;
#382 = ORIENTED_EDGE ( 'NONE', *, *, #263, .F. ) ;
#383 = AXIS2_PLACEMENT_3D ( 'NONE', #3, #132, #377 ) ;
#384 = CARTESIAN_POINT ( 'NONE',  ( 0.000000000000000000, 0.000000000000000000, 0.000000000000000000 ) ) ;
#385 = AXIS2_PLACEMENT_3D ( 'NONE', #57, #216, #331 ) ;
#386 = DIRECTION ( 'NONE',  ( -0.000000000000000000, -0.000000000000000000, 1.000000000000000000 ) ) ;
#387 = ORIENTED_EDGE ( 'NONE', *, *, #278, .T. ) ;
#388 = CARTESIAN_POINT ( 'NONE',  ( 0.000000000000000000, 0.000000000000000000, 0.000000000000000000 ) ) ;
#389 = ADVANCED_FACE ( 'NONE', ( #315 ), #268, .F. ) ;
#390 = CALENDAR_DATE ( 2024, 2, 1 ) ;
#391 = FACE_OUTER_BOUND ( 'NONE', #126, .T. ) ;
#392 = DIRECTION ( 'NONE',  ( -1.000000000000000000, 0.000000000000000000, -0.000000000000000000 ) ) ;
#393 = ORIENTED_EDGE ( 'NONE', *, *, #214, .T. ) ;
#394 = CARTESIAN_POINT ( 'NONE',  ( -16.00000000000000000, 0.000000000000000000, -6.999999999999999112 ) ) ;
#395 = AXIS2_PLACEMENT_3D ( 'NONE', #409, #2, #284 ) ;
#396 = CC_DESIGN_PERSON_AND_ORGANIZATION_ASSIGNMENT ( #49, #199, ( #123 ) ) ;
#397 = DIRECTION ( 'NONE',  ( -1.000000000000000000, 0.000000000000000000, 0.000000000000000000 ) ) ;
#398 = DIRECTION ( 'NONE',  ( -0.000000000000000000, -0.000000000000000000, 1.000000000000000000 ) ) ;
#399 = DATE_TIME_ROLE ( 'creation_date' ) ;
#400 = PRODUCT_RELATED_PRODUCT_CATEGORY ( 'detail', '', ( #162 ) ) ;
#401 = PERSON_AND_ORGANIZATION_ROLE ( 'creator' ) ;
#402 = DIRECTION ( 'NONE',  ( 1.000000000000000000, 0.000000000000000000, 0.000000000000000000 ) ) ;
#403 = ORIENTED_EDGE ( 'NONE', *, *, #8, .T. ) ;
#404 = CIRCLE ( 'NONE', #275, 15.50000000000000000 ) ;
#405 = AXIS2_PLACEMENT_3D ( 'NONE', #91, #224, #340 ) ;
#406 = CARTESIAN_POINT ( 'NONE',  ( 0.000000000000000000, 0.000000000000000000, -7.500000000000000000 ) ) ;
#407 = APPROVAL ( #408, 'NEURÈENÝ' ) ;
#408 = APPROVAL_STATUS ( 'not_yet_approved' ) ;
#409 = CARTESIAN_POINT ( 'NONE',  ( 0.000000000000000000, 0.000000000000000000, 0.000000000000000000 ) ) ;
ENDSEC;
END-ISO-10303-21;
