ISO-10303-21;
HEADER;
FILE_DESCRIPTION (( 'STEP AP203' ),
    '1' );
FILE_NAME ('73db.STEP',
    '2024-01-02T18:52:28',
    ( '' ),
    ( '' ),
    'SwSTEP 2.0',
    'SolidWorks 2019',
    '' );
FILE_SCHEMA (( 'CONFIG_CONTROL_DESIGN' ));
ENDSEC;

DATA;
#1 = APPLICATION_PROTOCOL_DEFINITION ( 'international standard', 'config_control_design', 1994, #268 ) ;
#2 = FACE_OUTER_BOUND ( 'NONE', #54, .T. ) ;
#3 = DIRECTION ( 'NONE',  ( -0.000000000000000000, -0.000000000000000000, 1.000000000000000000 ) ) ;
#4 = SECURITY_CLASSIFICATION_LEVEL ( 'unclassified' ) ;
#5 = DIRECTION ( 'NONE',  ( 1.000000000000000000, 0.000000000000000000, 0.000000000000000000 ) ) ;
#6 = CARTESIAN_POINT ( 'NONE',  ( 0.000000000000000000, 0.000000000000000000, 0.000000000000000000 ) ) ;
#7 = VECTOR ( 'NONE', #185, 1000.000000000000000 ) ;
#8 = APPROVAL_PERSON_ORGANIZATION ( #250, #339, #275 ) ;
#9 = CARTESIAN_POINT ( 'NONE',  ( 0.000000000000000000, 0.000000000000000000, -100.0000000000000000 ) ) ;
#10 = VERTEX_POINT ( 'NONE', #80 ) ;
#11 = AXIS2_PLACEMENT_3D ( 'NONE', #31, #193, #244 ) ;
#12 = EDGE_CURVE ( 'NONE', #141, #269, #93, .T. ) ;
#13 = EDGE_CURVE ( 'NONE', #387, #398, #167, .T. ) ;
#14 = EDGE_CURVE ( 'NONE', #144, #83, #216, .T. ) ;
#15 = ORIENTED_EDGE ( 'NONE', *, *, #133, .F. ) ;
#16 = PERSON_AND_ORGANIZATION_ROLE ( 'creator' ) ;
#17 = FACE_OUTER_BOUND ( 'NONE', #86, .T. ) ;
#18 = AXIS2_PLACEMENT_3D ( 'NONE', #60, #182, #109 ) ;
#19 = LOCAL_TIME ( 19, 52, 28.00000000000000000, #66 ) ;
#20 = ORIENTED_EDGE ( 'NONE', *, *, #119, .T. ) ;
#21 = CONICAL_SURFACE ( 'NONE', #77, 18.00000000000002842, 0.7853981633974380649 ) ;
#22 = CIRCLE ( 'NONE', #104, 16.00000000000000000 ) ;
#23 = DIRECTION ( 'NONE',  ( -0.000000000000000000, -0.000000000000000000, 1.000000000000000000 ) ) ;
#24 = DIRECTION ( 'NONE',  ( 0.000000000000000000, 0.000000000000000000, -1.000000000000000000 ) ) ;
#25 = CARTESIAN_POINT ( 'NONE',  ( 0.000000000000000000, 0.000000000000000000, 0.000000000000000000 ) ) ;
#26 = CALENDAR_DATE ( 2024, 2, 1 ) ;
#27 = CYLINDRICAL_SURFACE ( 'NONE', #336, 16.00000000000000000 ) ;
#28 = FACE_OUTER_BOUND ( 'NONE', #114, .T. ) ;
#29 = CC_DESIGN_PERSON_AND_ORGANIZATION_ASSIGNMENT ( #286, #16, ( #154 ) ) ;
#30 = ORIENTED_EDGE ( 'NONE', *, *, #329, .T. ) ;
#31 = CARTESIAN_POINT ( 'NONE',  ( 0.000000000000000000, 0.000000000000000000, -7.500000000000000000 ) ) ;
#32 = APPROVAL_ROLE ( '' ) ;
#33 = DIRECTION ( 'NONE',  ( 0.000000000000000000, 0.000000000000000000, -1.000000000000000000 ) ) ;
#34 = DATE_AND_TIME ( #26, #347 ) ;
#35 = PRODUCT_RELATED_PRODUCT_CATEGORY ( 'detail', '', ( #242 ) ) ;
#36 = DIRECTION ( 'NONE',  ( -0.000000000000000000, -0.000000000000000000, 1.000000000000000000 ) ) ;
#37 = CARTESIAN_POINT ( 'NONE',  ( 0.000000000000000000, 0.000000000000000000, -0.4999999999999796274 ) ) ;
#38 = DIRECTION ( 'NONE',  ( 1.000000000000000000, 0.000000000000000000, 0.000000000000000000 ) ) ;
#39 = EDGE_LOOP ( 'NONE', ( #20, #366 ) ) ;
#40 = CARTESIAN_POINT ( 'NONE',  ( 0.000000000000000000, 0.000000000000000000, -6.999999999999998224 ) ) ;
#41 = PRODUCT_DEFINITION_FORMATION_WITH_SPECIFIED_SOURCE ( 'LIBOVOLNÝ', '', #242, .NOT_KNOWN. ) ;
#42 = ADVANCED_FACE ( 'NONE', ( #49 ), #161, .T. ) ;
#43 = LINE ( 'NONE', #171, #153 ) ;
#44 = APPROVAL_DATE_TIME ( #143, #178 ) ;
#45 = CIRCLE ( 'NONE', #368, 16.00000000000000000 ) ;
#46 = ORIENTED_EDGE ( 'NONE', *, *, #229, .F. ) ;
#47 = EDGE_CURVE ( 'NONE', #10, #269, #379, .T. ) ;
#48 = ORIENTED_EDGE ( 'NONE', *, *, #300, .F. ) ;
#49 = FACE_OUTER_BOUND ( 'NONE', #231, .T. ) ;
#50 = DIRECTION ( 'NONE',  ( 1.000000000000000000, 0.000000000000000000, 0.000000000000000000 ) ) ;
#51 = VERTEX_POINT ( 'NONE', #62 ) ;
#52 = AXIS2_PLACEMENT_3D ( 'NONE', #296, #232, #270 ) ;
#53 = CC_DESIGN_PERSON_AND_ORGANIZATION_ASSIGNMENT ( #92, #408, ( #41 ) ) ;
#54 = EDGE_LOOP ( 'NONE', ( #404, #295 ) ) ;
#55 = CC_DESIGN_APPROVAL ( #339, ( #41 ) ) ;
#56 = EDGE_LOOP ( 'NONE', ( #30, #82, #79, #317 ) ) ;
#57 = DIRECTION ( 'NONE',  ( -0.000000000000000000, -0.000000000000000000, 1.000000000000000000 ) ) ;
#58 = EDGE_CURVE ( 'NONE', #51, #387, #174, .T. ) ;
#59 = DIRECTION ( 'NONE',  ( -0.000000000000000000, -0.000000000000000000, 1.000000000000000000 ) ) ;
#60 = CARTESIAN_POINT ( 'NONE',  ( 0.000000000000000000, 0.000000000000000000, -0.4999999999999796274 ) ) ;
#61 = CARTESIAN_POINT ( 'NONE',  ( 0.000000000000000000, 0.000000000000000000, -7.500000000000000000 ) ) ;
#62 = CARTESIAN_POINT ( 'NONE',  ( 15.50000000000000000, 0.000000000000000000, -7.500000000000000000 ) ) ;
#63 = CC_DESIGN_DATE_AND_TIME_ASSIGNMENT ( #128, #342, ( #154 ) ) ;
#64 = AXIS2_PLACEMENT_3D ( 'NONE', #95, #24, #124 ) ;
#65 = CARTESIAN_POINT ( 'NONE',  ( -18.50000000000000000, 2.265596578422603396E-15, -0.4999999999999796274 ) ) ;
#66 = COORDINATED_UNIVERSAL_TIME_OFFSET ( 1, 0, .AHEAD. ) ;
#67 = ADVANCED_FACE ( 'NONE', ( #218 ), #27, .T. ) ;
#68 = CC_DESIGN_APPROVAL ( #178, ( #154 ) ) ;
#69 = EDGE_CURVE ( 'NONE', #83, #144, #73, .T. ) ;
#70 = FACE_OUTER_BOUND ( 'NONE', #359, .T. ) ;
#71 = DIRECTION ( 'NONE',  ( 1.224646799147353207E-16, 1.000000000000000000, 0.000000000000000000 ) ) ;
#72 = ORIENTED_EDGE ( 'NONE', *, *, #204, .F. ) ;
#73 = CIRCLE ( 'NONE', #103, 18.50000000000000000 ) ;
#74 = VECTOR ( 'NONE', #261, 1000.000000000000000 ) ;
#75 = ORIENTED_EDGE ( 'NONE', *, *, #181, .F. ) ;
#76 = FACE_OUTER_BOUND ( 'NONE', #237, .T. ) ;
#77 = AXIS2_PLACEMENT_3D ( 'NONE', #294, #176, #208 ) ;
#78 = CIRCLE ( 'NONE', #265, 16.00000000000000000 ) ;
#79 = ORIENTED_EDGE ( 'NONE', *, *, #310, .F. ) ;
#80 = CARTESIAN_POINT ( 'NONE',  ( 16.00000000000000000, 0.000000000000000000, -100.0000000000000000 ) ) ;
#81 = DIRECTION ( 'NONE',  ( -0.000000000000000000, -0.000000000000000000, 1.000000000000000000 ) ) ;
#82 = ORIENTED_EDGE ( 'NONE', *, *, #354, .T. ) ;
#83 = VERTEX_POINT ( 'NONE', #65 ) ;
#84 = CIRCLE ( 'NONE', #142, 16.00000000000000000 ) ;
#85 = CARTESIAN_POINT ( 'NONE',  ( 18.00000000000002842, 2.234980408443921581E-15, 0.000000000000000000 ) ) ;
#86 = EDGE_LOOP ( 'NONE', ( #206, #283, #323, #149 ) ) ;
#87 = EDGE_CURVE ( 'NONE', #312, #238, #222, .T. ) ;
#88 = DIRECTION ( 'NONE',  ( -0.000000000000000000, -1.000000000000000000, -0.000000000000000000 ) ) ;
#89 = DIRECTION ( 'NONE',  ( 1.000000000000000000, 0.000000000000000000, 0.000000000000000000 ) ) ;
#90 = LINE ( 'NONE', #214, #152 ) ;
#91 = MANIFOLD_SOLID_BREP ( 'Zkosení1', #315 ) ;
#92 = PERSON_AND_ORGANIZATION ( #264, #94 ) ;
#93 = CIRCLE ( 'NONE', #52, 16.00000000000000000 ) ;
#94 = ORGANIZATION ( 'NEURÈENÝ', 'NEURÈENÝ', '' ) ;
#95 = CARTESIAN_POINT ( 'NONE',  ( 0.000000000000000000, 0.000000000000000000, 0.000000000000000000 ) ) ;
#96 = CALENDAR_DATE ( 2024, 2, 1 ) ;
#97 = APPROVAL_STATUS ( 'not_yet_approved' ) ;
#98 = APPROVAL_ROLE ( '' ) ;
#99 = CARTESIAN_POINT ( 'NONE',  ( 0.000000000000000000, 0.000000000000000000, 0.000000000000000000 ) ) ;
#100 = CIRCLE ( 'NONE', #320, 0.5000000000000004441 ) ;
#101 = ORIENTED_EDGE ( 'NONE', *, *, #225, .F. ) ;
#102 = DIRECTION ( 'NONE',  ( 0.000000000000000000, 0.000000000000000000, -1.000000000000000000 ) ) ;
#103 = AXIS2_PLACEMENT_3D ( 'NONE', #37, #280, #5 ) ;
#104 = AXIS2_PLACEMENT_3D ( 'NONE', #127, #247, #304 ) ;
#105 = APPROVAL ( #220, 'NEURÈENÝ' ) ;
#106 = ORIENTED_EDGE ( 'NONE', *, *, #181, .T. ) ;
#107 = ADVANCED_FACE ( 'NONE', ( #337 ), #279, .T. ) ;
#108 = AXIS2_PLACEMENT_3D ( 'NONE', #236, #187, #89 ) ;
#109 = DIRECTION ( 'NONE',  ( 1.000000000000000000, 0.000000000000000000, 0.000000000000000000 ) ) ;
#110 = DIRECTION ( 'NONE',  ( 1.000000000000000000, 0.000000000000000000, 0.000000000000000000 ) ) ;
#111 =( GEOMETRIC_REPRESENTATION_CONTEXT ( 3 ) GLOBAL_UNCERTAINTY_ASSIGNED_CONTEXT ( ( #375 ) ) GLOBAL_UNIT_ASSIGNED_CONTEXT ( ( #325, #210, #298 ) ) REPRESENTATION_CONTEXT ( 'NONE', 'WORKASPACE' ) );
#112 = ORIENTED_EDGE ( 'NONE', *, *, #140, .T. ) ;
#113 = FACE_BOUND ( 'NONE', #39, .T. ) ;
#114 = EDGE_LOOP ( 'NONE', ( #388, #266, #330, #72 ) ) ;
#115 = PLANE ( 'NONE',  #108 ) ;
#116 = DIRECTION ( 'NONE',  ( 1.000000000000000000, 0.000000000000000000, 0.000000000000000000 ) ) ;
#117 = ORIENTED_EDGE ( 'NONE', *, *, #14, .F. ) ;
#118 = CARTESIAN_POINT ( 'NONE',  ( -16.00000000000000000, 0.000000000000000000, -7.500000000000000000 ) ) ;
#119 = EDGE_CURVE ( 'NONE', #398, #175, #45, .T. ) ;
#120 = DIRECTION ( 'NONE',  ( -0.7071067811865402453, 0.000000000000000000, -0.7071067811865549002 ) ) ;
#121 = LOCAL_TIME ( 19, 52, 28.00000000000000000, #380 ) ;
#122 = VERTEX_POINT ( 'NONE', #385 ) ;
#123 = DIRECTION ( 'NONE',  ( -1.224646799147353207E-16, 1.000000000000000000, 0.000000000000000000 ) ) ;
#124 = DIRECTION ( 'NONE',  ( -1.000000000000000000, 0.000000000000000000, 0.000000000000000000 ) ) ;
#125 = CARTESIAN_POINT ( 'NONE',  ( 0.000000000000000000, 0.000000000000000000, 0.000000000000000000 ) ) ;
#126 = DIRECTION ( 'NONE',  ( -0.000000000000000000, -0.000000000000000000, 1.000000000000000000 ) ) ;
#127 = CARTESIAN_POINT ( 'NONE',  ( 0.000000000000000000, 0.000000000000000000, -8.000000000000000000 ) ) ;
#128 = DATE_AND_TIME ( #163, #293 ) ;
#129 = SECURITY_CLASSIFICATION ( '', '', #4 ) ;
#130 = CARTESIAN_POINT ( 'NONE',  ( 0.000000000000000000, 0.000000000000000000, 0.000000000000000000 ) ) ;
#131 = APPROVAL_STATUS ( 'not_yet_approved' ) ;
#132 = PERSON_AND_ORGANIZATION ( #264, #94 ) ;
#133 = EDGE_CURVE ( 'NONE', #387, #141, #158, .T. ) ;
#134 = DIRECTION ( 'NONE',  ( 1.000000000000000000, 0.000000000000000000, 0.000000000000000000 ) ) ;
#135 = DIRECTION ( 'NONE',  ( -0.000000000000000000, -0.000000000000000000, 1.000000000000000000 ) ) ;
#136 = VECTOR ( 'NONE', #365, 1000.000000000000000 ) ;
#137 = PERSON_AND_ORGANIZATION ( #264, #94 ) ;
#138 = AXIS2_PLACEMENT_3D ( 'NONE', #99, #36, #38 ) ;
#139 = DIRECTION ( 'NONE',  ( -1.000000000000000000, 0.000000000000000000, 0.000000000000000000 ) ) ;
#140 = EDGE_CURVE ( 'NONE', #165, #289, #246, .T. ) ;
#141 = VERTEX_POINT ( 'NONE', #371 ) ;
#142 = AXIS2_PLACEMENT_3D ( 'NONE', #405, #332, #267 ) ;
#143 = DATE_AND_TIME ( #345, #121 ) ;
#144 = VERTEX_POINT ( 'NONE', #327 ) ;
#145 = AXIS2_PLACEMENT_3D ( 'NONE', #221, #33, #254 ) ;
#146 = ORIENTED_EDGE ( 'NONE', *, *, #225, .T. ) ;
#147 = CARTESIAN_POINT ( 'NONE',  ( 0.000000000000000000, 0.000000000000000000, -7.500000000000000000 ) ) ;
#148 = FACE_OUTER_BOUND ( 'NONE', #230, .T. ) ;
#149 = ORIENTED_EDGE ( 'NONE', *, *, #284, .F. ) ;
#150 = ADVANCED_FACE ( 'NONE', ( #184 ), #271, .F. ) ;
#151 = CARTESIAN_POINT ( 'NONE',  ( 16.00000000000000000, 1.959434878635765131E-15, -6.999999999999999112 ) ) ;
#152 = VECTOR ( 'NONE', #120, 1000.000000000000114 ) ;
#153 = VECTOR ( 'NONE', #290, 1000.000000000000000 ) ;
#154 = PRODUCT_DEFINITION ( 'NEZNÁMÝ', '', #41, #341 ) ;
#155 = DIRECTION ( 'NONE',  ( -0.000000000000000000, -0.000000000000000000, 1.000000000000000000 ) ) ;
#156 = DATE_AND_TIME ( #302, #257 ) ;
#157 = DIRECTION ( 'NONE',  ( 0.7071067811865402453, 8.659560562354844111E-17, -0.7071067811865549002 ) ) ;
#158 = CIRCLE ( 'NONE', #195, 0.5000000000000004441 ) ;
#159 = DIRECTION ( 'NONE',  ( 1.000000000000000000, 0.000000000000000000, 0.000000000000000000 ) ) ;
#160 = LINE ( 'NONE', #356, #74 ) ;
#161 = CONICAL_SURFACE ( 'NONE', #64, 18.00000000000002842, 0.7853981633974380649 ) ;
#162 = ORIENTED_EDGE ( 'NONE', *, *, #284, .T. ) ;
#163 = CALENDAR_DATE ( 2024, 2, 1 ) ;
#164 = AXIS2_PLACEMENT_3D ( 'NONE', #25, #23, #274 ) ;
#165 = VERTEX_POINT ( 'NONE', #202 ) ;
#166 = ORIENTED_EDGE ( 'NONE', *, *, #300, .T. ) ;
#167 = CIRCLE ( 'NONE', #403, 0.5000000000000004441 ) ;
#168 = CC_DESIGN_APPROVAL ( #105, ( #129 ) ) ;
#169 = ORIENTED_EDGE ( 'NONE', *, *, #263, .T. ) ;
#170 = ORIENTED_EDGE ( 'NONE', *, *, #69, .F. ) ;
#171 = CARTESIAN_POINT ( 'NONE',  ( 18.50000000000000000, 0.000000000000000000, 0.000000000000000000 ) ) ;
#172 = CARTESIAN_POINT ( 'NONE',  ( 0.000000000000000000, 0.000000000000000000, -7.500000000000000000 ) ) ;
#173 = EDGE_LOOP ( 'NONE', ( #292, #166, #170, #46 ) ) ;
#174 = CIRCLE ( 'NONE', #11, 15.50000000000000000 ) ;
#175 = VERTEX_POINT ( 'NONE', #151 ) ;
#176 = DIRECTION ( 'NONE',  ( 0.000000000000000000, 0.000000000000000000, -1.000000000000000000 ) ) ;
#177 = CC_DESIGN_SECURITY_CLASSIFICATION ( #129, ( #41 ) ) ;
#178 = APPROVAL ( #131, 'NEURÈENÝ' ) ;
#179 = ORIENTED_EDGE ( 'NONE', *, *, #69, .T. ) ;
#180 = EDGE_LOOP ( 'NONE', ( #326, #199, #400, #369 ) ) ;
#181 = EDGE_CURVE ( 'NONE', #289, #165, #285, .T. ) ;
#182 = DIRECTION ( 'NONE',  ( 0.000000000000000000, 0.000000000000000000, -1.000000000000000000 ) ) ;
#183 = AXIS2_PLACEMENT_3D ( 'NONE', #61, #81, #50 ) ;
#184 = FACE_OUTER_BOUND ( 'NONE', #361, .T. ) ;
#185 = DIRECTION ( 'NONE',  ( -0.000000000000000000, -0.000000000000000000, 1.000000000000000000 ) ) ;
#186 = CARTESIAN_POINT ( 'NONE',  ( 0.000000000000000000, 0.000000000000000000, 0.000000000000000000 ) ) ;
#187 = DIRECTION ( 'NONE',  ( 0.000000000000000000, -0.000000000000000000, 1.000000000000000000 ) ) ;
#188 = PERSON_AND_ORGANIZATION ( #264, #94 ) ;
#189 = AXIS2_PLACEMENT_3D ( 'NONE', #362, #367, #110 ) ;
#190 = APPLICATION_PROTOCOL_DEFINITION ( 'international standard', 'config_control_design', 1994, #194 ) ;
#191 = AXIS2_PLACEMENT_3D ( 'NONE', #147, #331, #333 ) ;
#192 = APPROVAL_DATE_TIME ( #340, #105 ) ;
#193 = DIRECTION ( 'NONE',  ( -0.000000000000000000, -0.000000000000000000, 1.000000000000000000 ) ) ;
#194 = APPLICATION_CONTEXT ( 'configuration controlled 3d designs of mechanical parts and assemblies' ) ;
#195 = AXIS2_PLACEMENT_3D ( 'NONE', #352, #71, #313 ) ;
#196 = ORIENTED_EDGE ( 'NONE', *, *, #229, .T. ) ;
#197 = AXIS2_PLACEMENT_3D ( 'NONE', #256, #350, #139 ) ;
#198 = EDGE_CURVE ( 'NONE', #122, #10, #205, .T. ) ;
#199 = ORIENTED_EDGE ( 'NONE', *, *, #198, .T. ) ;
#200 = ORIENTED_EDGE ( 'NONE', *, *, #87, .F. ) ;
#201 = ORIENTED_EDGE ( 'NONE', *, *, #140, .F. ) ;
#202 = CARTESIAN_POINT ( 'NONE',  ( 18.50000000000000000, 0.000000000000000000, -6.999999999999998224 ) ) ;
#203 = ORIENTED_EDGE ( 'NONE', *, *, #288, .T. ) ;
#204 = EDGE_CURVE ( 'NONE', #175, #398, #84, .T. ) ;
#205 = CIRCLE ( 'NONE', #189, 16.00000000000000000 ) ;
#206 = ORIENTED_EDGE ( 'NONE', *, *, #263, .F. ) ;
#207 = EDGE_CURVE ( 'NONE', #51, #175, #100, .T. ) ;
#208 = DIRECTION ( 'NONE',  ( -1.000000000000000000, 0.000000000000000000, 0.000000000000000000 ) ) ;
#209 = ADVANCED_FACE ( 'NONE', ( #234 ), #21, .T. ) ;
#210 =( NAMED_UNIT ( * ) PLANE_ANGLE_UNIT ( ) SI_UNIT ( $, .RADIAN. ) );
#211 = ORIENTED_EDGE ( 'NONE', *, *, #87, .T. ) ;
#212 = FACE_OUTER_BOUND ( 'NONE', #235, .T. ) ;
#213 = PERSON_AND_ORGANIZATION_ROLE ( 'creator' ) ;
#214 = CARTESIAN_POINT ( 'NONE',  ( -18.00000000000002842, 0.000000000000000000, 0.000000000000000000 ) ) ;
#215 = CARTESIAN_POINT ( 'NONE',  ( 0.000000000000000000, 0.000000000000000000, 0.000000000000000000 ) ) ;
#216 = CIRCLE ( 'NONE', #18, 18.50000000000000000 ) ;
#217 = DIRECTION ( 'NONE',  ( 0.000000000000000000, 0.000000000000000000, 1.000000000000000000 ) ) ;
#218 = FACE_OUTER_BOUND ( 'NONE', #56, .T. ) ;
#219 = DIRECTION ( 'NONE',  ( -0.000000000000000000, -0.000000000000000000, 1.000000000000000000 ) ) ;
#220 = APPROVAL_STATUS ( 'not_yet_approved' ) ;
#221 = CARTESIAN_POINT ( 'NONE',  ( 0.000000000000000000, 0.000000000000000000, -7.500000000000000000 ) ) ;
#222 = CIRCLE ( 'NONE', #396, 18.00000000000002842 ) ;
#223 = TOROIDAL_SURFACE ( 'NONE', #191, 16.00000000000000000, 0.5000000000000000000 ) ;
#224 = PLANE ( 'NONE',  #287 ) ;
#225 = EDGE_CURVE ( 'NONE', #289, #83, #243, .T. ) ;
#226 = ORIENTED_EDGE ( 'NONE', *, *, #399, .F. ) ;
#227 = DIRECTION ( 'NONE',  ( -1.000000000000000000, 0.000000000000000000, -0.000000000000000000 ) ) ;
#228 = ADVANCED_BREP_SHAPE_REPRESENTATION ( '73db', ( #91, #392 ), #111 ) ;
#229 = EDGE_CURVE ( 'NONE', #312, #83, #90, .T. ) ;
#230 = EDGE_LOOP ( 'NONE', ( #211, #203 ) ) ;
#231 = EDGE_LOOP ( 'NONE', ( #48, #200, #196, #117 ) ) ;
#232 = DIRECTION ( 'NONE',  ( -0.000000000000000000, -0.000000000000000000, 1.000000000000000000 ) ) ;
#233 = APPROVAL_PERSON_ORGANIZATION ( #377, #105, #98 ) ;
#234 = FACE_OUTER_BOUND ( 'NONE', #173, .T. ) ;
#235 = EDGE_LOOP ( 'NONE', ( #112, #146, #179, #226 ) ) ;
#236 = CARTESIAN_POINT ( 'NONE',  ( 0.000000000000000000, 0.000000000000000000, 0.000000000000000000 ) ) ;
#237 = EDGE_LOOP ( 'NONE', ( #201, #75 ) ) ;
#238 = VERTEX_POINT ( 'NONE', #85 ) ;
#239 = AXIS2_PLACEMENT_3D ( 'NONE', #130, #3, #252 ) ;
#240 = DIRECTION ( 'NONE',  ( 1.000000000000000000, 0.000000000000000000, 0.000000000000000000 ) ) ;
#241 = TOROIDAL_SURFACE ( 'NONE', #197, 16.00000000000000000, 0.5000000000000000000 ) ;
#242 = PRODUCT ( '73db', '73db', '', ( #349 ) ) ;
#243 = LINE ( 'NONE', #372, #136 ) ;
#244 = DIRECTION ( 'NONE',  ( 1.000000000000000000, 0.000000000000000000, 0.000000000000000000 ) ) ;
#245 = DIRECTION ( 'NONE',  ( 1.000000000000000000, 0.000000000000000000, 0.000000000000000000 ) ) ;
#246 = CIRCLE ( 'NONE', #355, 18.50000000000000000 ) ;
#247 = DIRECTION ( 'NONE',  ( -0.000000000000000000, -0.000000000000000000, 1.000000000000000000 ) ) ;
#248 = DATE_TIME_ROLE ( 'classification_date' ) ;
#249 = AXIS2_PLACEMENT_3D ( 'NONE', #125, #219, #245 ) ;
#250 = PERSON_AND_ORGANIZATION ( #264, #94 ) ;
#251 = ORIENTED_EDGE ( 'NONE', *, *, #14, .T. ) ;
#252 = DIRECTION ( 'NONE',  ( 1.000000000000000000, 0.000000000000000000, 0.000000000000000000 ) ) ;
#253 = CC_DESIGN_DATE_AND_TIME_ASSIGNMENT ( #156, #248, ( #129 ) ) ;
#254 = DIRECTION ( 'NONE',  ( -1.000000000000000000, 0.000000000000000000, 0.000000000000000000 ) ) ;
#255 = CARTESIAN_POINT ( 'NONE',  ( 0.000000000000000000, 0.000000000000000000, -6.999999999999999112 ) ) ;
#256 = CARTESIAN_POINT ( 'NONE',  ( 0.000000000000000000, 0.000000000000000000, -7.500000000000000000 ) ) ;
#257 = LOCAL_TIME ( 19, 52, 28.00000000000000000, #374 ) ;
#258 = CC_DESIGN_PERSON_AND_ORGANIZATION_ASSIGNMENT ( #281, #213, ( #41 ) ) ;
#259 = DIRECTION ( 'NONE',  ( 0.000000000000000000, 0.000000000000000000, -1.000000000000000000 ) ) ;
#260 = PLANE ( 'NONE',  #370 ) ;
#261 = DIRECTION ( 'NONE',  ( -0.000000000000000000, -0.000000000000000000, 1.000000000000000000 ) ) ;
#262 = AXIS2_PLACEMENT_3D ( 'NONE', #172, #395, #240 ) ;
#263 = EDGE_CURVE ( 'NONE', #387, #51, #360, .T. ) ;
#264 = PERSON ( 'NEURÈENÝ', 'NEURÈENÝ', 'NEURÈENÝ', ('NEURÈENÝ'), ('NEURÈENÝ'), ('NEURÈENÝ') ) ;
#265 = AXIS2_PLACEMENT_3D ( 'NONE', #9, #135, #381 ) ;
#266 = ORIENTED_EDGE ( 'NONE', *, *, #58, .T. ) ;
#267 = DIRECTION ( 'NONE',  ( -1.000000000000000000, 0.000000000000000000, 0.000000000000000000 ) ) ;
#268 = APPLICATION_CONTEXT ( 'configuration controlled 3d designs of mechanical parts and assemblies' ) ;
#269 = VERTEX_POINT ( 'NONE', #291 ) ;
#270 = DIRECTION ( 'NONE',  ( 1.000000000000000000, 0.000000000000000000, 0.000000000000000000 ) ) ;
#271 = TOROIDAL_SURFACE ( 'NONE', #262, 16.00000000000000000, 0.5000000000000000000 ) ;
#272 = DIRECTION ( 'NONE',  ( 1.000000000000000000, 0.000000000000000000, 0.000000000000000000 ) ) ;
#273 = EDGE_LOOP ( 'NONE', ( #101, #106, #328, #251 ) ) ;
#274 = DIRECTION ( 'NONE',  ( 1.000000000000000000, 0.000000000000000000, 0.000000000000000000 ) ) ;
#275 = APPROVAL_ROLE ( '' ) ;
#276 = DIRECTION ( 'NONE',  ( 0.000000000000000000, 0.000000000000000000, -1.000000000000000000 ) ) ;
#277 = APPROVAL_DATE_TIME ( #34, #339 ) ;
#278 = ADVANCED_FACE ( 'NONE', ( #148 ), #115, .T. ) ;
#279 = CYLINDRICAL_SURFACE ( 'NONE', #239, 18.50000000000000000 ) ;
#280 = DIRECTION ( 'NONE',  ( 0.000000000000000000, 0.000000000000000000, -1.000000000000000000 ) ) ;
#281 = PERSON_AND_ORGANIZATION ( #264, #94 ) ;
#282 = ADVANCED_FACE ( 'NONE', ( #212 ), #301, .T. ) ;
#283 = ORIENTED_EDGE ( 'NONE', *, *, #133, .T. ) ;
#284 = EDGE_CURVE ( 'NONE', #51, #269, #383, .T. ) ;
#285 = CIRCLE ( 'NONE', #305, 18.50000000000000000 ) ;
#286 = PERSON_AND_ORGANIZATION ( #264, #94 ) ;
#287 = AXIS2_PLACEMENT_3D ( 'NONE', #318, #259, #227 ) ;
#288 = EDGE_CURVE ( 'NONE', #238, #312, #299, .T. ) ;
#289 = VERTEX_POINT ( 'NONE', #307 ) ;
#290 = DIRECTION ( 'NONE',  ( -0.000000000000000000, -0.000000000000000000, 1.000000000000000000 ) ) ;
#291 = CARTESIAN_POINT ( 'NONE',  ( 16.00000000000000000, 0.000000000000000000, -8.000000000000000000 ) ) ;
#292 = ORIENTED_EDGE ( 'NONE', *, *, #288, .F. ) ;
#293 = LOCAL_TIME ( 19, 52, 28.00000000000000000, #314 ) ;
#294 = CARTESIAN_POINT ( 'NONE',  ( 0.000000000000000000, 0.000000000000000000, 0.000000000000000000 ) ) ;
#295 = ORIENTED_EDGE ( 'NONE', *, *, #198, .F. ) ;
#296 = CARTESIAN_POINT ( 'NONE',  ( 0.000000000000000000, 0.000000000000000000, -8.000000000000000000 ) ) ;
#297 = DIRECTION ( 'NONE',  ( -1.000000000000000000, -1.224646799147349509E-16, 0.000000000000000000 ) ) ;
#298 =( NAMED_UNIT ( * ) SI_UNIT ( $, .STERADIAN. ) SOLID_ANGLE_UNIT ( ) );
#299 = CIRCLE ( 'NONE', #249, 18.00000000000002842 ) ;
#300 = EDGE_CURVE ( 'NONE', #238, #144, #373, .T. ) ;
#301 = CYLINDRICAL_SURFACE ( 'NONE', #164, 18.50000000000000000 ) ;
#302 = CALENDAR_DATE ( 2024, 2, 1 ) ;
#303 = PERSON_AND_ORGANIZATION_ROLE ( 'design_owner' ) ;
#304 = DIRECTION ( 'NONE',  ( 1.000000000000000000, 0.000000000000000000, 0.000000000000000000 ) ) ;
#305 = AXIS2_PLACEMENT_3D ( 'NONE', #402, #59, #116 ) ;
#306 = CARTESIAN_POINT ( 'NONE',  ( 16.00000000000000000, 0.000000000000000000, 0.000000000000000000 ) ) ;
#307 = CARTESIAN_POINT ( 'NONE',  ( -18.50000000000000000, 2.265596578422603396E-15, -6.999999999999998224 ) ) ;
#308 = COORDINATED_UNIVERSAL_TIME_OFFSET ( 1, 0, .AHEAD. ) ;
#309 = TOROIDAL_SURFACE ( 'NONE', #145, 16.00000000000000000, 0.5000000000000000000 ) ;
#310 = EDGE_CURVE ( 'NONE', #269, #141, #22, .T. ) ;
#311 = SHAPE_DEFINITION_REPRESENTATION ( #322, #228 ) ;
#312 = VERTEX_POINT ( 'NONE', #378 ) ;
#313 = DIRECTION ( 'NONE',  ( -1.000000000000000000, 1.224646799147349509E-16, 0.000000000000000000 ) ) ;
#314 = COORDINATED_UNIVERSAL_TIME_OFFSET ( 1, 0, .AHEAD. ) ;
#315 = CLOSED_SHELL ( 'NONE', ( #209, #353, #406, #67, #282, #321, #278, #107, #394, #386, #150, #319, #42 ) ) ;
#316 = VECTOR ( 'NONE', #157, 1000.000000000000114 ) ;
#317 = ORIENTED_EDGE ( 'NONE', *, *, #47, .F. ) ;
#318 = CARTESIAN_POINT ( 'NONE',  ( 0.000000000000000000, 16.00000000000000000, -100.0000000000000000 ) ) ;
#319 = ADVANCED_FACE ( 'NONE', ( #28 ), #309, .F. ) ;
#320 = AXIS2_PLACEMENT_3D ( 'NONE', #335, #123, #297 ) ;
#321 = ADVANCED_FACE ( 'NONE', ( #2 ), #224, .T. ) ;
#322 = PRODUCT_DEFINITION_SHAPE ( 'NONE', 'NONE',  #154 ) ;
#323 = ORIENTED_EDGE ( 'NONE', *, *, #12, .T. ) ;
#324 = ORIENTED_EDGE ( 'NONE', *, *, #207, .T. ) ;
#325 =( LENGTH_UNIT ( ) NAMED_UNIT ( * ) SI_UNIT ( .MILLI., .METRE. ) );
#326 = ORIENTED_EDGE ( 'NONE', *, *, #354, .F. ) ;
#327 = CARTESIAN_POINT ( 'NONE',  ( 18.50000000000000000, 0.000000000000000000, -0.4999999999999796274 ) ) ;
#328 = ORIENTED_EDGE ( 'NONE', *, *, #399, .T. ) ;
#329 = EDGE_CURVE ( 'NONE', #10, #122, #78, .T. ) ;
#330 = ORIENTED_EDGE ( 'NONE', *, *, #13, .T. ) ;
#331 = DIRECTION ( 'NONE',  ( -0.000000000000000000, -0.000000000000000000, 1.000000000000000000 ) ) ;
#332 = DIRECTION ( 'NONE',  ( -0.000000000000000000, -0.000000000000000000, 1.000000000000000000 ) ) ;
#333 = DIRECTION ( 'NONE',  ( 1.000000000000000000, 0.000000000000000000, 0.000000000000000000 ) ) ;
#334 = DIRECTION ( 'NONE',  ( 0.000000000000000000, 0.000000000000000000, -1.000000000000000000 ) ) ;
#335 = CARTESIAN_POINT ( 'NONE',  ( 16.00000000000000000, 1.959434878635765131E-15, -7.500000000000000000 ) ) ;
#336 = AXIS2_PLACEMENT_3D ( 'NONE', #186, #344, #159 ) ;
#337 = FACE_OUTER_BOUND ( 'NONE', #273, .T. ) ;
#338 = APPROVAL_PERSON_ORGANIZATION ( #188, #178, #32 ) ;
#339 = APPROVAL ( #97, 'NEURÈENÝ' ) ;
#340 = DATE_AND_TIME ( #96, #19 ) ;
#341 = DESIGN_CONTEXT ( 'detailed design', #268, 'design' ) ;
#342 = DATE_TIME_ROLE ( 'creation_date' ) ;
#343 = DIRECTION ( 'NONE',  ( 1.000000000000000000, 0.000000000000000000, 0.000000000000000000 ) ) ;
#344 = DIRECTION ( 'NONE',  ( -0.000000000000000000, -0.000000000000000000, 1.000000000000000000 ) ) ;
#345 = CALENDAR_DATE ( 2024, 2, 1 ) ;
#346 = PERSON_AND_ORGANIZATION_ROLE ( 'classification_officer' ) ;
#347 = LOCAL_TIME ( 19, 52, 28.00000000000000000, #308 ) ;
#348 = CC_DESIGN_PERSON_AND_ORGANIZATION_ASSIGNMENT ( #137, #303, ( #242 ) ) ;
#349 = MECHANICAL_CONTEXT ( 'NONE', #194, 'mechanical' ) ;
#350 = DIRECTION ( 'NONE',  ( 0.000000000000000000, 0.000000000000000000, -1.000000000000000000 ) ) ;
#351 = ORIENTED_EDGE ( 'NONE', *, *, #13, .F. ) ;
#352 = CARTESIAN_POINT ( 'NONE',  ( -16.00000000000000000, 1.959434878635765131E-15, -7.500000000000000000 ) ) ;
#353 = ADVANCED_FACE ( 'NONE', ( #70 ), #241, .F. ) ;
#354 = EDGE_CURVE ( 'NONE', #122, #141, #160, .T. ) ;
#355 = AXIS2_PLACEMENT_3D ( 'NONE', #40, #57, #272 ) ;
#356 = CARTESIAN_POINT ( 'NONE',  ( -16.00000000000000000, 1.959434878635765131E-15, 0.000000000000000000 ) ) ;
#357 = CYLINDRICAL_SURFACE ( 'NONE', #138, 16.00000000000000000 ) ;
#358 = CARTESIAN_POINT ( 'NONE',  ( -16.00000000000000000, 0.000000000000000000, -6.999999999999999112 ) ) ;
#359 = EDGE_LOOP ( 'NONE', ( #169, #324, #364, #351 ) ) ;
#360 = CIRCLE ( 'NONE', #183, 15.50000000000000000 ) ;
#361 = EDGE_LOOP ( 'NONE', ( #15, #363, #162, #390 ) ) ;
#362 = CARTESIAN_POINT ( 'NONE',  ( 0.000000000000000000, 0.000000000000000000, -100.0000000000000000 ) ) ;
#363 = ORIENTED_EDGE ( 'NONE', *, *, #58, .F. ) ;
#364 = ORIENTED_EDGE ( 'NONE', *, *, #119, .F. ) ;
#365 = DIRECTION ( 'NONE',  ( -0.000000000000000000, -0.000000000000000000, 1.000000000000000000 ) ) ;
#366 = ORIENTED_EDGE ( 'NONE', *, *, #204, .T. ) ;
#367 = DIRECTION ( 'NONE',  ( -0.000000000000000000, -0.000000000000000000, 1.000000000000000000 ) ) ;
#368 = AXIS2_PLACEMENT_3D ( 'NONE', #255, #155, #382 ) ;
#369 = ORIENTED_EDGE ( 'NONE', *, *, #12, .F. ) ;
#370 = AXIS2_PLACEMENT_3D ( 'NONE', #389, #102, #393 ) ;
#371 = CARTESIAN_POINT ( 'NONE',  ( -16.00000000000000000, 1.959434878635765131E-15, -8.000000000000000000 ) ) ;
#372 = CARTESIAN_POINT ( 'NONE',  ( -18.50000000000000000, 2.265596578422603396E-15, 0.000000000000000000 ) ) ;
#373 = LINE ( 'NONE', #409, #316 ) ;
#374 = COORDINATED_UNIVERSAL_TIME_OFFSET ( 1, 0, .AHEAD. ) ;
#375 = UNCERTAINTY_MEASURE_WITH_UNIT (LENGTH_MEASURE( 1.000000000000000082E-05 ), #325, 'distance_accuracy_value', 'NONE');
#376 = DIRECTION ( 'NONE',  ( 0.000000000000000000, -1.000000000000000000, 0.000000000000000000 ) ) ;
#377 = PERSON_AND_ORGANIZATION ( #264, #94 ) ;
#378 = CARTESIAN_POINT ( 'NONE',  ( -18.00000000000002842, 0.000000000000000000, 0.000000000000000000 ) ) ;
#379 = LINE ( 'NONE', #306, #7 ) ;
#380 = COORDINATED_UNIVERSAL_TIME_OFFSET ( 1, 0, .AHEAD. ) ;
#381 = DIRECTION ( 'NONE',  ( 1.000000000000000000, 0.000000000000000000, 0.000000000000000000 ) ) ;
#382 = DIRECTION ( 'NONE',  ( -1.000000000000000000, 0.000000000000000000, 0.000000000000000000 ) ) ;
#383 = CIRCLE ( 'NONE', #384, 0.5000000000000004441 ) ;
#384 = AXIS2_PLACEMENT_3D ( 'NONE', #407, #376, #276 ) ;
#385 = CARTESIAN_POINT ( 'NONE',  ( -16.00000000000000000, 1.959434878635765131E-15, -100.0000000000000000 ) ) ;
#386 = ADVANCED_FACE ( 'NONE', ( #391 ), #357, .T. ) ;
#387 = VERTEX_POINT ( 'NONE', #397 ) ;
#388 = ORIENTED_EDGE ( 'NONE', *, *, #207, .F. ) ;
#389 = CARTESIAN_POINT ( 'NONE',  ( 0.000000000000000000, 18.50000000000000000, -6.999999999999999112 ) ) ;
#390 = ORIENTED_EDGE ( 'NONE', *, *, #310, .T. ) ;
#391 = FACE_OUTER_BOUND ( 'NONE', #180, .T. ) ;
#392 = AXIS2_PLACEMENT_3D ( 'NONE', #6, #217, #343 ) ;
#393 = DIRECTION ( 'NONE',  ( -1.000000000000000000, 0.000000000000000000, -0.000000000000000000 ) ) ;
#394 = ADVANCED_FACE ( 'NONE', ( #113, #76 ), #260, .T. ) ;
#395 = DIRECTION ( 'NONE',  ( -0.000000000000000000, -0.000000000000000000, 1.000000000000000000 ) ) ;
#396 = AXIS2_PLACEMENT_3D ( 'NONE', #215, #126, #134 ) ;
#397 = CARTESIAN_POINT ( 'NONE',  ( -15.50000000000000000, 1.928818708657081344E-15, -7.500000000000000000 ) ) ;
#398 = VERTEX_POINT ( 'NONE', #358 ) ;
#399 = EDGE_CURVE ( 'NONE', #165, #144, #43, .T. ) ;
#400 = ORIENTED_EDGE ( 'NONE', *, *, #47, .T. ) ;
#401 = CC_DESIGN_PERSON_AND_ORGANIZATION_ASSIGNMENT ( #132, #346, ( #129 ) ) ;
#402 = CARTESIAN_POINT ( 'NONE',  ( 0.000000000000000000, 0.000000000000000000, -6.999999999999998224 ) ) ;
#403 = AXIS2_PLACEMENT_3D ( 'NONE', #118, #88, #334 ) ;
#404 = ORIENTED_EDGE ( 'NONE', *, *, #329, .F. ) ;
#405 = CARTESIAN_POINT ( 'NONE',  ( 0.000000000000000000, 0.000000000000000000, -6.999999999999999112 ) ) ;
#406 = ADVANCED_FACE ( 'NONE', ( #17 ), #223, .F. ) ;
#407 = CARTESIAN_POINT ( 'NONE',  ( 16.00000000000000000, 0.000000000000000000, -7.500000000000000000 ) ) ;
#408 = PERSON_AND_ORGANIZATION_ROLE ( 'design_supplier' ) ;
#409 = CARTESIAN_POINT ( 'NONE',  ( 18.00000000000002842, 2.204364238465239372E-15, 0.000000000000000000 ) ) ;
ENDSEC;
END-ISO-10303-21;
