ISO-10303-21;
HEADER;
FILE_DESCRIPTION (( 'STEP AP203' ),
    '1' );
FILE_NAME ('0042.STEP',
    '2024-01-02T23:01:55',
    ( '' ),
    ( '' ),
    'SwSTEP 2.0',
    'SolidWorks 2019',
    '' );
FILE_SCHEMA (( 'CONFIG_CONTROL_DESIGN' ));
ENDSEC;

DATA;
#1 = ORIENTED_EDGE ( 'NONE', *, *, #95, .F. ) ;
#2 = DIRECTION ( 'NONE',  ( 1.000000000000000000, 0.000000000000000000, 0.000000000000000000 ) ) ;
#3 = ORIENTED_EDGE ( 'NONE', *, *, #348, .F. ) ;
#4 = FACE_BOUND ( 'NONE', #402, .T. ) ;
#5 = EDGE_CURVE ( 'NONE', #123, #267, #261, .T. ) ;
#6 = DIRECTION ( 'NONE',  ( -1.000000000000000000, -1.224646799147353454E-16, 0.000000000000000000 ) ) ;
#7 = AXIS2_PLACEMENT_3D ( 'NONE', #358, #237, #75 ) ;
#8 = LOCAL_TIME ( 0, 1, 55.00000000000000000, #82 ) ;
#9 = APPLICATION_CONTEXT ( 'configuration controlled 3d designs of mechanical parts and assemblies' ) ;
#10 = DIRECTION ( 'NONE',  ( 1.000000000000000000, 0.000000000000000000, 0.000000000000000000 ) ) ;
#11 = AXIS2_PLACEMENT_3D ( 'NONE', #326, #301, #16 ) ;
#12 = EDGE_CURVE ( 'NONE', #85, #144, #388, .T. ) ;
#13 = LINE ( 'NONE', #141, #321 ) ;
#14 = DIRECTION ( 'NONE',  ( -0.000000000000000000, -0.000000000000000000, 1.000000000000000000 ) ) ;
#15 = EDGE_CURVE ( 'NONE', #380, #117, #286, .T. ) ;
#16 = DIRECTION ( 'NONE',  ( 1.000000000000000000, 0.000000000000000000, 0.000000000000000000 ) ) ;
#17 = VERTEX_POINT ( 'NONE', #347 ) ;
#18 = DIRECTION ( 'NONE',  ( -0.000000000000000000, -0.000000000000000000, 1.000000000000000000 ) ) ;
#19 = CIRCLE ( 'NONE', #11, 11.00000000000000178 ) ;
#20 = LOCAL_TIME ( 0, 1, 55.00000000000000000, #188 ) ;
#21 = DIRECTION ( 'NONE',  ( -0.000000000000000000, -0.000000000000000000, 1.000000000000000000 ) ) ;
#22 = DIRECTION ( 'NONE',  ( 0.000000000000000000, 0.000000000000000000, 1.000000000000000000 ) ) ;
#23 = VERTEX_POINT ( 'NONE', #328 ) ;
#24 = DIRECTION ( 'NONE',  ( 1.000000000000000000, 0.000000000000000000, 0.000000000000000000 ) ) ;
#25 = DATE_AND_TIME ( #368, #264 ) ;
#26 = CARTESIAN_POINT ( 'NONE',  ( 9.000000000000000000, 1.102182119232617714E-15, -4.999999999999999112 ) ) ;
#27 = PERSON_AND_ORGANIZATION_ROLE ( 'creator' ) ;
#28 = EDGE_LOOP ( 'NONE', ( #120, #296, #273, #3 ) ) ;
#29 = DIRECTION ( 'NONE',  ( -0.000000000000000000, -0.000000000000000000, 1.000000000000000000 ) ) ;
#30 = PERSON_AND_ORGANIZATION_ROLE ( 'design_supplier' ) ;
#31 = VECTOR ( 'NONE', #382, 1000.000000000000114 ) ;
#32 = ORIENTED_EDGE ( 'NONE', *, *, #43, .F. ) ;
#33 = AXIS2_PLACEMENT_3D ( 'NONE', #81, #83, #403 ) ;
#34 = CARTESIAN_POINT ( 'NONE',  ( 0.000000000000000000, 0.000000000000000000, -5.000000000000000000 ) ) ;
#35 = CLOSED_SHELL ( 'NONE', ( #46, #176, #87, #131, #218, #159, #307, #378, #214, #343, #298, #66, #254 ) ) ;
#36 = MANIFOLD_SOLID_BREP ( 'Zkosení1', #35 ) ;
#37 = DIRECTION ( 'NONE',  ( 0.000000000000000000, -0.000000000000000000, 1.000000000000000000 ) ) ;
#38 = DIRECTION ( 'NONE',  ( -0.000000000000000000, -0.000000000000000000, 1.000000000000000000 ) ) ;
#39 = EDGE_CURVE ( 'NONE', #130, #74, #360, .T. ) ;
#40 = VECTOR ( 'NONE', #364, 1000.000000000000000 ) ;
#41 = ORIENTED_EDGE ( 'NONE', *, *, #392, .T. ) ;
#42 = DIRECTION ( 'NONE',  ( -0.000000000000000000, -0.000000000000000000, 1.000000000000000000 ) ) ;
#43 = EDGE_CURVE ( 'NONE', #123, #23, #239, .T. ) ;
#44 = CARTESIAN_POINT ( 'NONE',  ( -9.000000000000000000, 1.102182119232617714E-15, -5.500000000000000000 ) ) ;
#45 = CC_DESIGN_PERSON_AND_ORGANIZATION_ASSIGNMENT ( #315, #407, ( #327 ) ) ;
#46 = ADVANCED_FACE ( 'NONE', ( #400 ), #96, .T. ) ;
#47 = ORIENTED_EDGE ( 'NONE', *, *, #95, .T. ) ;
#48 = DIRECTION ( 'NONE',  ( 1.000000000000000000, 0.000000000000000000, 0.000000000000000000 ) ) ;
#49 = APPROVAL ( #341, 'NEURÈENÝ' ) ;
#50 = APPROVAL_DATE_TIME ( #248, #406 ) ;
#51 = EDGE_LOOP ( 'NONE', ( #339, #41, #258, #394 ) ) ;
#52 = CARTESIAN_POINT ( 'NONE',  ( 0.000000000000000000, 0.000000000000000000, -5.000000000000000000 ) ) ;
#53 =( NAMED_UNIT ( * ) PLANE_ANGLE_UNIT ( ) SI_UNIT ( $, .RADIAN. ) );
#54 = CARTESIAN_POINT ( 'NONE',  ( 9.000000000000000000, 1.102182119232617714E-15, -5.500000000000000000 ) ) ;
#55 = FACE_OUTER_BOUND ( 'NONE', #336, .T. ) ;
#56 = ORGANIZATION ( 'NEURÈENÝ', 'NEURÈENÝ', '' ) ;
#57 = PERSON_AND_ORGANIZATION ( #197, #56 ) ;
#58 = ORIENTED_EDGE ( 'NONE', *, *, #15, .T. ) ;
#59 = CARTESIAN_POINT ( 'NONE',  ( 0.000000000000000000, 0.000000000000000000, 0.000000000000000000 ) ) ;
#60 = ORIENTED_EDGE ( 'NONE', *, *, #389, .F. ) ;
#61 = PLANE ( 'NONE',  #332 ) ;
#62 = AXIS2_PLACEMENT_3D ( 'NONE', #234, #268, #148 ) ;
#63 = DIRECTION ( 'NONE',  ( 1.000000000000000000, 0.000000000000000000, 0.000000000000000000 ) ) ;
#64 = CARTESIAN_POINT ( 'NONE',  ( 9.000000000000000000, 0.000000000000000000, -15.00000000000000000 ) ) ;
#65 = CC_DESIGN_DATE_AND_TIME_ASSIGNMENT ( #245, #184, ( #274 ) ) ;
#66 = ADVANCED_FACE ( 'NONE', ( #146 ), #226, .F. ) ;
#67 = AXIS2_PLACEMENT_3D ( 'NONE', #102, #330, #302 ) ;
#68 = CIRCLE ( 'NONE', #351, 9.000000000000000000 ) ;
#69 = APPROVAL_PERSON_ORGANIZATION ( #126, #49, #272 ) ;
#70 = CARTESIAN_POINT ( 'NONE',  ( 0.000000000000000000, 0.000000000000000000, -0.5000000000000022204 ) ) ;
#71 = ORIENTED_EDGE ( 'NONE', *, *, #349, .F. ) ;
#72 = PRODUCT_RELATED_PRODUCT_CATEGORY ( 'detail', '', ( #291 ) ) ;
#73 = EDGE_CURVE ( 'NONE', #267, #211, #387, .T. ) ;
#74 = VERTEX_POINT ( 'NONE', #206 ) ;
#75 = DIRECTION ( 'NONE',  ( -1.000000000000000000, 0.000000000000000000, 0.000000000000000000 ) ) ;
#76 = AXIS2_PLACEMENT_3D ( 'NONE', #54, #313, #6 ) ;
#77 = CIRCLE ( 'NONE', #114, 11.00000000000000000 ) ;
#78 = CC_DESIGN_APPROVAL ( #406, ( #327 ) ) ;
#79 =( NAMED_UNIT ( * ) SI_UNIT ( $, .STERADIAN. ) SOLID_ANGLE_UNIT ( ) );
#80 = ORIENTED_EDGE ( 'NONE', *, *, #15, .F. ) ;
#81 = CARTESIAN_POINT ( 'NONE',  ( 0.000000000000000000, 11.00000000000000000, -5.000000000000000000 ) ) ;
#82 = COORDINATED_UNIVERSAL_TIME_OFFSET ( 1, 0, .AHEAD. ) ;
#83 = DIRECTION ( 'NONE',  ( 0.000000000000000000, 0.000000000000000000, -1.000000000000000000 ) ) ;
#84 = PERSON_AND_ORGANIZATION ( #197, #56 ) ;
#85 = VERTEX_POINT ( 'NONE', #178 ) ;
#86 = CARTESIAN_POINT ( 'NONE',  ( 0.000000000000000000, 0.000000000000000000, -15.00000000000000000 ) ) ;
#87 = ADVANCED_FACE ( 'NONE', ( #174 ), #231, .F. ) ;
#88 = CALENDAR_DATE ( 2024, 3, 1 ) ;
#89 = AXIS2_PLACEMENT_3D ( 'NONE', #198, #37, #292 ) ;
#90 = PERSON_AND_ORGANIZATION ( #197, #56 ) ;
#91 = ORIENTED_EDGE ( 'NONE', *, *, #187, .F. ) ;
#92 = CC_DESIGN_PERSON_AND_ORGANIZATION_ASSIGNMENT ( #150, #282, ( #291 ) ) ;
#93 = LINE ( 'NONE', #310, #209 ) ;
#94 = COORDINATED_UNIVERSAL_TIME_OFFSET ( 1, 0, .AHEAD. ) ;
#95 = EDGE_CURVE ( 'NONE', #376, #123, #208, .T. ) ;
#96 = CONICAL_SURFACE ( 'NONE', #7, 10.49999999999999467, 0.7853981633974517207 ) ;
#97 = CIRCLE ( 'NONE', #323, 8.499999999999998224 ) ;
#98 = AXIS2_PLACEMENT_3D ( 'NONE', #299, #324, #232 ) ;
#99 = APPROVAL_DATE_TIME ( #162, #361 ) ;
#100 = CARTESIAN_POINT ( 'NONE',  ( -10.49999999999999467, 0.000000000000000000, 0.000000000000000000 ) ) ;
#101 = DIRECTION ( 'NONE',  ( -0.000000000000000000, -0.000000000000000000, 1.000000000000000000 ) ) ;
#102 = CARTESIAN_POINT ( 'NONE',  ( 0.000000000000000000, 0.000000000000000000, -5.000000000000000000 ) ) ;
#103 = CARTESIAN_POINT ( 'NONE',  ( 0.000000000000000000, 0.000000000000000000, 0.000000000000000000 ) ) ;
#104 = EDGE_LOOP ( 'NONE', ( #284, #175, #58, #334 ) ) ;
#105 = CARTESIAN_POINT ( 'NONE',  ( 10.49999999999999467, 1.285879139104720239E-15, 0.000000000000000000 ) ) ;
#106 = AXIS2_PLACEMENT_3D ( 'NONE', #129, #186, #377 ) ;
#107 = CC_DESIGN_SECURITY_CLASSIFICATION ( #311, ( #327 ) ) ;
#108 = LINE ( 'NONE', #354, #352 ) ;
#109 = CARTESIAN_POINT ( 'NONE',  ( 0.000000000000000000, 0.000000000000000000, -5.500000000000000000 ) ) ;
#110 = ORIENTED_EDGE ( 'NONE', *, *, #371, .T. ) ;
#111 = DIRECTION ( 'NONE',  ( -0.000000000000000000, -0.000000000000000000, 1.000000000000000000 ) ) ;
#112 = EDGE_CURVE ( 'NONE', #23, #17, #68, .T. ) ;
#113 = DIRECTION ( 'NONE',  ( 0.7071067811865500152, 8.659560562354962440E-17, -0.7071067811865451302 ) ) ;
#114 = AXIS2_PLACEMENT_3D ( 'NONE', #52, #257, #181 ) ;
#115 = LOCAL_TIME ( 0, 1, 55.00000000000000000, #116 ) ;
#116 = COORDINATED_UNIVERSAL_TIME_OFFSET ( 1, 0, .AHEAD. ) ;
#117 = VERTEX_POINT ( 'NONE', #173 ) ;
#118 = DIRECTION ( 'NONE',  ( -1.000000000000000000, 1.224646799147353454E-16, 0.000000000000000000 ) ) ;
#119 = APPROVAL_STATUS ( 'not_yet_approved' ) ;
#120 = ORIENTED_EDGE ( 'NONE', *, *, #396, .F. ) ;
#121 = DIRECTION ( 'NONE',  ( -0.000000000000000000, -0.000000000000000000, 1.000000000000000000 ) ) ;
#122 = CARTESIAN_POINT ( 'NONE',  ( -9.000000000000000000, 1.102182119232617714E-15, 0.000000000000000000 ) ) ;
#123 = VERTEX_POINT ( 'NONE', #300 ) ;
#124 = DIRECTION ( 'NONE',  ( 0.000000000000000000, 0.000000000000000000, -1.000000000000000000 ) ) ;
#125 = EDGE_CURVE ( 'NONE', #376, #17, #127, .T. ) ;
#126 = PERSON_AND_ORGANIZATION ( #197, #56 ) ;
#127 = CIRCLE ( 'NONE', #303, 0.5000000000000004441 ) ;
#128 = ORIENTED_EDGE ( 'NONE', *, *, #187, .T. ) ;
#129 = CARTESIAN_POINT ( 'NONE',  ( 0.000000000000000000, 0.000000000000000000, -15.00000000000000000 ) ) ;
#130 = VERTEX_POINT ( 'NONE', #158 ) ;
#131 = ADVANCED_FACE ( 'NONE', ( #320 ), #409, .T. ) ;
#132 = CARTESIAN_POINT ( 'NONE',  ( -10.49999999999999467, 0.000000000000000000, 0.000000000000000000 ) ) ;
#133 = DIRECTION ( 'NONE',  ( 1.000000000000000000, 0.000000000000000000, 0.000000000000000000 ) ) ;
#134 = EDGE_LOOP ( 'NONE', ( #373, #297 ) ) ;
#135 = AXIS2_PLACEMENT_3D ( 'NONE', #269, #42, #177 ) ;
#136 = SHAPE_DEFINITION_REPRESENTATION ( #169, #266 ) ;
#137 = VECTOR ( 'NONE', #113, 1000.000000000000114 ) ;
#138 = FACE_OUTER_BOUND ( 'NONE', #280, .T. ) ;
#139 = UNCERTAINTY_MEASURE_WITH_UNIT (LENGTH_MEASURE( 1.000000000000000082E-05 ), #312, 'distance_accuracy_value', 'NONE');
#140 = LOCAL_TIME ( 0, 1, 55.00000000000000000, #94 ) ;
#141 = CARTESIAN_POINT ( 'NONE',  ( -11.00000000000000178, 1.347111479062088602E-15, 0.000000000000000000 ) ) ;
#142 = ORIENTED_EDGE ( 'NONE', *, *, #193, .F. ) ;
#143 = DIRECTION ( 'NONE',  ( 1.000000000000000000, 0.000000000000000000, 0.000000000000000000 ) ) ;
#144 = VERTEX_POINT ( 'NONE', #340 ) ;
#145 = CC_DESIGN_PERSON_AND_ORGANIZATION_ASSIGNMENT ( #57, #27, ( #274 ) ) ;
#146 = FACE_OUTER_BOUND ( 'NONE', #316, .T. ) ;
#147 = CIRCLE ( 'NONE', #219, 9.000000000000000000 ) ;
#148 = DIRECTION ( 'NONE',  ( 0.000000000000000000, 0.000000000000000000, -1.000000000000000000 ) ) ;
#149 = APPROVAL_DATE_TIME ( #255, #49 ) ;
#150 = PERSON_AND_ORGANIZATION ( #197, #56 ) ;
#151 = ORIENTED_EDGE ( 'NONE', *, *, #39, .T. ) ;
#152 = DIRECTION ( 'NONE',  ( 1.000000000000000000, 0.000000000000000000, 0.000000000000000000 ) ) ;
#153 = APPROVAL_STATUS ( 'not_yet_approved' ) ;
#154 = ORIENTED_EDGE ( 'NONE', *, *, #125, .F. ) ;
#155 = DIRECTION ( 'NONE',  ( -0.000000000000000000, -0.000000000000000000, 1.000000000000000000 ) ) ;
#156 = CALENDAR_DATE ( 2024, 3, 1 ) ;
#157 = EDGE_LOOP ( 'NONE', ( #47, #249, #246, #71 ) ) ;
#158 = CARTESIAN_POINT ( 'NONE',  ( 10.49999999999999467, 1.316495309083404420E-15, 0.000000000000000000 ) ) ;
#159 = ADVANCED_FACE ( 'NONE', ( #217 ), #61, .T. ) ;
#160 = PERSON_AND_ORGANIZATION_ROLE ( 'classification_officer' ) ;
#161 = FACE_OUTER_BOUND ( 'NONE', #51, .T. ) ;
#162 = DATE_AND_TIME ( #165, #140 ) ;
#163 = CIRCLE ( 'NONE', #379, 10.49999999999999467 ) ;
#164 = ORIENTED_EDGE ( 'NONE', *, *, #392, .F. ) ;
#165 = CALENDAR_DATE ( 2024, 3, 1 ) ;
#166 = DIRECTION ( 'NONE',  ( -0.000000000000000000, -0.000000000000000000, 1.000000000000000000 ) ) ;
#167 = AXIS2_PLACEMENT_3D ( 'NONE', #398, #111, #238 ) ;
#168 = AXIS2_PLACEMENT_3D ( 'NONE', #59, #225, #405 ) ;
#169 = PRODUCT_DEFINITION_SHAPE ( 'NONE', 'NONE',  #274 ) ;
#170 = DIRECTION ( 'NONE',  ( 1.000000000000000000, 0.000000000000000000, 0.000000000000000000 ) ) ;
#171 = CARTESIAN_POINT ( 'NONE',  ( 0.000000000000000000, 0.000000000000000000, -5.500000000000000000 ) ) ;
#172 = EDGE_LOOP ( 'NONE', ( #154, #91, #345, #318 ) ) ;
#173 = CARTESIAN_POINT ( 'NONE',  ( -11.00000000000000178, 1.347111479062088602E-15, -0.5000000000000022204 ) ) ;
#174 = FACE_OUTER_BOUND ( 'NONE', #259, .T. ) ;
#175 = ORIENTED_EDGE ( 'NONE', *, *, #195, .F. ) ;
#176 = ADVANCED_FACE ( 'NONE', ( #381 ), #288, .F. ) ;
#177 = DIRECTION ( 'NONE',  ( 1.000000000000000000, 0.000000000000000000, 0.000000000000000000 ) ) ;
#178 = CARTESIAN_POINT ( 'NONE',  ( 11.00000000000000000, 0.000000000000000000, -5.000000000000000000 ) ) ;
#179 = EDGE_LOOP ( 'NONE', ( #309, #256, #216, #60 ) ) ;
#180 = CYLINDRICAL_SURFACE ( 'NONE', #196, 11.00000000000000178 ) ;
#181 = DIRECTION ( 'NONE',  ( 1.000000000000000000, 0.000000000000000000, 0.000000000000000000 ) ) ;
#182 = AXIS2_PLACEMENT_3D ( 'NONE', #344, #155, #152 ) ;
#183 =( GEOMETRIC_REPRESENTATION_CONTEXT ( 3 ) GLOBAL_UNCERTAINTY_ASSIGNED_CONTEXT ( ( #139 ) ) GLOBAL_UNIT_ASSIGNED_CONTEXT ( ( #312, #53, #79 ) ) REPRESENTATION_CONTEXT ( 'NONE', 'WORKASPACE' ) );
#184 = DATE_TIME_ROLE ( 'creation_date' ) ;
#185 = ORIENTED_EDGE ( 'NONE', *, *, #125, .T. ) ;
#186 = DIRECTION ( 'NONE',  ( -0.000000000000000000, -0.000000000000000000, 1.000000000000000000 ) ) ;
#187 = EDGE_CURVE ( 'NONE', #123, #376, #97, .T. ) ;
#188 = COORDINATED_UNIVERSAL_TIME_OFFSET ( 1, 0, .AHEAD. ) ;
#189 = EDGE_LOOP ( 'NONE', ( #142, #151, #359, #80 ) ) ;
#190 = DIRECTION ( 'NONE',  ( -0.000000000000000000, -0.000000000000000000, 1.000000000000000000 ) ) ;
#191 = ORIENTED_EDGE ( 'NONE', *, *, #287, .T. ) ;
#192 = APPROVAL_PERSON_ORGANIZATION ( #277, #361, #220 ) ;
#193 = EDGE_CURVE ( 'NONE', #130, #380, #163, .T. ) ;
#194 = DIRECTION ( 'NONE',  ( -0.000000000000000000, -0.000000000000000000, 1.000000000000000000 ) ) ;
#195 = EDGE_CURVE ( 'NONE', #380, #130, #201, .T. ) ;
#196 = AXIS2_PLACEMENT_3D ( 'NONE', #335, #29, #213 ) ;
#197 = PERSON ( 'NEURÈENÝ', 'NEURÈENÝ', 'NEURÈENÝ', ('NEURÈENÝ'), ('NEURÈENÝ'), ('NEURÈENÝ') ) ;
#198 = CARTESIAN_POINT ( 'NONE',  ( 0.000000000000000000, 0.000000000000000000, 0.000000000000000000 ) ) ;
#199 = CARTESIAN_POINT ( 'NONE',  ( -9.000000000000000000, 1.102182119232617714E-15, -15.00000000000000000 ) ) ;
#200 = EDGE_CURVE ( 'NONE', #85, #74, #93, .T. ) ;
#201 = CIRCLE ( 'NONE', #294, 10.49999999999999467 ) ;
#202 = APPLICATION_CONTEXT ( 'configuration controlled 3d designs of mechanical parts and assemblies' ) ;
#203 = DIRECTION ( 'NONE',  ( 1.000000000000000000, 0.000000000000000000, 0.000000000000000000 ) ) ;
#204 = ORIENTED_EDGE ( 'NONE', *, *, #349, .T. ) ;
#205 = CARTESIAN_POINT ( 'NONE',  ( 0.000000000000000000, 0.000000000000000000, -6.000000000000000000 ) ) ;
#206 = CARTESIAN_POINT ( 'NONE',  ( 11.00000000000000178, 0.000000000000000000, -0.5000000000000022204 ) ) ;
#207 = AXIS2_PLACEMENT_3D ( 'NONE', #34, #166, #63 ) ;
#208 = CIRCLE ( 'NONE', #363, 8.499999999999998224 ) ;
#209 = VECTOR ( 'NONE', #370, 1000.000000000000000 ) ;
#210 = CC_DESIGN_APPROVAL ( #49, ( #274 ) ) ;
#211 = VERTEX_POINT ( 'NONE', #242 ) ;
#212 = CARTESIAN_POINT ( 'NONE',  ( 0.000000000000000000, 9.000000000000000000, -15.00000000000000000 ) ) ;
#213 = DIRECTION ( 'NONE',  ( 1.000000000000000000, 0.000000000000000000, 0.000000000000000000 ) ) ;
#214 = ADVANCED_FACE ( 'NONE', ( #4, #55 ), #366, .T. ) ;
#215 = CARTESIAN_POINT ( 'NONE',  ( 0.000000000000000000, 0.000000000000000000, 0.000000000000000000 ) ) ;
#216 = ORIENTED_EDGE ( 'NONE', *, *, #112, .F. ) ;
#217 = FACE_OUTER_BOUND ( 'NONE', #221, .T. ) ;
#218 = ADVANCED_FACE ( 'NONE', ( #161 ), #180, .T. ) ;
#219 = AXIS2_PLACEMENT_3D ( 'NONE', #346, #190, #317 ) ;
#220 = APPROVAL_ROLE ( '' ) ;
#221 = EDGE_LOOP ( 'NONE', ( #385, #342 ) ) ;
#222 = DIRECTION ( 'NONE',  ( 1.000000000000000000, 0.000000000000000000, 0.000000000000000000 ) ) ;
#223 = APPROVAL_ROLE ( '' ) ;
#224 = ORIENTED_EDGE ( 'NONE', *, *, #5, .F. ) ;
#225 = DIRECTION ( 'NONE',  ( 0.000000000000000000, 0.000000000000000000, -1.000000000000000000 ) ) ;
#226 = TOROIDAL_SURFACE ( 'NONE', #260, 9.000000000000000000, 0.5000000000000000000 ) ;
#227 = EDGE_CURVE ( 'NONE', #369, #305, #275, .T. ) ;
#228 = FACE_OUTER_BOUND ( 'NONE', #172, .T. ) ;
#229 = EDGE_CURVE ( 'NONE', #305, #369, #262, .T. ) ;
#230 = AXIS2_PLACEMENT_3D ( 'NONE', #215, #22, #304 ) ;
#231 = TOROIDAL_SURFACE ( 'NONE', #167, 9.000000000000000000, 0.5000000000000000000 ) ;
#232 = DIRECTION ( 'NONE',  ( 0.000000000000000000, 0.000000000000000000, -1.000000000000000000 ) ) ;
#233 = ORIENTED_EDGE ( 'NONE', *, *, #241, .F. ) ;
#234 = CARTESIAN_POINT ( 'NONE',  ( 9.000000000000000000, 0.000000000000000000, -5.500000000000000000 ) ) ;
#235 = AXIS2_PLACEMENT_3D ( 'NONE', #86, #337, #48 ) ;
#236 = ORIENTED_EDGE ( 'NONE', *, *, #348, .T. ) ;
#237 = DIRECTION ( 'NONE',  ( 0.000000000000000000, 0.000000000000000000, -1.000000000000000000 ) ) ;
#238 = DIRECTION ( 'NONE',  ( 1.000000000000000000, 0.000000000000000000, 0.000000000000000000 ) ) ;
#239 = CIRCLE ( 'NONE', #62, 0.5000000000000004441 ) ;
#240 = APPLICATION_PROTOCOL_DEFINITION ( 'international standard', 'config_control_design', 1994, #9 ) ;
#241 = EDGE_CURVE ( 'NONE', #144, #85, #77, .T. ) ;
#242 = CARTESIAN_POINT ( 'NONE',  ( -9.000000000000000000, 0.000000000000000000, -4.999999999999999112 ) ) ;
#243 = AXIS2_PLACEMENT_3D ( 'NONE', #103, #18, #10 ) ;
#244 = CC_DESIGN_DATE_AND_TIME_ASSIGNMENT ( #25, #251, ( #311 ) ) ;
#245 = DATE_AND_TIME ( #88, #115 ) ;
#246 = ORIENTED_EDGE ( 'NONE', *, *, #287, .F. ) ;
#247 = CARTESIAN_POINT ( 'NONE',  ( 0.000000000000000000, 0.000000000000000000, 0.000000000000000000 ) ) ;
#248 = DATE_AND_TIME ( #156, #8 ) ;
#249 = ORIENTED_EDGE ( 'NONE', *, *, #5, .T. ) ;
#250 = FACE_OUTER_BOUND ( 'NONE', #104, .T. ) ;
#251 = DATE_TIME_ROLE ( 'classification_date' ) ;
#252 = ORIENTED_EDGE ( 'NONE', *, *, #12, .F. ) ;
#253 = DIRECTION ( 'NONE',  ( 0.000000000000000000, 0.000000000000000000, -1.000000000000000000 ) ) ;
#254 = ADVANCED_FACE ( 'NONE', ( #250 ), #365, .T. ) ;
#255 = DATE_AND_TIME ( #401, #20 ) ;
#256 = ORIENTED_EDGE ( 'NONE', *, *, #396, .T. ) ;
#257 = DIRECTION ( 'NONE',  ( -0.000000000000000000, -0.000000000000000000, 1.000000000000000000 ) ) ;
#258 = ORIENTED_EDGE ( 'NONE', *, *, #319, .T. ) ;
#259 = EDGE_LOOP ( 'NONE', ( #1, #185, #236, #32 ) ) ;
#260 = AXIS2_PLACEMENT_3D ( 'NONE', #109, #355, #331 ) ;
#261 = CIRCLE ( 'NONE', #76, 0.5000000000000004441 ) ;
#262 = CIRCLE ( 'NONE', #106, 9.000000000000000000 ) ;
#263 = CYLINDRICAL_SURFACE ( 'NONE', #390, 11.00000000000000178 ) ;
#264 = LOCAL_TIME ( 0, 1, 55.00000000000000000, #308 ) ;
#265 = DIRECTION ( 'NONE',  ( 1.000000000000000000, 0.000000000000000000, 0.000000000000000000 ) ) ;
#266 = ADVANCED_BREP_SHAPE_REPRESENTATION ( '0042', ( #36, #230 ), #183 ) ;
#267 = VERTEX_POINT ( 'NONE', #26 ) ;
#268 = DIRECTION ( 'NONE',  ( 0.000000000000000000, -1.000000000000000000, 0.000000000000000000 ) ) ;
#269 = CARTESIAN_POINT ( 'NONE',  ( 0.000000000000000000, 0.000000000000000000, -6.000000000000000000 ) ) ;
#270 = AXIS2_PLACEMENT_3D ( 'NONE', #290, #194, #133 ) ;
#271 = DIRECTION ( 'NONE',  ( 1.224646799147353207E-16, 1.000000000000000000, 0.000000000000000000 ) ) ;
#272 = APPROVAL_ROLE ( '' ) ;
#273 = ORIENTED_EDGE ( 'NONE', *, *, #389, .T. ) ;
#274 = PRODUCT_DEFINITION ( 'NEZNÁMÝ', '', #327, #293 ) ;
#275 = CIRCLE ( 'NONE', #235, 9.000000000000000000 ) ;
#276 = APPROVAL_PERSON_ORGANIZATION ( #90, #406, #223 ) ;
#277 = PERSON_AND_ORGANIZATION ( #197, #56 ) ;
#278 = ORIENTED_EDGE ( 'NONE', *, *, #241, .T. ) ;
#279 = DIRECTION ( 'NONE',  ( -1.000000000000000000, 0.000000000000000000, 0.000000000000000000 ) ) ;
#280 = EDGE_LOOP ( 'NONE', ( #164, #278, #356, #110 ) ) ;
#281 = CARTESIAN_POINT ( 'NONE',  ( 0.000000000000000000, 0.000000000000000000, -5.500000000000000000 ) ) ;
#282 = PERSON_AND_ORGANIZATION_ROLE ( 'design_owner' ) ;
#283 = DIRECTION ( 'NONE',  ( -1.000000000000000000, 0.000000000000000000, -0.000000000000000000 ) ) ;
#284 = ORIENTED_EDGE ( 'NONE', *, *, #39, .F. ) ;
#285 = CARTESIAN_POINT ( 'NONE',  ( 0.000000000000000000, 0.000000000000000000, 0.000000000000000000 ) ) ;
#286 = LINE ( 'NONE', #132, #31 ) ;
#287 = EDGE_CURVE ( 'NONE', #211, #267, #147, .T. ) ;
#288 = TOROIDAL_SURFACE ( 'NONE', #383, 9.000000000000000000, 0.5000000000000000000 ) ;
#289 = CIRCLE ( 'NONE', #367, 11.00000000000000178 ) ;
#290 = CARTESIAN_POINT ( 'NONE',  ( 0.000000000000000000, 0.000000000000000000, -5.500000000000000000 ) ) ;
#291 = PRODUCT ( '0042', '0042', '', ( #333 ) ) ;
#292 = DIRECTION ( 'NONE',  ( 1.000000000000000000, 0.000000000000000000, 0.000000000000000000 ) ) ;
#293 = DESIGN_CONTEXT ( 'detailed design', #9, 'design' ) ;
#294 = AXIS2_PLACEMENT_3D ( 'NONE', #247, #121, #2 ) ;
#295 = DIRECTION ( 'NONE',  ( -0.000000000000000000, -0.000000000000000000, 1.000000000000000000 ) ) ;
#296 = ORIENTED_EDGE ( 'NONE', *, *, #227, .T. ) ;
#297 = ORIENTED_EDGE ( 'NONE', *, *, #193, .T. ) ;
#298 = ADVANCED_FACE ( 'NONE', ( #228 ), #325, .F. ) ;
#299 = CARTESIAN_POINT ( 'NONE',  ( -9.000000000000000000, 0.000000000000000000, -5.500000000000000000 ) ) ;
#300 = CARTESIAN_POINT ( 'NONE',  ( 8.499999999999998224, 0.000000000000000000, -5.500000000000000000 ) ) ;
#301 = DIRECTION ( 'NONE',  ( 0.000000000000000000, 0.000000000000000000, -1.000000000000000000 ) ) ;
#302 = DIRECTION ( 'NONE',  ( -1.000000000000000000, 0.000000000000000000, 0.000000000000000000 ) ) ;
#303 = AXIS2_PLACEMENT_3D ( 'NONE', #44, #271, #118 ) ;
#304 = DIRECTION ( 'NONE',  ( 1.000000000000000000, 0.000000000000000000, 0.000000000000000000 ) ) ;
#305 = VERTEX_POINT ( 'NONE', #64 ) ;
#306 = DIRECTION ( 'NONE',  ( -0.000000000000000000, -0.000000000000000000, 1.000000000000000000 ) ) ;
#307 = ADVANCED_FACE ( 'NONE', ( #353 ), #386, .T. ) ;
#308 = COORDINATED_UNIVERSAL_TIME_OFFSET ( 1, 0, .AHEAD. ) ;
#309 = ORIENTED_EDGE ( 'NONE', *, *, #229, .T. ) ;
#310 = CARTESIAN_POINT ( 'NONE',  ( 11.00000000000000178, 0.000000000000000000, 0.000000000000000000 ) ) ;
#311 = SECURITY_CLASSIFICATION ( '', '', #372 ) ;
#312 =( LENGTH_UNIT ( ) NAMED_UNIT ( * ) SI_UNIT ( .MILLI., .METRE. ) );
#313 = DIRECTION ( 'NONE',  ( -1.224646799147353207E-16, 1.000000000000000000, 0.000000000000000000 ) ) ;
#314 = DIRECTION ( 'NONE',  ( -0.000000000000000000, -0.000000000000000000, 1.000000000000000000 ) ) ;
#315 = PERSON_AND_ORGANIZATION ( #197, #56 ) ;
#316 = EDGE_LOOP ( 'NONE', ( #224, #128, #204, #408 ) ) ;
#317 = DIRECTION ( 'NONE',  ( -1.000000000000000000, 0.000000000000000000, 0.000000000000000000 ) ) ;
#318 = ORIENTED_EDGE ( 'NONE', *, *, #112, .T. ) ;
#319 = EDGE_CURVE ( 'NONE', #117, #74, #19, .T. ) ;
#320 = FACE_OUTER_BOUND ( 'NONE', #179, .T. ) ;
#321 = VECTOR ( 'NONE', #101, 1000.000000000000000 ) ;
#322 = CC_DESIGN_PERSON_AND_ORGANIZATION_ASSIGNMENT ( #375, #30, ( #327 ) ) ;
#323 = AXIS2_PLACEMENT_3D ( 'NONE', #374, #306, #222 ) ;
#324 = DIRECTION ( 'NONE',  ( -0.000000000000000000, -1.000000000000000000, -0.000000000000000000 ) ) ;
#325 = TOROIDAL_SURFACE ( 'NONE', #270, 9.000000000000000000, 0.5000000000000000000 ) ;
#326 = CARTESIAN_POINT ( 'NONE',  ( 0.000000000000000000, 0.000000000000000000, -0.5000000000000022204 ) ) ;
#327 = PRODUCT_DEFINITION_FORMATION_WITH_SPECIFIED_SOURCE ( 'LIBOVOLNÝ', '', #291, .NOT_KNOWN. ) ;
#328 = CARTESIAN_POINT ( 'NONE',  ( 9.000000000000000000, 0.000000000000000000, -6.000000000000000000 ) ) ;
#329 = CC_DESIGN_PERSON_AND_ORGANIZATION_ASSIGNMENT ( #84, #160, ( #311 ) ) ;
#330 = DIRECTION ( 'NONE',  ( -0.000000000000000000, -0.000000000000000000, 1.000000000000000000 ) ) ;
#331 = DIRECTION ( 'NONE',  ( -1.000000000000000000, 0.000000000000000000, 0.000000000000000000 ) ) ;
#332 = AXIS2_PLACEMENT_3D ( 'NONE', #212, #124, #283 ) ;
#333 = MECHANICAL_CONTEXT ( 'NONE', #202, 'mechanical' ) ;
#334 = ORIENTED_EDGE ( 'NONE', *, *, #371, .F. ) ;
#335 = CARTESIAN_POINT ( 'NONE',  ( 0.000000000000000000, 0.000000000000000000, 0.000000000000000000 ) ) ;
#336 = EDGE_LOOP ( 'NONE', ( #252, #233 ) ) ;
#337 = DIRECTION ( 'NONE',  ( -0.000000000000000000, -0.000000000000000000, 1.000000000000000000 ) ) ;
#338 = APPLICATION_PROTOCOL_DEFINITION ( 'international standard', 'config_control_design', 1994, #202 ) ;
#339 = ORIENTED_EDGE ( 'NONE', *, *, #12, .T. ) ;
#340 = CARTESIAN_POINT ( 'NONE',  ( -11.00000000000000000, 1.347111479062088602E-15, -5.000000000000000000 ) ) ;
#341 = APPROVAL_STATUS ( 'not_yet_approved' ) ;
#342 = ORIENTED_EDGE ( 'NONE', *, *, #227, .F. ) ;
#343 = ADVANCED_FACE ( 'NONE', ( #393 ), #397, .T. ) ;
#344 = CARTESIAN_POINT ( 'NONE',  ( 0.000000000000000000, 0.000000000000000000, 0.000000000000000000 ) ) ;
#345 = ORIENTED_EDGE ( 'NONE', *, *, #43, .T. ) ;
#346 = CARTESIAN_POINT ( 'NONE',  ( 0.000000000000000000, 0.000000000000000000, -5.000000000000000000 ) ) ;
#347 = CARTESIAN_POINT ( 'NONE',  ( -9.000000000000000000, 1.102182119232617714E-15, -6.000000000000000000 ) ) ;
#348 = EDGE_CURVE ( 'NONE', #17, #23, #350, .T. ) ;
#349 = EDGE_CURVE ( 'NONE', #376, #211, #357, .T. ) ;
#350 = CIRCLE ( 'NONE', #135, 9.000000000000000000 ) ;
#351 = AXIS2_PLACEMENT_3D ( 'NONE', #205, #21, #265 ) ;
#352 = VECTOR ( 'NONE', #295, 1000.000000000000000 ) ;
#353 = FACE_OUTER_BOUND ( 'NONE', #134, .T. ) ;
#354 = CARTESIAN_POINT ( 'NONE',  ( 9.000000000000000000, 0.000000000000000000, 0.000000000000000000 ) ) ;
#355 = DIRECTION ( 'NONE',  ( 0.000000000000000000, 0.000000000000000000, -1.000000000000000000 ) ) ;
#356 = ORIENTED_EDGE ( 'NONE', *, *, #200, .T. ) ;
#357 = CIRCLE ( 'NONE', #98, 0.5000000000000004441 ) ;
#358 = CARTESIAN_POINT ( 'NONE',  ( 0.000000000000000000, 0.000000000000000000, 0.000000000000000000 ) ) ;
#359 = ORIENTED_EDGE ( 'NONE', *, *, #319, .F. ) ;
#360 = LINE ( 'NONE', #105, #137 ) ;
#361 = APPROVAL ( #119, 'NEURÈENÝ' ) ;
#362 = CARTESIAN_POINT ( 'NONE',  ( -8.499999999999998224, 1.071565949253933927E-15, -5.500000000000000000 ) ) ;
#363 = AXIS2_PLACEMENT_3D ( 'NONE', #171, #14, #143 ) ;
#364 = DIRECTION ( 'NONE',  ( -0.000000000000000000, -0.000000000000000000, 1.000000000000000000 ) ) ;
#365 = CONICAL_SURFACE ( 'NONE', #168, 10.49999999999999467, 0.7853981633974517207 ) ;
#366 = PLANE ( 'NONE',  #33 ) ;
#367 = AXIS2_PLACEMENT_3D ( 'NONE', #70, #395, #203 ) ;
#368 = CALENDAR_DATE ( 2024, 3, 1 ) ;
#369 = VERTEX_POINT ( 'NONE', #199 ) ;
#370 = DIRECTION ( 'NONE',  ( -0.000000000000000000, -0.000000000000000000, 1.000000000000000000 ) ) ;
#371 = EDGE_CURVE ( 'NONE', #74, #117, #289, .T. ) ;
#372 = SECURITY_CLASSIFICATION_LEVEL ( 'unclassified' ) ;
#373 = ORIENTED_EDGE ( 'NONE', *, *, #195, .T. ) ;
#374 = CARTESIAN_POINT ( 'NONE',  ( 0.000000000000000000, 0.000000000000000000, -5.500000000000000000 ) ) ;
#375 = PERSON_AND_ORGANIZATION ( #197, #56 ) ;
#376 = VERTEX_POINT ( 'NONE', #362 ) ;
#377 = DIRECTION ( 'NONE',  ( 1.000000000000000000, 0.000000000000000000, 0.000000000000000000 ) ) ;
#378 = ADVANCED_FACE ( 'NONE', ( #138 ), #263, .T. ) ;
#379 = AXIS2_PLACEMENT_3D ( 'NONE', #285, #314, #24 ) ;
#380 = VERTEX_POINT ( 'NONE', #100 ) ;
#381 = FACE_OUTER_BOUND ( 'NONE', #157, .T. ) ;
#382 = DIRECTION ( 'NONE',  ( -0.7071067811865500152, 0.000000000000000000, -0.7071067811865451302 ) ) ;
#383 = AXIS2_PLACEMENT_3D ( 'NONE', #281, #253, #279 ) ;
#384 = CC_DESIGN_APPROVAL ( #361, ( #311 ) ) ;
#385 = ORIENTED_EDGE ( 'NONE', *, *, #229, .F. ) ;
#386 = PLANE ( 'NONE',  #89 ) ;
#387 = CIRCLE ( 'NONE', #67, 9.000000000000000000 ) ;
#388 = CIRCLE ( 'NONE', #207, 11.00000000000000000 ) ;
#389 = EDGE_CURVE ( 'NONE', #305, #23, #108, .T. ) ;
#390 = AXIS2_PLACEMENT_3D ( 'NONE', #391, #38, #170 ) ;
#391 = CARTESIAN_POINT ( 'NONE',  ( 0.000000000000000000, 0.000000000000000000, 0.000000000000000000 ) ) ;
#392 = EDGE_CURVE ( 'NONE', #144, #117, #13, .T. ) ;
#393 = FACE_OUTER_BOUND ( 'NONE', #28, .T. ) ;
#394 = ORIENTED_EDGE ( 'NONE', *, *, #200, .F. ) ;
#395 = DIRECTION ( 'NONE',  ( 0.000000000000000000, 0.000000000000000000, -1.000000000000000000 ) ) ;
#396 = EDGE_CURVE ( 'NONE', #369, #17, #399, .T. ) ;
#397 = CYLINDRICAL_SURFACE ( 'NONE', #243, 9.000000000000000000 ) ;
#398 = CARTESIAN_POINT ( 'NONE',  ( 0.000000000000000000, 0.000000000000000000, -5.500000000000000000 ) ) ;
#399 = LINE ( 'NONE', #122, #40 ) ;
#400 = FACE_OUTER_BOUND ( 'NONE', #189, .T. ) ;
#401 = CALENDAR_DATE ( 2024, 3, 1 ) ;
#402 = EDGE_LOOP ( 'NONE', ( #191, #404 ) ) ;
#403 = DIRECTION ( 'NONE',  ( -1.000000000000000000, 0.000000000000000000, -0.000000000000000000 ) ) ;
#404 = ORIENTED_EDGE ( 'NONE', *, *, #73, .T. ) ;
#405 = DIRECTION ( 'NONE',  ( -1.000000000000000000, 0.000000000000000000, 0.000000000000000000 ) ) ;
#406 = APPROVAL ( #153, 'NEURÈENÝ' ) ;
#407 = PERSON_AND_ORGANIZATION_ROLE ( 'creator' ) ;
#408 = ORIENTED_EDGE ( 'NONE', *, *, #73, .F. ) ;
#409 = CYLINDRICAL_SURFACE ( 'NONE', #182, 9.000000000000000000 ) ;
ENDSEC;
END-ISO-10303-21;
