ISO-10303-21;
HEADER;
FILE_DESCRIPTION (( 'STEP AP203' ),
    '1' );
FILE_NAME ('84fd.STEP',
    '2024-01-02T21:51:40',
    ( '' ),
    ( '' ),
    'SwSTEP 2.0',
    'SolidWorks 2019',
    '' );
FILE_SCHEMA (( 'CONFIG_CONTROL_DESIGN' ));
ENDSEC;

DATA;
#1 = DIRECTION ( 'NONE',  ( -1.000000000000000000, 0.000000000000000000, -0.000000000000000000 ) ) ;
#2 = TOROIDAL_SURFACE ( 'NONE', #187, 9.000000000000000000, 0.5000000000000000000 ) ;
#3 = CARTESIAN_POINT ( 'NONE',  ( -9.000000000000000000, 1.102182119232617714E-15, -5.500000000000000000 ) ) ;
#4 = EDGE_CURVE ( 'NONE', #353, #166, #64, .T. ) ;
#5 = TOROIDAL_SURFACE ( 'NONE', #12, 9.000000000000000000, 0.5000000000000000000 ) ;
#6 = DIRECTION ( 'NONE',  ( 0.000000000000000000, -1.000000000000000000, 0.000000000000000000 ) ) ;
#7 = CARTESIAN_POINT ( 'NONE',  ( 0.000000000000000000, 11.00000000000000000, -5.000000000000000000 ) ) ;
#8 = DIRECTION ( 'NONE',  ( 1.000000000000000000, 0.000000000000000000, 0.000000000000000000 ) ) ;
#9 = EDGE_CURVE ( 'NONE', #146, #359, #379, .T. ) ;
#10 = LOCAL_TIME ( 22, 51, 40.00000000000000000, #366 ) ;
#11 = DIRECTION ( 'NONE',  ( 0.000000000000000000, 0.000000000000000000, -1.000000000000000000 ) ) ;
#12 = AXIS2_PLACEMENT_3D ( 'NONE', #14, #45, #106 ) ;
#13 = ORIENTED_EDGE ( 'NONE', *, *, #93, .T. ) ;
#14 = CARTESIAN_POINT ( 'NONE',  ( 0.000000000000000000, 0.000000000000000000, -5.500000000000000000 ) ) ;
#15 = ORIENTED_EDGE ( 'NONE', *, *, #221, .F. ) ;
#16 = ADVANCED_FACE ( 'NONE', ( #333 ), #28, .T. ) ;
#17 = PRODUCT_DEFINITION_SHAPE ( 'NONE', 'NONE',  #125 ) ;
#18 = EDGE_LOOP ( 'NONE', ( #193, #109, #402, #288 ) ) ;
#19 = EDGE_CURVE ( 'NONE', #84, #21, #60, .T. ) ;
#20 = APPLICATION_PROTOCOL_DEFINITION ( 'international standard', 'config_control_design', 1994, #282 ) ;
#21 = VERTEX_POINT ( 'NONE', #212 ) ;
#22 = AXIS2_PLACEMENT_3D ( 'NONE', #67, #186, #316 ) ;
#23 = SHAPE_DEFINITION_REPRESENTATION ( #17, #229 ) ;
#24 = DIRECTION ( 'NONE',  ( 1.000000000000000000, 0.000000000000000000, 0.000000000000000000 ) ) ;
#25 = APPROVAL ( #201, 'NEURÈENÝ' ) ;
#26 = DATE_TIME_ROLE ( 'creation_date' ) ;
#27 = AXIS2_PLACEMENT_3D ( 'NONE', #90, #149, #112 ) ;
#28 = CYLINDRICAL_SURFACE ( 'NONE', #27, 11.00000000000000178 ) ;
#29 = PERSON_AND_ORGANIZATION_ROLE ( 'design_owner' ) ;
#30 = CYLINDRICAL_SURFACE ( 'NONE', #368, 11.00000000000000178 ) ;
#31 = PRODUCT_DEFINITION_FORMATION_WITH_SPECIFIED_SOURCE ( 'LIBOVOLNÝ', '', #314, .NOT_KNOWN. ) ;
#32 = CALENDAR_DATE ( 2024, 2, 1 ) ;
#33 = ORIENTED_EDGE ( 'NONE', *, *, #341, .F. ) ;
#34 = CC_DESIGN_PERSON_AND_ORGANIZATION_ASSIGNMENT ( #169, #208, ( #31 ) ) ;
#35 = DIRECTION ( 'NONE',  ( 0.000000000000000000, 0.000000000000000000, -1.000000000000000000 ) ) ;
#36 = CIRCLE ( 'NONE', #160, 9.000000000000000000 ) ;
#37 = DIRECTION ( 'NONE',  ( 1.224646799147353207E-16, 1.000000000000000000, 0.000000000000000000 ) ) ;
#38 = CIRCLE ( 'NONE', #253, 8.499999999999998224 ) ;
#39 = CARTESIAN_POINT ( 'NONE',  ( 10.50000000000000178, 1.285879139104721028E-15, 0.000000000000000000 ) ) ;
#40 = CARTESIAN_POINT ( 'NONE',  ( 9.000000000000000000, 0.000000000000000000, -5.500000000000000000 ) ) ;
#41 = CARTESIAN_POINT ( 'NONE',  ( 0.000000000000000000, 0.000000000000000000, -5.500000000000000000 ) ) ;
#42 = CIRCLE ( 'NONE', #277, 9.000000000000000000 ) ;
#43 = FACE_OUTER_BOUND ( 'NONE', #257, .T. ) ;
#44 = ADVANCED_FACE ( 'NONE', ( #207 ), #396, .T. ) ;
#45 = DIRECTION ( 'NONE',  ( -0.000000000000000000, -0.000000000000000000, 1.000000000000000000 ) ) ;
#46 = ORIENTED_EDGE ( 'NONE', *, *, #164, .F. ) ;
#47 = CC_DESIGN_PERSON_AND_ORGANIZATION_ASSIGNMENT ( #234, #401, ( #31 ) ) ;
#48 = DIRECTION ( 'NONE',  ( 1.000000000000000000, 0.000000000000000000, 0.000000000000000000 ) ) ;
#49 = CIRCLE ( 'NONE', #222, 0.5000000000000004441 ) ;
#50 = ORIENTED_EDGE ( 'NONE', *, *, #365, .F. ) ;
#51 = ORIENTED_EDGE ( 'NONE', *, *, #372, .F. ) ;
#52 = ORIENTED_EDGE ( 'NONE', *, *, #19, .F. ) ;
#53 = APPROVAL_DATE_TIME ( #330, #25 ) ;
#54 = DIRECTION ( 'NONE',  ( -1.000000000000000000, 0.000000000000000000, 0.000000000000000000 ) ) ;
#55 = AXIS2_PLACEMENT_3D ( 'NONE', #189, #350, #48 ) ;
#56 = DIRECTION ( 'NONE',  ( 0.000000000000000000, -0.000000000000000000, 1.000000000000000000 ) ) ;
#57 = DESIGN_CONTEXT ( 'detailed design', #218, 'design' ) ;
#58 = CALENDAR_DATE ( 2024, 2, 1 ) ;
#59 = ORIENTED_EDGE ( 'NONE', *, *, #133, .F. ) ;
#60 = LINE ( 'NONE', #300, #192 ) ;
#61 = CIRCLE ( 'NONE', #289, 10.50000000000000178 ) ;
#62 = APPROVAL_DATE_TIME ( #117, #335 ) ;
#63 = LINE ( 'NONE', #322, #337 ) ;
#64 = CIRCLE ( 'NONE', #92, 9.000000000000000000 ) ;
#65 = CARTESIAN_POINT ( 'NONE',  ( -11.00000000000000178, 1.347111479062088602E-15, 0.000000000000000000 ) ) ;
#66 = DIRECTION ( 'NONE',  ( 1.000000000000000000, 0.000000000000000000, 0.000000000000000000 ) ) ;
#67 = CARTESIAN_POINT ( 'NONE',  ( 0.000000000000000000, 0.000000000000000000, 0.000000000000000000 ) ) ;
#68 = DIRECTION ( 'NONE',  ( 1.000000000000000000, 0.000000000000000000, 0.000000000000000000 ) ) ;
#69 =( GEOMETRIC_REPRESENTATION_CONTEXT ( 3 ) GLOBAL_UNCERTAINTY_ASSIGNED_CONTEXT ( ( #265 ) ) GLOBAL_UNIT_ASSIGNED_CONTEXT ( ( #325, #292, #258 ) ) REPRESENTATION_CONTEXT ( 'NONE', 'WORKASPACE' ) );
#70 = LINE ( 'NONE', #286, #180 ) ;
#71 = LINE ( 'NONE', #161, #344 ) ;
#72 = AXIS2_PLACEMENT_3D ( 'NONE', #370, #178, #118 ) ;
#73 = CIRCLE ( 'NONE', #72, 11.00000000000000000 ) ;
#74 = DIRECTION ( 'NONE',  ( 1.000000000000000000, 0.000000000000000000, 0.000000000000000000 ) ) ;
#75 = CC_DESIGN_PERSON_AND_ORGANIZATION_ASSIGNMENT ( #268, #302, ( #125 ) ) ;
#76 = DIRECTION ( 'NONE',  ( 1.000000000000000000, 0.000000000000000000, 0.000000000000000000 ) ) ;
#77 = EDGE_LOOP ( 'NONE', ( #59, #173, #80, #406 ) ) ;
#78 = VERTEX_POINT ( 'NONE', #88 ) ;
#79 = PERSON_AND_ORGANIZATION ( #119, #323 ) ;
#80 = ORIENTED_EDGE ( 'NONE', *, *, #345, .T. ) ;
#81 = EDGE_CURVE ( 'NONE', #21, #373, #36, .T. ) ;
#82 = ORIENTED_EDGE ( 'NONE', *, *, #324, .T. ) ;
#83 = AXIS2_PLACEMENT_3D ( 'NONE', #387, #320, #165 ) ;
#84 = VERTEX_POINT ( 'NONE', #210 ) ;
#85 = CARTESIAN_POINT ( 'NONE',  ( 0.000000000000000000, 0.000000000000000000, -5.000000000000000000 ) ) ;
#86 = ADVANCED_FACE ( 'NONE', ( #305 ), #30, .T. ) ;
#87 = COORDINATED_UNIVERSAL_TIME_OFFSET ( 1, 0, .AHEAD. ) ;
#88 = CARTESIAN_POINT ( 'NONE',  ( -11.00000000000000000, 1.347111479062088602E-15, -5.000000000000000000 ) ) ;
#89 = CONICAL_SURFACE ( 'NONE', #318, 10.50000000000000178, 0.7853981633974447263 ) ;
#90 = CARTESIAN_POINT ( 'NONE',  ( 0.000000000000000000, 0.000000000000000000, 0.000000000000000000 ) ) ;
#91 = DIRECTION ( 'NONE',  ( -1.224646799147353207E-16, 1.000000000000000000, 0.000000000000000000 ) ) ;
#92 = AXIS2_PLACEMENT_3D ( 'NONE', #85, #264, #331 ) ;
#93 = EDGE_CURVE ( 'NONE', #78, #137, #73, .T. ) ;
#94 = DIRECTION ( 'NONE',  ( 0.000000000000000000, 0.000000000000000000, -1.000000000000000000 ) ) ;
#95 = CYLINDRICAL_SURFACE ( 'NONE', #334, 9.000000000000000000 ) ;
#96 = ADVANCED_FACE ( 'NONE', ( #339 ), #2, .F. ) ;
#97 = CARTESIAN_POINT ( 'NONE',  ( 11.00000000000000000, 0.000000000000000000, -5.000000000000000000 ) ) ;
#98 = DIRECTION ( 'NONE',  ( -0.000000000000000000, -0.000000000000000000, 1.000000000000000000 ) ) ;
#99 = CIRCLE ( 'NONE', #211, 11.00000000000000178 ) ;
#100 = DIRECTION ( 'NONE',  ( -1.000000000000000000, 0.000000000000000000, 0.000000000000000000 ) ) ;
#101 = EDGE_LOOP ( 'NONE', ( #82, #303, #50, #294 ) ) ;
#102 = CARTESIAN_POINT ( 'NONE',  ( 9.000000000000000000, 1.102182119232617714E-15, -4.999999999999999112 ) ) ;
#103 = EDGE_LOOP ( 'NONE', ( #240, #367, #51, #162 ) ) ;
#104 = DIRECTION ( 'NONE',  ( -0.000000000000000000, -0.000000000000000000, 1.000000000000000000 ) ) ;
#105 = EDGE_LOOP ( 'NONE', ( #327, #255, #326, #364 ) ) ;
#106 = DIRECTION ( 'NONE',  ( 1.000000000000000000, 0.000000000000000000, 0.000000000000000000 ) ) ;
#107 = AXIS2_PLACEMENT_3D ( 'NONE', #343, #250, #66 ) ;
#108 = SECURITY_CLASSIFICATION ( '', '', #113 ) ;
#109 = ORIENTED_EDGE ( 'NONE', *, *, #274, .T. ) ;
#110 = ADVANCED_FACE ( 'NONE', ( #181 ), #95, .T. ) ;
#111 = VERTEX_POINT ( 'NONE', #375 ) ;
#112 = DIRECTION ( 'NONE',  ( 1.000000000000000000, 0.000000000000000000, 0.000000000000000000 ) ) ;
#113 = SECURITY_CLASSIFICATION_LEVEL ( 'unclassified' ) ;
#114 = DIRECTION ( 'NONE',  ( -0.000000000000000000, -0.000000000000000000, 1.000000000000000000 ) ) ;
#115 = APPROVAL_ROLE ( '' ) ;
#116 = ORIENTED_EDGE ( 'NONE', *, *, #81, .T. ) ;
#117 = DATE_AND_TIME ( #32, #307 ) ;
#118 = DIRECTION ( 'NONE',  ( 1.000000000000000000, 0.000000000000000000, 0.000000000000000000 ) ) ;
#119 = PERSON ( 'NEURÈENÝ', 'NEURÈENÝ', 'NEURÈENÝ', ('NEURÈENÝ'), ('NEURÈENÝ'), ('NEURÈENÝ') ) ;
#120 = ORIENTED_EDGE ( 'NONE', *, *, #321, .T. ) ;
#121 = CIRCLE ( 'NONE', #163, 9.000000000000000000 ) ;
#122 = CARTESIAN_POINT ( 'NONE',  ( -8.499999999999998224, 1.071565949253933927E-15, -5.500000000000000000 ) ) ;
#123 = DIRECTION ( 'NONE',  ( -1.000000000000000000, 0.000000000000000000, 0.000000000000000000 ) ) ;
#124 = DIRECTION ( 'NONE',  ( -1.000000000000000000, 1.224646799147353454E-16, 0.000000000000000000 ) ) ;
#125 = PRODUCT_DEFINITION ( 'NEZNÁMÝ', '', #31, #57 ) ;
#126 = CC_DESIGN_APPROVAL ( #335, ( #31 ) ) ;
#127 = DIRECTION ( 'NONE',  ( 0.000000000000000000, 0.000000000000000000, -1.000000000000000000 ) ) ;
#128 = CARTESIAN_POINT ( 'NONE',  ( 0.000000000000000000, 0.000000000000000000, -0.5000000000000023315 ) ) ;
#129 = DIRECTION ( 'NONE',  ( -0.000000000000000000, -1.000000000000000000, -0.000000000000000000 ) ) ;
#130 = ORIENTED_EDGE ( 'NONE', *, *, #301, .T. ) ;
#131 = AXIS2_PLACEMENT_3D ( 'NONE', #7, #380, #340 ) ;
#132 = DIRECTION ( 'NONE',  ( -0.000000000000000000, -0.000000000000000000, 1.000000000000000000 ) ) ;
#133 = EDGE_CURVE ( 'NONE', #146, #111, #185, .T. ) ;
#134 = ORIENTED_EDGE ( 'NONE', *, *, #284, .T. ) ;
#135 = FACE_OUTER_BOUND ( 'NONE', #171, .T. ) ;
#136 = EDGE_LOOP ( 'NONE', ( #388, #168, #116, #46 ) ) ;
#137 = VERTEX_POINT ( 'NONE', #97 ) ;
#138 = EDGE_CURVE ( 'NONE', #359, #146, #61, .T. ) ;
#139 = CIRCLE ( 'NONE', #281, 11.00000000000000178 ) ;
#140 = ORIENTED_EDGE ( 'NONE', *, *, #4, .T. ) ;
#141 = DATE_TIME_ROLE ( 'classification_date' ) ;
#142 = ORIENTED_EDGE ( 'NONE', *, *, #263, .F. ) ;
#143 = PERSON_AND_ORGANIZATION ( #119, #323 ) ;
#144 = CARTESIAN_POINT ( 'NONE',  ( 0.000000000000000000, 0.000000000000000000, 0.000000000000000000 ) ) ;
#145 = CALENDAR_DATE ( 2024, 2, 1 ) ;
#146 = VERTEX_POINT ( 'NONE', #311 ) ;
#147 = APPROVAL_PERSON_ORGANIZATION ( #306, #25, #328 ) ;
#148 = PERSON_AND_ORGANIZATION ( #119, #323 ) ;
#149 = DIRECTION ( 'NONE',  ( -0.000000000000000000, -0.000000000000000000, 1.000000000000000000 ) ) ;
#150 = DIRECTION ( 'NONE',  ( 1.000000000000000000, 0.000000000000000000, 0.000000000000000000 ) ) ;
#151 = APPROVAL_PERSON_ORGANIZATION ( #403, #209, #115 ) ;
#152 = CIRCLE ( 'NONE', #107, 9.000000000000000000 ) ;
#153 = CARTESIAN_POINT ( 'NONE',  ( 0.000000000000000000, 9.000000000000000000, -22.50000000000000000 ) ) ;
#154 = CARTESIAN_POINT ( 'NONE',  ( -9.000000000000000000, 0.000000000000000000, -4.999999999999999112 ) ) ;
#155 = ADVANCED_FACE ( 'NONE', ( #244 ), #374, .T. ) ;
#156 = DIRECTION ( 'NONE',  ( 1.000000000000000000, 0.000000000000000000, 0.000000000000000000 ) ) ;
#157 = DIRECTION ( 'NONE',  ( -1.000000000000000000, -1.224646799147353454E-16, 0.000000000000000000 ) ) ;
#158 = CARTESIAN_POINT ( 'NONE',  ( 0.000000000000000000, 0.000000000000000000, -5.500000000000000000 ) ) ;
#159 = ORIENTED_EDGE ( 'NONE', *, *, #138, .T. ) ;
#160 = AXIS2_PLACEMENT_3D ( 'NONE', #203, #114, #24 ) ;
#161 = CARTESIAN_POINT ( 'NONE',  ( -10.50000000000000178, 0.000000000000000000, 0.000000000000000000 ) ) ;
#162 = ORIENTED_EDGE ( 'NONE', *, *, #345, .F. ) ;
#163 = AXIS2_PLACEMENT_3D ( 'NONE', #225, #390, #100 ) ;
#164 = EDGE_CURVE ( 'NONE', #259, #373, #49, .T. ) ;
#165 = DIRECTION ( 'NONE',  ( 1.000000000000000000, 0.000000000000000000, 0.000000000000000000 ) ) ;
#166 = VERTEX_POINT ( 'NONE', #154 ) ;
#167 = FACE_OUTER_BOUND ( 'NONE', #136, .T. ) ;
#168 = ORIENTED_EDGE ( 'NONE', *, *, #175, .T. ) ;
#169 = PERSON_AND_ORGANIZATION ( #119, #323 ) ;
#170 = TOROIDAL_SURFACE ( 'NONE', #269, 9.000000000000000000, 0.5000000000000000000 ) ;
#171 = EDGE_LOOP ( 'NONE', ( #394, #196, #398, #237 ) ) ;
#172 = PERSON_AND_ORGANIZATION_ROLE ( 'classification_officer' ) ;
#173 = ORIENTED_EDGE ( 'NONE', *, *, #138, .F. ) ;
#174 = CLOSED_SHELL ( 'NONE', ( #219, #96, #358, #389, #86, #155, #44, #16, #297, #110, #386, #197, #271 ) ) ;
#175 = EDGE_CURVE ( 'NONE', #198, #21, #202, .T. ) ;
#176 = CARTESIAN_POINT ( 'NONE',  ( 0.000000000000000000, 0.000000000000000000, 0.000000000000000000 ) ) ;
#177 = COORDINATED_UNIVERSAL_TIME_OFFSET ( 1, 0, .AHEAD. ) ;
#178 = DIRECTION ( 'NONE',  ( -0.000000000000000000, -0.000000000000000000, 1.000000000000000000 ) ) ;
#179 = CC_DESIGN_APPROVAL ( #25, ( #125 ) ) ;
#180 = VECTOR ( 'NONE', #262, 1000.000000000000000 ) ;
#181 = FACE_OUTER_BOUND ( 'NONE', #383, .T. ) ;
#182 = FACE_OUTER_BOUND ( 'NONE', #103, .T. ) ;
#183 = CARTESIAN_POINT ( 'NONE',  ( 0.000000000000000000, 0.000000000000000000, 0.000000000000000000 ) ) ;
#184 = CIRCLE ( 'NONE', #382, 8.499999999999998224 ) ;
#185 = LINE ( 'NONE', #39, #293 ) ;
#186 = DIRECTION ( 'NONE',  ( 0.000000000000000000, 0.000000000000000000, -1.000000000000000000 ) ) ;
#187 = AXIS2_PLACEMENT_3D ( 'NONE', #309, #35, #54 ) ;
#188 = DIRECTION ( 'NONE',  ( 0.000000000000000000, 0.000000000000000000, -1.000000000000000000 ) ) ;
#189 = CARTESIAN_POINT ( 'NONE',  ( 0.000000000000000000, 0.000000000000000000, -6.000000000000000000 ) ) ;
#190 = CC_DESIGN_PERSON_AND_ORGANIZATION_ASSIGNMENT ( #79, #29, ( #314 ) ) ;
#191 = CARTESIAN_POINT ( 'NONE',  ( 9.000000000000000000, 0.000000000000000000, -6.000000000000000000 ) ) ;
#192 = VECTOR ( 'NONE', #267, 1000.000000000000000 ) ;
#193 = ORIENTED_EDGE ( 'NONE', *, *, #216, .F. ) ;
#194 = EDGE_LOOP ( 'NONE', ( #308, #291, #391, #120 ) ) ;
#195 = LOCAL_TIME ( 22, 51, 40.00000000000000000, #232 ) ;
#196 = ORIENTED_EDGE ( 'NONE', *, *, #19, .T. ) ;
#197 = ADVANCED_FACE ( 'NONE', ( #409 ), #170, .F. ) ;
#198 = VERTEX_POINT ( 'NONE', #122 ) ;
#199 = DIRECTION ( 'NONE',  ( 0.000000000000000000, 0.000000000000000000, 1.000000000000000000 ) ) ;
#200 = EDGE_LOOP ( 'NONE', ( #142, #13, #130, #134 ) ) ;
#201 = APPROVAL_STATUS ( 'not_yet_approved' ) ;
#202 = CIRCLE ( 'NONE', #215, 0.5000000000000004441 ) ;
#203 = CARTESIAN_POINT ( 'NONE',  ( 0.000000000000000000, 0.000000000000000000, -6.000000000000000000 ) ) ;
#204 = CARTESIAN_POINT ( 'NONE',  ( 0.000000000000000000, 0.000000000000000000, 0.000000000000000000 ) ) ;
#205 = EDGE_LOOP ( 'NONE', ( #159, #224 ) ) ;
#206 = MECHANICAL_CONTEXT ( 'NONE', #282, 'mechanical' ) ;
#207 = FACE_OUTER_BOUND ( 'NONE', #205, .T. ) ;
#208 = PERSON_AND_ORGANIZATION_ROLE ( 'design_supplier' ) ;
#209 = APPROVAL ( #338, 'NEURÈENÝ' ) ;
#210 = CARTESIAN_POINT ( 'NONE',  ( -9.000000000000000000, 1.102182119232617714E-15, -22.50000000000000000 ) ) ;
#211 = AXIS2_PLACEMENT_3D ( 'NONE', #290, #228, #8 ) ;
#212 = CARTESIAN_POINT ( 'NONE',  ( -9.000000000000000000, 1.102182119232617714E-15, -6.000000000000000000 ) ) ;
#213 = CARTESIAN_POINT ( 'NONE',  ( 0.000000000000000000, 0.000000000000000000, 0.000000000000000000 ) ) ;
#214 = DIRECTION ( 'NONE',  ( -1.000000000000000000, 0.000000000000000000, 0.000000000000000000 ) ) ;
#215 = AXIS2_PLACEMENT_3D ( 'NONE', #3, #37, #124 ) ;
#216 = EDGE_CURVE ( 'NONE', #259, #353, #236, .T. ) ;
#217 = LINE ( 'NONE', #65, #362 ) ;
#218 = APPLICATION_CONTEXT ( 'configuration controlled 3d designs of mechanical parts and assemblies' ) ;
#219 = ADVANCED_FACE ( 'NONE', ( #182 ), #89, .T. ) ;
#220 = DIRECTION ( 'NONE',  ( 0.000000000000000000, 0.000000000000000000, -1.000000000000000000 ) ) ;
#221 = EDGE_CURVE ( 'NONE', #84, #230, #152, .T. ) ;
#222 = AXIS2_PLACEMENT_3D ( 'NONE', #40, #6, #127 ) ;
#223 = DIRECTION ( 'NONE',  ( 1.000000000000000000, 0.000000000000000000, 0.000000000000000000 ) ) ;
#224 = ORIENTED_EDGE ( 'NONE', *, *, #9, .T. ) ;
#225 = CARTESIAN_POINT ( 'NONE',  ( 0.000000000000000000, 0.000000000000000000, -5.000000000000000000 ) ) ;
#226 = EDGE_LOOP ( 'NONE', ( #33, #15 ) ) ;
#227 = CC_DESIGN_DATE_AND_TIME_ASSIGNMENT ( #397, #141, ( #108 ) ) ;
#228 = DIRECTION ( 'NONE',  ( 0.000000000000000000, 0.000000000000000000, -1.000000000000000000 ) ) ;
#229 = ADVANCED_BREP_SHAPE_REPRESENTATION ( '84fd', ( #261, #298 ), #69 ) ;
#230 = VERTEX_POINT ( 'NONE', #276 ) ;
#231 = APPROVAL_PERSON_ORGANIZATION ( #148, #335, #332 ) ;
#232 = COORDINATED_UNIVERSAL_TIME_OFFSET ( 1, 0, .AHEAD. ) ;
#233 = ORIENTED_EDGE ( 'NONE', *, *, #93, .F. ) ;
#234 = PERSON_AND_ORGANIZATION ( #119, #323 ) ;
#235 = DIRECTION ( 'NONE',  ( -0.000000000000000000, -0.000000000000000000, 1.000000000000000000 ) ) ;
#236 = CIRCLE ( 'NONE', #356, 0.5000000000000004441 ) ;
#237 = ORIENTED_EDGE ( 'NONE', *, *, #313, .F. ) ;
#238 = DIRECTION ( 'NONE',  ( 1.000000000000000000, 0.000000000000000000, 0.000000000000000000 ) ) ;
#239 = DIRECTION ( 'NONE',  ( 1.000000000000000000, 0.000000000000000000, 0.000000000000000000 ) ) ;
#240 = ORIENTED_EDGE ( 'NONE', *, *, #9, .F. ) ;
#241 = VERTEX_POINT ( 'NONE', #315 ) ;
#242 = CIRCLE ( 'NONE', #329, 0.5000000000000004441 ) ;
#243 = CC_DESIGN_APPROVAL ( #209, ( #108 ) ) ;
#244 = FACE_OUTER_BOUND ( 'NONE', #226, .T. ) ;
#245 = AXIS2_PLACEMENT_3D ( 'NONE', #176, #56, #361 ) ;
#246 = CARTESIAN_POINT ( 'NONE',  ( 9.000000000000000000, 1.102182119232617714E-15, -5.500000000000000000 ) ) ;
#247 = CARTESIAN_POINT ( 'NONE',  ( 0.000000000000000000, 0.000000000000000000, -5.500000000000000000 ) ) ;
#248 = CIRCLE ( 'NONE', #312, 11.00000000000000000 ) ;
#249 = DIRECTION ( 'NONE',  ( 1.000000000000000000, 0.000000000000000000, 0.000000000000000000 ) ) ;
#250 = DIRECTION ( 'NONE',  ( -0.000000000000000000, -0.000000000000000000, 1.000000000000000000 ) ) ;
#251 = DIRECTION ( 'NONE',  ( -0.7071067811865450192, 0.000000000000000000, -0.7071067811865500152 ) ) ;
#252 = ORIENTED_EDGE ( 'NONE', *, *, #365, .T. ) ;
#253 = AXIS2_PLACEMENT_3D ( 'NONE', #41, #280, #249 ) ;
#254 = CARTESIAN_POINT ( 'NONE',  ( -10.50000000000000178, 0.000000000000000000, 0.000000000000000000 ) ) ;
#255 = ORIENTED_EDGE ( 'NONE', *, *, #263, .T. ) ;
#256 = CARTESIAN_POINT ( 'NONE',  ( -9.000000000000000000, 0.000000000000000000, -5.500000000000000000 ) ) ;
#257 = EDGE_LOOP ( 'NONE', ( #404, #233 ) ) ;
#258 =( NAMED_UNIT ( * ) SI_UNIT ( $, .STERADIAN. ) SOLID_ANGLE_UNIT ( ) );
#259 = VERTEX_POINT ( 'NONE', #342 ) ;
#260 = AXIS2_PLACEMENT_3D ( 'NONE', #352, #287, #393 ) ;
#261 = MANIFOLD_SOLID_BREP ( 'Zkosení1', #174 ) ;
#262 = DIRECTION ( 'NONE',  ( -0.000000000000000000, -0.000000000000000000, 1.000000000000000000 ) ) ;
#263 = EDGE_CURVE ( 'NONE', #78, #241, #217, .T. ) ;
#264 = DIRECTION ( 'NONE',  ( -0.000000000000000000, -0.000000000000000000, 1.000000000000000000 ) ) ;
#265 = UNCERTAINTY_MEASURE_WITH_UNIT (LENGTH_MEASURE( 1.000000000000000082E-05 ), #325, 'distance_accuracy_value', 'NONE');
#266 = CALENDAR_DATE ( 2024, 2, 1 ) ;
#267 = DIRECTION ( 'NONE',  ( -0.000000000000000000, -0.000000000000000000, 1.000000000000000000 ) ) ;
#268 = PERSON_AND_ORGANIZATION ( #119, #323 ) ;
#269 = AXIS2_PLACEMENT_3D ( 'NONE', #247, #94, #123 ) ;
#270 = DIRECTION ( 'NONE',  ( -0.000000000000000000, -0.000000000000000000, 1.000000000000000000 ) ) ;
#271 = ADVANCED_FACE ( 'NONE', ( #346 ), #407, .T. ) ;
#272 = APPROVAL_STATUS ( 'not_yet_approved' ) ;
#273 = EDGE_LOOP ( 'NONE', ( #252, #140 ) ) ;
#274 = EDGE_CURVE ( 'NONE', #259, #198, #38, .T. ) ;
#275 = ORIENTED_EDGE ( 'NONE', *, *, #221, .T. ) ;
#276 = CARTESIAN_POINT ( 'NONE',  ( 9.000000000000000000, 0.000000000000000000, -22.50000000000000000 ) ) ;
#277 = AXIS2_PLACEMENT_3D ( 'NONE', #319, #104, #74 ) ;
#278 = DIRECTION ( 'NONE',  ( -0.000000000000000000, -0.000000000000000000, 1.000000000000000000 ) ) ;
#279 = DIRECTION ( 'NONE',  ( 0.7071067811865450192, 8.659560562354902043E-17, -0.7071067811865500152 ) ) ;
#280 = DIRECTION ( 'NONE',  ( -0.000000000000000000, -0.000000000000000000, 1.000000000000000000 ) ) ;
#281 = AXIS2_PLACEMENT_3D ( 'NONE', #128, #220, #348 ) ;
#282 = APPLICATION_CONTEXT ( 'configuration controlled 3d designs of mechanical parts and assemblies' ) ;
#283 = LOCAL_TIME ( 22, 51, 40.00000000000000000, #87 ) ;
#284 = EDGE_CURVE ( 'NONE', #111, #241, #139, .T. ) ;
#285 = PLANE ( 'NONE',  #131 ) ;
#286 = CARTESIAN_POINT ( 'NONE',  ( 9.000000000000000000, 0.000000000000000000, 0.000000000000000000 ) ) ;
#287 = DIRECTION ( 'NONE',  ( -0.000000000000000000, -0.000000000000000000, 1.000000000000000000 ) ) ;
#288 = ORIENTED_EDGE ( 'NONE', *, *, #4, .F. ) ;
#289 = AXIS2_PLACEMENT_3D ( 'NONE', #376, #378, #68 ) ;
#290 = CARTESIAN_POINT ( 'NONE',  ( 0.000000000000000000, 0.000000000000000000, -0.5000000000000023315 ) ) ;
#291 = ORIENTED_EDGE ( 'NONE', *, *, #274, .F. ) ;
#292 =( NAMED_UNIT ( * ) PLANE_ANGLE_UNIT ( ) SI_UNIT ( $, .RADIAN. ) );
#293 = VECTOR ( 'NONE', #279, 1000.000000000000000 ) ;
#294 = ORIENTED_EDGE ( 'NONE', *, *, #399, .F. ) ;
#295 = FACE_OUTER_BOUND ( 'NONE', #194, .T. ) ;
#296 = CC_DESIGN_SECURITY_CLASSIFICATION ( #108, ( #31 ) ) ;
#297 = ADVANCED_FACE ( 'NONE', ( #317, #43 ), #285, .T. ) ;
#298 = AXIS2_PLACEMENT_3D ( 'NONE', #204, #199, #239 ) ;
#299 = DATE_AND_TIME ( #357, #283 ) ;
#300 = CARTESIAN_POINT ( 'NONE',  ( -9.000000000000000000, 1.102182119232617714E-15, 0.000000000000000000 ) ) ;
#301 = EDGE_CURVE ( 'NONE', #137, #111, #63, .T. ) ;
#302 = PERSON_AND_ORGANIZATION_ROLE ( 'creator' ) ;
#303 = ORIENTED_EDGE ( 'NONE', *, *, #216, .T. ) ;
#304 = CC_DESIGN_PERSON_AND_ORGANIZATION_ASSIGNMENT ( #143, #172, ( #108 ) ) ;
#305 = FACE_OUTER_BOUND ( 'NONE', #105, .T. ) ;
#306 = PERSON_AND_ORGANIZATION ( #119, #323 ) ;
#307 = LOCAL_TIME ( 22, 51, 40.00000000000000000, #177 ) ;
#308 = ORIENTED_EDGE ( 'NONE', *, *, #175, .F. ) ;
#309 = CARTESIAN_POINT ( 'NONE',  ( 0.000000000000000000, 0.000000000000000000, -5.500000000000000000 ) ) ;
#310 = DIRECTION ( 'NONE',  ( 0.000000000000000000, 0.000000000000000000, -1.000000000000000000 ) ) ;
#311 = CARTESIAN_POINT ( 'NONE',  ( 10.50000000000000178, 1.316495309083404815E-15, 0.000000000000000000 ) ) ;
#312 = AXIS2_PLACEMENT_3D ( 'NONE', #354, #349, #76 ) ;
#313 = EDGE_CURVE ( 'NONE', #230, #373, #70, .T. ) ;
#314 = PRODUCT ( '84fd', '84fd', '', ( #206 ) ) ;
#315 = CARTESIAN_POINT ( 'NONE',  ( -11.00000000000000178, 1.347111479062088602E-15, -0.5000000000000023315 ) ) ;
#316 = DIRECTION ( 'NONE',  ( -1.000000000000000000, 0.000000000000000000, 0.000000000000000000 ) ) ;
#317 = FACE_BOUND ( 'NONE', #273, .T. ) ;
#318 = AXIS2_PLACEMENT_3D ( 'NONE', #213, #188, #214 ) ;
#319 = CARTESIAN_POINT ( 'NONE',  ( 0.000000000000000000, 0.000000000000000000, -22.50000000000000000 ) ) ;
#320 = DIRECTION ( 'NONE',  ( -0.000000000000000000, -0.000000000000000000, 1.000000000000000000 ) ) ;
#321 = EDGE_CURVE ( 'NONE', #373, #21, #392, .T. ) ;
#322 = CARTESIAN_POINT ( 'NONE',  ( 11.00000000000000178, 0.000000000000000000, 0.000000000000000000 ) ) ;
#323 = ORGANIZATION ( 'NEURÈENÝ', 'NEURÈENÝ', '' ) ;
#324 = EDGE_CURVE ( 'NONE', #198, #259, #184, .T. ) ;
#325 =( LENGTH_UNIT ( ) NAMED_UNIT ( * ) SI_UNIT ( .MILLI., .METRE. ) );
#326 = ORIENTED_EDGE ( 'NONE', *, *, #372, .T. ) ;
#327 = ORIENTED_EDGE ( 'NONE', *, *, #408, .T. ) ;
#328 = APPROVAL_ROLE ( '' ) ;
#329 = AXIS2_PLACEMENT_3D ( 'NONE', #256, #129, #11 ) ;
#330 = DATE_AND_TIME ( #145, #377 ) ;
#331 = DIRECTION ( 'NONE',  ( -1.000000000000000000, 0.000000000000000000, 0.000000000000000000 ) ) ;
#332 = APPROVAL_ROLE ( '' ) ;
#333 = FACE_OUTER_BOUND ( 'NONE', #200, .T. ) ;
#334 = AXIS2_PLACEMENT_3D ( 'NONE', #183, #278, #156 ) ;
#335 = APPROVAL ( #272, 'NEURÈENÝ' ) ;
#336 = CARTESIAN_POINT ( 'NONE',  ( 0.000000000000000000, 0.000000000000000000, 0.000000000000000000 ) ) ;
#337 = VECTOR ( 'NONE', #381, 1000.000000000000000 ) ;
#338 = APPROVAL_STATUS ( 'not_yet_approved' ) ;
#339 = FACE_OUTER_BOUND ( 'NONE', #101, .T. ) ;
#340 = DIRECTION ( 'NONE',  ( -1.000000000000000000, 0.000000000000000000, -0.000000000000000000 ) ) ;
#341 = EDGE_CURVE ( 'NONE', #230, #84, #42, .T. ) ;
#342 = CARTESIAN_POINT ( 'NONE',  ( 8.499999999999998224, 0.000000000000000000, -5.500000000000000000 ) ) ;
#343 = CARTESIAN_POINT ( 'NONE',  ( 0.000000000000000000, 0.000000000000000000, -22.50000000000000000 ) ) ;
#344 = VECTOR ( 'NONE', #251, 1000.000000000000000 ) ;
#345 = EDGE_CURVE ( 'NONE', #359, #241, #71, .T. ) ;
#346 = FACE_OUTER_BOUND ( 'NONE', #77, .T. ) ;
#347 = AXIS2_PLACEMENT_3D ( 'NONE', #144, #270, #238 ) ;
#348 = DIRECTION ( 'NONE',  ( 1.000000000000000000, 0.000000000000000000, 0.000000000000000000 ) ) ;
#349 = DIRECTION ( 'NONE',  ( -0.000000000000000000, -0.000000000000000000, 1.000000000000000000 ) ) ;
#350 = DIRECTION ( 'NONE',  ( -0.000000000000000000, -0.000000000000000000, 1.000000000000000000 ) ) ;
#351 = CC_DESIGN_DATE_AND_TIME_ASSIGNMENT ( #369, #26, ( #125 ) ) ;
#352 = CARTESIAN_POINT ( 'NONE',  ( 0.000000000000000000, 0.000000000000000000, 0.000000000000000000 ) ) ;
#353 = VERTEX_POINT ( 'NONE', #102 ) ;
#354 = CARTESIAN_POINT ( 'NONE',  ( 0.000000000000000000, 0.000000000000000000, -5.000000000000000000 ) ) ;
#355 = ORIENTED_EDGE ( 'NONE', *, *, #313, .T. ) ;
#356 = AXIS2_PLACEMENT_3D ( 'NONE', #246, #91, #157 ) ;
#357 = CALENDAR_DATE ( 2024, 2, 1 ) ;
#358 = ADVANCED_FACE ( 'NONE', ( #167 ), #371, .F. ) ;
#359 = VERTEX_POINT ( 'NONE', #254 ) ;
#360 = COORDINATED_UNIVERSAL_TIME_OFFSET ( 1, 0, .AHEAD. ) ;
#361 = DIRECTION ( 'NONE',  ( 1.000000000000000000, 0.000000000000000000, 0.000000000000000000 ) ) ;
#362 = VECTOR ( 'NONE', #98, 1000.000000000000000 ) ;
#363 = APPLICATION_PROTOCOL_DEFINITION ( 'international standard', 'config_control_design', 1994, #218 ) ;
#364 = ORIENTED_EDGE ( 'NONE', *, *, #301, .F. ) ;
#365 = EDGE_CURVE ( 'NONE', #166, #353, #121, .T. ) ;
#366 = COORDINATED_UNIVERSAL_TIME_OFFSET ( 1, 0, .AHEAD. ) ;
#367 = ORIENTED_EDGE ( 'NONE', *, *, #133, .T. ) ;
#368 = AXIS2_PLACEMENT_3D ( 'NONE', #336, #235, #150 ) ;
#369 = DATE_AND_TIME ( #58, #195 ) ;
#370 = CARTESIAN_POINT ( 'NONE',  ( 0.000000000000000000, 0.000000000000000000, -5.000000000000000000 ) ) ;
#371 = TOROIDAL_SURFACE ( 'NONE', #83, 9.000000000000000000, 0.5000000000000000000 ) ;
#372 = EDGE_CURVE ( 'NONE', #241, #111, #99, .T. ) ;
#373 = VERTEX_POINT ( 'NONE', #191 ) ;
#374 = PLANE ( 'NONE',  #400 ) ;
#375 = CARTESIAN_POINT ( 'NONE',  ( 11.00000000000000178, 0.000000000000000000, -0.5000000000000023315 ) ) ;
#376 = CARTESIAN_POINT ( 'NONE',  ( 0.000000000000000000, 0.000000000000000000, 0.000000000000000000 ) ) ;
#377 = LOCAL_TIME ( 22, 51, 40.00000000000000000, #360 ) ;
#378 = DIRECTION ( 'NONE',  ( -0.000000000000000000, -0.000000000000000000, 1.000000000000000000 ) ) ;
#379 = CIRCLE ( 'NONE', #347, 10.50000000000000178 ) ;
#380 = DIRECTION ( 'NONE',  ( 0.000000000000000000, 0.000000000000000000, -1.000000000000000000 ) ) ;
#381 = DIRECTION ( 'NONE',  ( -0.000000000000000000, -0.000000000000000000, 1.000000000000000000 ) ) ;
#382 = AXIS2_PLACEMENT_3D ( 'NONE', #158, #132, #223 ) ;
#383 = EDGE_LOOP ( 'NONE', ( #52, #275, #355, #385 ) ) ;
#384 = CYLINDRICAL_SURFACE ( 'NONE', #260, 9.000000000000000000 ) ;
#385 = ORIENTED_EDGE ( 'NONE', *, *, #81, .F. ) ;
#386 = ADVANCED_FACE ( 'NONE', ( #295 ), #5, .F. ) ;
#387 = CARTESIAN_POINT ( 'NONE',  ( 0.000000000000000000, 0.000000000000000000, -5.500000000000000000 ) ) ;
#388 = ORIENTED_EDGE ( 'NONE', *, *, #324, .F. ) ;
#389 = ADVANCED_FACE ( 'NONE', ( #135 ), #384, .T. ) ;
#390 = DIRECTION ( 'NONE',  ( -0.000000000000000000, -0.000000000000000000, 1.000000000000000000 ) ) ;
#391 = ORIENTED_EDGE ( 'NONE', *, *, #164, .T. ) ;
#392 = CIRCLE ( 'NONE', #55, 9.000000000000000000 ) ;
#393 = DIRECTION ( 'NONE',  ( 1.000000000000000000, 0.000000000000000000, 0.000000000000000000 ) ) ;
#394 = ORIENTED_EDGE ( 'NONE', *, *, #341, .T. ) ;
#395 = APPROVAL_DATE_TIME ( #299, #209 ) ;
#396 = PLANE ( 'NONE',  #245 ) ;
#397 = DATE_AND_TIME ( #266, #10 ) ;
#398 = ORIENTED_EDGE ( 'NONE', *, *, #321, .F. ) ;
#399 = EDGE_CURVE ( 'NONE', #198, #166, #242, .T. ) ;
#400 = AXIS2_PLACEMENT_3D ( 'NONE', #153, #310, #1 ) ;
#401 = PERSON_AND_ORGANIZATION_ROLE ( 'creator' ) ;
#402 = ORIENTED_EDGE ( 'NONE', *, *, #399, .T. ) ;
#403 = PERSON_AND_ORGANIZATION ( #119, #323 ) ;
#404 = ORIENTED_EDGE ( 'NONE', *, *, #408, .F. ) ;
#405 = PRODUCT_RELATED_PRODUCT_CATEGORY ( 'detail', '', ( #314 ) ) ;
#406 = ORIENTED_EDGE ( 'NONE', *, *, #284, .F. ) ;
#407 = CONICAL_SURFACE ( 'NONE', #22, 10.50000000000000178, 0.7853981633974447263 ) ;
#408 = EDGE_CURVE ( 'NONE', #137, #78, #248, .T. ) ;
#409 = FACE_OUTER_BOUND ( 'NONE', #18, .T. ) ;
ENDSEC;
END-ISO-10303-21;
