ISO-10303-21;
HEADER;
FILE_DESCRIPTION (( 'STEP AP203' ),
    '1' );
FILE_NAME ('e392.STEP',
    '2023-01-13T08:56:55',
    ( '' ),
    ( '' ),
    'SwSTEP 2.0',
    'SolidWorks 2019',
    '' );
FILE_SCHEMA (( 'CONFIG_CONTROL_DESIGN' ));
ENDSEC;

DATA;
#1 = EDGE_LOOP ( 'NONE', ( #394, #31, #70, #398 ) ) ;
#2 = CIRCLE ( 'NONE', #170, 0.7000000000000000666 ) ;
#3 = APPROVAL ( #129, 'NEURÈENÝ' ) ;
#4 = LOCAL_TIME ( 9, 56, 55.00000000000000000, #402 ) ;
#5 = CIRCLE ( 'NONE', #404, 0.7000000000000000666 ) ;
#6 = ORIENTED_EDGE ( 'NONE', *, *, #186, .F. ) ;
#7 = DIRECTION ( 'NONE',  ( -0.000000000000000000, -0.000000000000000000, 1.000000000000000000 ) ) ;
#8 = VERTEX_POINT ( 'NONE', #134 ) ;
#9 = FACE_OUTER_BOUND ( 'NONE', #190, .T. ) ;
#10 = APPROVAL_PERSON_ORGANIZATION ( #360, #3, #269 ) ;
#11 = PRODUCT_DEFINITION ( 'NEZNÁMÝ', '', #197, #399 ) ;
#12 = LINE ( 'NONE', #179, #220 ) ;
#13 = AXIS2_PLACEMENT_3D ( 'NONE', #328, #149, #208 ) ;
#14 = DIRECTION ( 'NONE',  ( -0.000000000000000000, -0.000000000000000000, 1.000000000000000000 ) ) ;
#15 = FACE_OUTER_BOUND ( 'NONE', #321, .T. ) ;
#16 = ADVANCED_FACE ( 'NONE', ( #139 ), #35, .T. ) ;
#17 = CARTESIAN_POINT ( 'NONE',  ( 1.000000000000003109, 0.000000000000000000, -81.48038475772935385 ) ) ;
#18 = LOCAL_TIME ( 9, 56, 55.00000000000000000, #306 ) ;
#19 = CARTESIAN_POINT ( 'NONE',  ( 0.000000000000000000, 0.000000000000000000, -2.449293598294705921E-16 ) ) ;
#20 =( NAMED_UNIT ( * ) SI_UNIT ( $, .STERADIAN. ) SOLID_ANGLE_UNIT ( ) );
#21 = AXIS2_PLACEMENT_3D ( 'NONE', #255, #377, #250 ) ;
#22 = CARTESIAN_POINT ( 'NONE',  ( 0.000000000000000000, 0.000000000000000000, 0.000000000000000000 ) ) ;
#23 = CARTESIAN_POINT ( 'NONE',  ( 0.000000000000000000, 0.000000000000000000, -2.000000000000000444 ) ) ;
#24 = CALENDAR_DATE ( 2023, 13, 1 ) ;
#25 = CC_DESIGN_DATE_AND_TIME_ASSIGNMENT ( #367, #66, ( #11 ) ) ;
#26 = PERSON_AND_ORGANIZATION_ROLE ( 'design_supplier' ) ;
#27 = ORIENTED_EDGE ( 'NONE', *, *, #204, .F. ) ;
#28 = DATE_TIME_ROLE ( 'classification_date' ) ;
#29 = CC_DESIGN_PERSON_AND_ORGANIZATION_ASSIGNMENT ( #246, #151, ( #11 ) ) ;
#30 = ORIENTED_EDGE ( 'NONE', *, *, #127, .T. ) ;
#31 = ORIENTED_EDGE ( 'NONE', *, *, #162, .F. ) ;
#32 = CARTESIAN_POINT ( 'NONE',  ( 0.000000000000000000, 0.000000000000000000, -2.000000000000000444 ) ) ;
#33 = ORIENTED_EDGE ( 'NONE', *, *, #42, .T. ) ;
#34 = CC_DESIGN_PERSON_AND_ORGANIZATION_ASSIGNMENT ( #335, #221, ( #275 ) ) ;
#35 = CYLINDRICAL_SURFACE ( 'NONE', #68, 0.7000000000000000666 ) ;
#36 = AXIS2_PLACEMENT_3D ( 'NONE', #147, #78, #43 ) ;
#37 = CIRCLE ( 'NONE', #146, 2.000000000000000000 ) ;
#38 = CYLINDRICAL_SURFACE ( 'NONE', #39, 2.000000000000000000 ) ;
#39 = AXIS2_PLACEMENT_3D ( 'NONE', #167, #286, #326 ) ;
#40 = ORIENTED_EDGE ( 'NONE', *, *, #348, .T. ) ;
#41 = DIRECTION ( 'NONE',  ( -0.000000000000000000, -0.000000000000000000, 1.000000000000000000 ) ) ;
#42 = EDGE_CURVE ( 'NONE', #340, #164, #104, .T. ) ;
#43 = DIRECTION ( 'NONE',  ( 1.000000000000000000, 0.000000000000000000, 0.000000000000000000 ) ) ;
#44 = AXIS2_PLACEMENT_3D ( 'NONE', #45, #236, #264 ) ;
#45 = CARTESIAN_POINT ( 'NONE',  ( 0.000000000000000000, -2.000000000000000000, -2.000000000000000444 ) ) ;
#46 = CARTESIAN_POINT ( 'NONE',  ( 0.000000000000000000, 0.000000000000000000, -2.200000000000000622 ) ) ;
#47 = EDGE_CURVE ( 'NONE', #92, #8, #389, .T. ) ;
#48 = DIRECTION ( 'NONE',  ( -0.000000000000000000, -0.000000000000000000, 1.000000000000000000 ) ) ;
#49 = DIRECTION ( 'NONE',  ( -1.000000000000000000, 0.000000000000000000, 0.000000000000000000 ) ) ;
#50 = APPLICATION_CONTEXT ( 'configuration controlled 3d designs of mechanical parts and assemblies' ) ;
#51 = CARTESIAN_POINT ( 'NONE',  ( 1.000000000000003331, 0.000000000000000000, -2.200000000000000622 ) ) ;
#52 = CIRCLE ( 'NONE', #279, 1.000000000000003331 ) ;
#53 = AXIS2_PLACEMENT_3D ( 'NONE', #362, #57, #175 ) ;
#54 = DIRECTION ( 'NONE',  ( -0.000000000000000000, -0.000000000000000000, 1.000000000000000000 ) ) ;
#55 = APPROVAL_STATUS ( 'not_yet_approved' ) ;
#56 = ORIENTED_EDGE ( 'NONE', *, *, #387, .T. ) ;
#57 = DIRECTION ( 'NONE',  ( -0.000000000000000000, -0.000000000000000000, 1.000000000000000000 ) ) ;
#58 = FACE_OUTER_BOUND ( 'NONE', #309, .T. ) ;
#59 = APPROVAL_DATE_TIME ( #223, #260 ) ;
#60 = EDGE_CURVE ( 'NONE', #8, #92, #301, .T. ) ;
#61 = APPLICATION_CONTEXT ( 'configuration controlled 3d designs of mechanical parts and assemblies' ) ;
#62 = CARTESIAN_POINT ( 'NONE',  ( 0.000000000000000000, 0.000000000000000000, -1.224646799147352961E-16 ) ) ;
#63 = DATE_AND_TIME ( #368, #18 ) ;
#64 = ORIENTED_EDGE ( 'NONE', *, *, #354, .T. ) ;
#65 = AXIS2_PLACEMENT_3D ( 'NONE', #230, #257, #207 ) ;
#66 = DATE_TIME_ROLE ( 'creation_date' ) ;
#67 = ORIENTED_EDGE ( 'NONE', *, *, #186, .T. ) ;
#68 = AXIS2_PLACEMENT_3D ( 'NONE', #229, #7, #195 ) ;
#69 = EDGE_CURVE ( 'NONE', #110, #136, #374, .T. ) ;
#70 = ORIENTED_EDGE ( 'NONE', *, *, #218, .T. ) ;
#71 = ORIENTED_EDGE ( 'NONE', *, *, #150, .T. ) ;
#72 = EDGE_LOOP ( 'NONE', ( #33, #199 ) ) ;
#73 = DIRECTION ( 'NONE',  ( -0.000000000000000000, -0.000000000000000000, 1.000000000000000000 ) ) ;
#74 = ORIENTED_EDGE ( 'NONE', *, *, #42, .F. ) ;
#75 = CARTESIAN_POINT ( 'NONE',  ( -1.000000000000003109, 1.224646799147356905E-16, -81.48038475772935385 ) ) ;
#76 = CARTESIAN_POINT ( 'NONE',  ( 0.000000000000000000, 0.000000000000000000, -81.48038475772935385 ) ) ;
#77 = FACE_OUTER_BOUND ( 'NONE', #283, .T. ) ;
#78 = DIRECTION ( 'NONE',  ( -0.000000000000000000, -0.000000000000000000, 1.000000000000000000 ) ) ;
#79 = CIRCLE ( 'NONE', #135, 1.000000000000003109 ) ;
#80 = EDGE_CURVE ( 'NONE', #312, #125, #227, .T. ) ;
#81 = DIRECTION ( 'NONE',  ( -0.000000000000000000, -0.000000000000000000, 1.000000000000000000 ) ) ;
#82 = CARTESIAN_POINT ( 'NONE',  ( 0.7000000000000000666, 0.000000000000000000, -352.0000000000001137 ) ) ;
#83 = DIRECTION ( 'NONE',  ( 0.5000000000000138778, 0.000000000000000000, 0.8660254037844306030 ) ) ;
#84 = LINE ( 'NONE', #188, #130 ) ;
#85 = CALENDAR_DATE ( 2023, 13, 1 ) ;
#86 = CIRCLE ( 'NONE', #187, 1.000000000000003331 ) ;
#87 = AXIS2_PLACEMENT_3D ( 'NONE', #292, #143, #259 ) ;
#88 =( NAMED_UNIT ( * ) PLANE_ANGLE_UNIT ( ) SI_UNIT ( $, .RADIAN. ) );
#89 = ADVANCED_FACE ( 'NONE', ( #318 ), #38, .T. ) ;
#90 = DIRECTION ( 'NONE',  ( 0.000000000000000000, 0.000000000000000000, -1.000000000000000000 ) ) ;
#91 = PERSON_AND_ORGANIZATION ( #345, #140 ) ;
#92 = VERTEX_POINT ( 'NONE', #169 ) ;
#93 = ORIENTED_EDGE ( 'NONE', *, *, #80, .T. ) ;
#94 = ADVANCED_FACE ( 'NONE', ( #15 ), #265, .T. ) ;
#95 = AXIS2_PLACEMENT_3D ( 'NONE', #180, #352, #329 ) ;
#96 = DATE_AND_TIME ( #274, #159 ) ;
#97 = ORIENTED_EDGE ( 'NONE', *, *, #60, .T. ) ;
#98 = MECHANICAL_CONTEXT ( 'NONE', #50, 'mechanical' ) ;
#99 = ORIENTED_EDGE ( 'NONE', *, *, #288, .F. ) ;
#100 = AXIS2_PLACEMENT_3D ( 'NONE', #266, #41, #141 ) ;
#101 = CIRCLE ( 'NONE', #95, 0.2000000000000000944 ) ;
#102 = EDGE_CURVE ( 'NONE', #282, #183, #182, .T. ) ;
#103 = DIRECTION ( 'NONE',  ( -0.000000000000000000, -0.000000000000000000, 1.000000000000000000 ) ) ;
#104 = CIRCLE ( 'NONE', #21, 2.000000000000000000 ) ;
#105 = ORIENTED_EDGE ( 'NONE', *, *, #248, .F. ) ;
#106 = VERTEX_POINT ( 'NONE', #145 ) ;
#107 = CC_DESIGN_PERSON_AND_ORGANIZATION_ASSIGNMENT ( #240, #393, ( #197 ) ) ;
#108 = TOROIDAL_SURFACE ( 'NONE', #65, 1.200000000000003286, 0.2000000000000000111 ) ;
#109 = AXIS2_PLACEMENT_3D ( 'NONE', #22, #242, #364 ) ;
#110 = VERTEX_POINT ( 'NONE', #353 ) ;
#111 = AXIS2_PLACEMENT_3D ( 'NONE', #330, #115, #384 ) ;
#112 = FACE_OUTER_BOUND ( 'NONE', #1, .T. ) ;
#113 = FACE_OUTER_BOUND ( 'NONE', #247, .T. ) ;
#114 = EDGE_CURVE ( 'NONE', #136, #198, #380, .T. ) ;
#115 = DIRECTION ( 'NONE',  ( -0.000000000000000000, -0.000000000000000000, 1.000000000000000000 ) ) ;
#116 = AXIS2_PLACEMENT_3D ( 'NONE', #359, #54, #302 ) ;
#117 = CARTESIAN_POINT ( 'NONE',  ( 0.7000000000000000666, 0.000000000000000000, 0.000000000000000000 ) ) ;
#118 = FACE_BOUND ( 'NONE', #341, .T. ) ;
#119 = CARTESIAN_POINT ( 'NONE',  ( 2.000000000000000000, 0.000000000000000000, -2.000000000000000444 ) ) ;
#120 = VECTOR ( 'NONE', #103, 1000.000000000000000 ) ;
#121 = DIRECTION ( 'NONE',  ( 1.000000000000000000, 0.000000000000000000, 0.000000000000000000 ) ) ;
#122 = FACE_OUTER_BOUND ( 'NONE', #287, .T. ) ;
#123 = PERSON_AND_ORGANIZATION ( #345, #140 ) ;
#124 = CARTESIAN_POINT ( 'NONE',  ( 0.000000000000000000, 0.000000000000000000, -81.48038475772935385 ) ) ;
#125 = VERTEX_POINT ( 'NONE', #51 ) ;
#126 = PERSON_AND_ORGANIZATION ( #345, #140 ) ;
#127 = EDGE_CURVE ( 'NONE', #106, #219, #12, .T. ) ;
#128 = UNCERTAINTY_MEASURE_WITH_UNIT (LENGTH_MEASURE( 1.000000000000000082E-05 ), #391, 'distance_accuracy_value', 'NONE');
#129 = APPROVAL_STATUS ( 'not_yet_approved' ) ;
#130 = VECTOR ( 'NONE', #214, 1000.000000000000000 ) ;
#131 = DIRECTION ( 'NONE',  ( 1.000000000000000000, 0.000000000000000000, 0.000000000000000000 ) ) ;
#132 = VECTOR ( 'NONE', #73, 1000.000000000000000 ) ;
#133 = ORIENTED_EDGE ( 'NONE', *, *, #316, .T. ) ;
#134 = CARTESIAN_POINT ( 'NONE',  ( 1.200000000000003286, 1.469576158976827990E-16, -2.000000000000000444 ) ) ;
#135 = AXIS2_PLACEMENT_3D ( 'NONE', #124, #325, #300 ) ;
#136 = VERTEX_POINT ( 'NONE', #322 ) ;
#137 = ORIENTED_EDGE ( 'NONE', *, *, #114, .F. ) ;
#138 = EDGE_CURVE ( 'NONE', #198, #136, #297, .T. ) ;
#139 = FACE_OUTER_BOUND ( 'NONE', #245, .T. ) ;
#140 = ORGANIZATION ( 'NEURÈENÝ', 'NEURÈENÝ', '' ) ;
#141 = DIRECTION ( 'NONE',  ( 1.000000000000000000, 0.000000000000000000, 0.000000000000000000 ) ) ;
#142 = CYLINDRICAL_SURFACE ( 'NONE', #100, 2.000000000000000000 ) ;
#143 = DIRECTION ( 'NONE',  ( 0.000000000000000000, 0.000000000000000000, -1.000000000000000000 ) ) ;
#144 = EDGE_CURVE ( 'NONE', #312, #106, #189, .T. ) ;
#145 = CARTESIAN_POINT ( 'NONE',  ( -1.000000000000003109, 1.224646799147356905E-16, -81.48038475772935385 ) ) ;
#146 = AXIS2_PLACEMENT_3D ( 'NONE', #19, #385, #270 ) ;
#147 = CARTESIAN_POINT ( 'NONE',  ( 0.000000000000000000, 0.000000000000000000, 0.000000000000000000 ) ) ;
#148 = PLANE ( 'NONE',  #44 ) ;
#149 = DIRECTION ( 'NONE',  ( -0.000000000000000000, -0.000000000000000000, 1.000000000000000000 ) ) ;
#150 = EDGE_CURVE ( 'NONE', #371, #198, #390, .T. ) ;
#151 = PERSON_AND_ORGANIZATION_ROLE ( 'creator' ) ;
#152 = ORIENTED_EDGE ( 'NONE', *, *, #162, .T. ) ;
#153 = DIRECTION ( 'NONE',  ( -0.000000000000000000, -0.000000000000000000, 1.000000000000000000 ) ) ;
#154 = SHAPE_DEFINITION_REPRESENTATION ( #280, #271 ) ;
#155 = ADVANCED_FACE ( 'NONE', ( #9 ), #142, .T. ) ;
#156 = EDGE_LOOP ( 'NONE', ( #194, #317 ) ) ;
#157 = APPROVAL_STATUS ( 'not_yet_approved' ) ;
#158 = DATE_AND_TIME ( #24, #281 ) ;
#159 = LOCAL_TIME ( 9, 56, 55.00000000000000000, #181 ) ;
#160 = ORIENTED_EDGE ( 'NONE', *, *, #102, .F. ) ;
#161 = MANIFOLD_SOLID_BREP ( 'Zaoblit1', #400 ) ;
#162 = EDGE_CURVE ( 'NONE', #219, #125, #86, .T. ) ;
#163 = DIRECTION ( 'NONE',  ( -0.000000000000000000, -0.000000000000000000, 1.000000000000000000 ) ) ;
#164 = VERTEX_POINT ( 'NONE', #357 ) ;
#165 = VECTOR ( 'NONE', #83, 1000.000000000000000 ) ;
#166 = ADVANCED_FACE ( 'NONE', ( #112 ), #108, .F. ) ;
#167 = CARTESIAN_POINT ( 'NONE',  ( 0.000000000000000000, 0.000000000000000000, 0.000000000000000000 ) ) ;
#168 = EDGE_LOOP ( 'NONE', ( #105, #349, #56, #314 ) ) ;
#169 = CARTESIAN_POINT ( 'NONE',  ( -1.200000000000003286, 0.000000000000000000, -2.000000000000000444 ) ) ;
#170 = AXIS2_PLACEMENT_3D ( 'NONE', #176, #231, #174 ) ;
#171 = DIRECTION ( 'NONE',  ( 1.000000000000000000, 0.000000000000000000, 0.000000000000000000 ) ) ;
#172 = EDGE_CURVE ( 'NONE', #110, #371, #2, .T. ) ;
#173 = FACE_OUTER_BOUND ( 'NONE', #156, .T. ) ;
#174 = DIRECTION ( 'NONE',  ( 1.000000000000000000, 0.000000000000000000, 0.000000000000000000 ) ) ;
#175 = DIRECTION ( 'NONE',  ( 1.000000000000000000, 0.000000000000000000, 0.000000000000000000 ) ) ;
#176 = CARTESIAN_POINT ( 'NONE',  ( 0.000000000000000000, 0.000000000000000000, -352.0000000000001137 ) ) ;
#177 = CARTESIAN_POINT ( 'NONE',  ( 0.000000000000000000, 0.000000000000000000, -352.0000000000001137 ) ) ;
#178 = APPROVAL ( #55, 'NEURÈENÝ' ) ;
#179 = CARTESIAN_POINT ( 'NONE',  ( -1.000000000000003331, 1.224646799147357151E-16, 0.000000000000000000 ) ) ;
#180 = CARTESIAN_POINT ( 'NONE',  ( 1.200000000000003286, 1.469576158976827990E-16, -2.200000000000000622 ) ) ;
#181 = COORDINATED_UNIVERSAL_TIME_OFFSET ( 1, 0, .AHEAD. ) ;
#182 = CIRCLE ( 'NONE', #111, 2.000000000000000000 ) ;
#183 = VERTEX_POINT ( 'NONE', #119 ) ;
#184 = CARTESIAN_POINT ( 'NONE',  ( 0.000000000000000000, 0.000000000000000000, -2.200000000000000622 ) ) ;
#185 = CARTESIAN_POINT ( 'NONE',  ( -2.000000000000000000, 2.449293598294706414E-16, -2.000000000000000444 ) ) ;
#186 = EDGE_CURVE ( 'NONE', #136, #106, #291, .T. ) ;
#187 = AXIS2_PLACEMENT_3D ( 'NONE', #46, #386, #296 ) ;
#188 = CARTESIAN_POINT ( 'NONE',  ( -2.000000000000000000, 2.449293598294706414E-16, 0.000000000000000000 ) ) ;
#189 = CIRCLE ( 'NONE', #206, 1.000000000000003109 ) ;
#190 = EDGE_LOOP ( 'NONE', ( #346, #403, #74, #278 ) ) ;
#191 = TOROIDAL_SURFACE ( 'NONE', #319, 1.200000000000003286, 0.2000000000000000111 ) ;
#192 = APPROVAL_ROLE ( '' ) ;
#193 = ORIENTED_EDGE ( 'NONE', *, *, #69, .T. ) ;
#194 = ORIENTED_EDGE ( 'NONE', *, *, #354, .F. ) ;
#195 = DIRECTION ( 'NONE',  ( 1.000000000000000000, 0.000000000000000000, 0.000000000000000000 ) ) ;
#196 = VECTOR ( 'NONE', #48, 1000.000000000000000 ) ;
#197 = PRODUCT_DEFINITION_FORMATION_WITH_SPECIFIED_SOURCE ( 'LIBOVOLNÝ', '', #275, .NOT_KNOWN. ) ;
#198 = VERTEX_POINT ( 'NONE', #351 ) ;
#199 = ORIENTED_EDGE ( 'NONE', *, *, #343, .T. ) ;
#200 = ORIENTED_EDGE ( 'NONE', *, *, #150, .F. ) ;
#201 = VECTOR ( 'NONE', #298, 1000.000000000000000 ) ;
#202 = ORIENTED_EDGE ( 'NONE', *, *, #316, .F. ) ;
#203 = DIRECTION ( 'NONE',  ( 1.000000000000000000, 0.000000000000000000, 0.000000000000000000 ) ) ;
#204 = EDGE_CURVE ( 'NONE', #198, #312, #294, .T. ) ;
#205 = DIRECTION ( 'NONE',  ( 1.000000000000000000, 0.000000000000000000, 0.000000000000000000 ) ) ;
#206 = AXIS2_PLACEMENT_3D ( 'NONE', #76, #81, #379 ) ;
#207 = DIRECTION ( 'NONE',  ( -1.000000000000000000, 0.000000000000000000, 0.000000000000000000 ) ) ;
#208 = DIRECTION ( 'NONE',  ( 1.000000000000000000, 0.000000000000000000, 0.000000000000000000 ) ) ;
#209 = ADVANCED_FACE ( 'NONE', ( #235 ), #210, .T. ) ;
#210 = CYLINDRICAL_SURFACE ( 'NONE', #36, 1.000000000000003331 ) ;
#211 = CC_DESIGN_APPROVAL ( #260, ( #234 ) ) ;
#212 = CARTESIAN_POINT ( 'NONE',  ( 0.000000000000000000, 0.000000000000000000, -2.200000000000000622 ) ) ;
#213 = PERSON_AND_ORGANIZATION ( #345, #140 ) ;
#214 = DIRECTION ( 'NONE',  ( -0.000000000000000000, -0.000000000000000000, 1.000000000000000000 ) ) ;
#215 = COORDINATED_UNIVERSAL_TIME_OFFSET ( 1, 0, .AHEAD. ) ;
#216 = ORIENTED_EDGE ( 'NONE', *, *, #127, .F. ) ;
#217 = CALENDAR_DATE ( 2023, 13, 1 ) ;
#218 = EDGE_CURVE ( 'NONE', #219, #92, #261, .T. ) ;
#219 = VERTEX_POINT ( 'NONE', #263 ) ;
#220 = VECTOR ( 'NONE', #238, 1000.000000000000000 ) ;
#221 = PERSON_AND_ORGANIZATION_ROLE ( 'design_owner' ) ;
#222 = ORIENTED_EDGE ( 'NONE', *, *, #69, .F. ) ;
#223 = DATE_AND_TIME ( #217, #378 ) ;
#224 = PRODUCT_RELATED_PRODUCT_CATEGORY ( 'detail', '', ( #275 ) ) ;
#225 = ORIENTED_EDGE ( 'NONE', *, *, #47, .T. ) ;
#226 = EDGE_LOOP ( 'NONE', ( #407, #30, #152, #369 ) ) ;
#227 = LINE ( 'NONE', #347, #132 ) ;
#228 = ORIENTED_EDGE ( 'NONE', *, *, #204, .T. ) ;
#229 = CARTESIAN_POINT ( 'NONE',  ( 0.000000000000000000, 0.000000000000000000, 0.000000000000000000 ) ) ;
#230 = CARTESIAN_POINT ( 'NONE',  ( 0.000000000000000000, 0.000000000000000000, -2.200000000000000622 ) ) ;
#231 = DIRECTION ( 'NONE',  ( -0.000000000000000000, -0.000000000000000000, 1.000000000000000000 ) ) ;
#232 = CYLINDRICAL_SURFACE ( 'NONE', #53, 0.7000000000000000666 ) ;
#233 = DIRECTION ( 'NONE',  ( -0.5000000000000138778, 6.123233995736936134E-17, 0.8660254037844306030 ) ) ;
#234 = SECURITY_CLASSIFICATION ( '', '', #333 ) ;
#235 = FACE_OUTER_BOUND ( 'NONE', #226, .T. ) ;
#236 = DIRECTION ( 'NONE',  ( 0.000000000000000000, 0.000000000000000000, -1.000000000000000000 ) ) ;
#237 = AXIS2_PLACEMENT_3D ( 'NONE', #32, #252, #342 ) ;
#238 = DIRECTION ( 'NONE',  ( -0.000000000000000000, -0.000000000000000000, 1.000000000000000000 ) ) ;
#239 = DIRECTION ( 'NONE',  ( -1.000000000000000000, 0.000000000000000000, 0.000000000000000000 ) ) ;
#240 = PERSON_AND_ORGANIZATION ( #345, #140 ) ;
#241 = DIRECTION ( 'NONE',  ( 0.000000000000000000, 0.000000000000000000, 1.000000000000000000 ) ) ;
#242 = DIRECTION ( 'NONE',  ( -0.000000000000000000, -0.000000000000000000, 1.000000000000000000 ) ) ;
#243 = PERSON_AND_ORGANIZATION_ROLE ( 'classification_officer' ) ;
#244 = ADVANCED_FACE ( 'NONE', ( #336 ), #268, .T. ) ;
#245 = EDGE_LOOP ( 'NONE', ( #222, #249, #71, #137 ) ) ;
#246 = PERSON_AND_ORGANIZATION ( #345, #140 ) ;
#247 = EDGE_LOOP ( 'NONE', ( #64, #193, #315, #200 ) ) ;
#248 = EDGE_CURVE ( 'NONE', #282, #164, #84, .T. ) ;
#249 = ORIENTED_EDGE ( 'NONE', *, *, #172, .T. ) ;
#250 = DIRECTION ( 'NONE',  ( 1.000000000000000000, 0.000000000000000000, 0.000000000000000000 ) ) ;
#251 = EDGE_CURVE ( 'NONE', #125, #219, #52, .T. ) ;
#252 = DIRECTION ( 'NONE',  ( -0.000000000000000000, -0.000000000000000000, 1.000000000000000000 ) ) ;
#253 = CARTESIAN_POINT ( 'NONE',  ( -0.7000000000000000666, 8.572527594031473190E-17, 0.000000000000000000 ) ) ;
#254 = ORIENTED_EDGE ( 'NONE', *, *, #218, .F. ) ;
#255 = CARTESIAN_POINT ( 'NONE',  ( 0.000000000000000000, 0.000000000000000000, -2.449293598294705921E-16 ) ) ;
#256 = CIRCLE ( 'NONE', #262, 2.000000000000000000 ) ;
#257 = DIRECTION ( 'NONE',  ( 0.000000000000000000, 0.000000000000000000, -1.000000000000000000 ) ) ;
#258 = CARTESIAN_POINT ( 'NONE',  ( -1.200000000000003286, 0.000000000000000000, -2.200000000000000622 ) ) ;
#259 = DIRECTION ( 'NONE',  ( -1.000000000000000000, 0.000000000000000000, -0.000000000000000000 ) ) ;
#260 = APPROVAL ( #157, 'NEURÈENÝ' ) ;
#261 = CIRCLE ( 'NONE', #395, 0.2000000000000000944 ) ;
#262 = AXIS2_PLACEMENT_3D ( 'NONE', #23, #153, #273 ) ;
#263 = CARTESIAN_POINT ( 'NONE',  ( -1.000000000000003331, 1.224646799147357151E-16, -2.200000000000000622 ) ) ;
#264 = DIRECTION ( 'NONE',  ( -1.000000000000000000, 0.000000000000000000, -0.000000000000000000 ) ) ;
#265 = CONICAL_SURFACE ( 'NONE', #406, 1.000000000000003109, 0.5235987755983149139 ) ;
#266 = CARTESIAN_POINT ( 'NONE',  ( 0.000000000000000000, 0.000000000000000000, 0.000000000000000000 ) ) ;
#267 = CARTESIAN_POINT ( 'NONE',  ( 0.000000000000000000, 0.000000000000000000, 0.000000000000000000 ) ) ;
#268 = PLANE ( 'NONE',  #324 ) ;
#269 = APPROVAL_ROLE ( '' ) ;
#270 = DIRECTION ( 'NONE',  ( 1.000000000000000000, 0.000000000000000000, 0.000000000000000000 ) ) ;
#271 = ADVANCED_BREP_SHAPE_REPRESENTATION ( 'e392', ( #161, #313 ), #332 ) ;
#272 = CC_DESIGN_APPROVAL ( #3, ( #197 ) ) ;
#273 = DIRECTION ( 'NONE',  ( 1.000000000000000000, 0.000000000000000000, 0.000000000000000000 ) ) ;
#274 = CALENDAR_DATE ( 2023, 13, 1 ) ;
#275 = PRODUCT ( 'e392', 'e392', '', ( #98 ) ) ;
#276 = APPROVAL_DATE_TIME ( #96, #178 ) ;
#277 = ADVANCED_FACE ( 'NONE', ( #58 ), #396, .T. ) ;
#278 = ORIENTED_EDGE ( 'NONE', *, *, #387, .F. ) ;
#279 = AXIS2_PLACEMENT_3D ( 'NONE', #212, #90, #239 ) ;
#280 = PRODUCT_DEFINITION_SHAPE ( 'NONE', 'NONE',  #11 ) ;
#281 = LOCAL_TIME ( 9, 56, 55.00000000000000000, #310 ) ;
#282 = VERTEX_POINT ( 'NONE', #185 ) ;
#283 = EDGE_LOOP ( 'NONE', ( #375, #40, #285, #254 ) ) ;
#284 = ADVANCED_FACE ( 'NONE', ( #122 ), #305, .T. ) ;
#285 = ORIENTED_EDGE ( 'NONE', *, *, #47, .F. ) ;
#286 = DIRECTION ( 'NONE',  ( -0.000000000000000000, -0.000000000000000000, 1.000000000000000000 ) ) ;
#287 = EDGE_LOOP ( 'NONE', ( #216, #133, #93, #365 ) ) ;
#288 = EDGE_CURVE ( 'NONE', #183, #282, #256, .T. ) ;
#289 = DIRECTION ( 'NONE',  ( -0.000000000000000000, -0.000000000000000000, 1.000000000000000000 ) ) ;
#290 = CC_DESIGN_SECURITY_CLASSIFICATION ( #234, ( #197 ) ) ;
#291 = LINE ( 'NONE', #75, #339 ) ;
#292 = CARTESIAN_POINT ( 'NONE',  ( 0.000000000000000000, 2.307236771970333679E-17, -352.0000000000001137 ) ) ;
#293 = CC_DESIGN_PERSON_AND_ORGANIZATION_ASSIGNMENT ( #126, #26, ( #197 ) ) ;
#294 = LINE ( 'NONE', #17, #165 ) ;
#295 = PLANE ( 'NONE',  #87 ) ;
#296 = DIRECTION ( 'NONE',  ( -1.000000000000000000, 0.000000000000000000, 0.000000000000000000 ) ) ;
#297 = CIRCLE ( 'NONE', #361, 0.7000000000000000666 ) ;
#298 = DIRECTION ( 'NONE',  ( -0.000000000000000000, -0.000000000000000000, 1.000000000000000000 ) ) ;
#299 = CARTESIAN_POINT ( 'NONE',  ( 0.000000000000000000, 0.000000000000000000, -82.00000000000000000 ) ) ;
#300 = DIRECTION ( 'NONE',  ( 1.000000000000000000, 0.000000000000000000, 0.000000000000000000 ) ) ;
#301 = CIRCLE ( 'NONE', #237, 1.200000000000003286 ) ;
#302 = DIRECTION ( 'NONE',  ( 1.000000000000000000, 0.000000000000000000, 0.000000000000000000 ) ) ;
#303 = APPROVAL_ROLE ( '' ) ;
#304 = LINE ( 'NONE', #383, #201 ) ;
#305 = CYLINDRICAL_SURFACE ( 'NONE', #109, 1.000000000000003331 ) ;
#306 = COORDINATED_UNIVERSAL_TIME_OFFSET ( 1, 0, .AHEAD. ) ;
#307 = ORIENTED_EDGE ( 'NONE', *, *, #138, .T. ) ;
#308 = APPLICATION_PROTOCOL_DEFINITION ( 'international standard', 'config_control_design', 1994, #61 ) ;
#309 = EDGE_LOOP ( 'NONE', ( #307, #67, #372, #27 ) ) ;
#310 = COORDINATED_UNIVERSAL_TIME_OFFSET ( 1, 0, .AHEAD. ) ;
#311 = EDGE_LOOP ( 'NONE', ( #99, #160 ) ) ;
#312 = VERTEX_POINT ( 'NONE', #397 ) ;
#313 = AXIS2_PLACEMENT_3D ( 'NONE', #267, #241, #131 ) ;
#314 = ORIENTED_EDGE ( 'NONE', *, *, #343, .F. ) ;
#315 = ORIENTED_EDGE ( 'NONE', *, *, #138, .F. ) ;
#316 = EDGE_CURVE ( 'NONE', #106, #312, #79, .T. ) ;
#317 = ORIENTED_EDGE ( 'NONE', *, *, #172, .F. ) ;
#318 = FACE_OUTER_BOUND ( 'NONE', #168, .T. ) ;
#319 = AXIS2_PLACEMENT_3D ( 'NONE', #184, #334, #49 ) ;
#320 = ADVANCED_FACE ( 'NONE', ( #77 ), #191, .F. ) ;
#321 = EDGE_LOOP ( 'NONE', ( #6, #337, #228, #202 ) ) ;
#322 = CARTESIAN_POINT ( 'NONE',  ( -0.7000000000000000666, 8.572527594031473190E-17, -82.00000000000000000 ) ) ;
#323 = CARTESIAN_POINT ( 'NONE',  ( 0.000000000000000000, 0.000000000000000000, -81.48038475772935385 ) ) ;
#324 = AXIS2_PLACEMENT_3D ( 'NONE', #62, #392, #121 ) ;
#325 = DIRECTION ( 'NONE',  ( -0.000000000000000000, -0.000000000000000000, 1.000000000000000000 ) ) ;
#326 = DIRECTION ( 'NONE',  ( 1.000000000000000000, 0.000000000000000000, 0.000000000000000000 ) ) ;
#327 = AXIS2_PLACEMENT_3D ( 'NONE', #376, #163, #344 ) ;
#328 = CARTESIAN_POINT ( 'NONE',  ( 0.000000000000000000, 0.000000000000000000, -82.00000000000000000 ) ) ;
#329 = DIRECTION ( 'NONE',  ( -1.000000000000000000, -1.224646799147353207E-16, 0.000000000000000000 ) ) ;
#330 = CARTESIAN_POINT ( 'NONE',  ( 0.000000000000000000, 0.000000000000000000, -2.000000000000000444 ) ) ;
#331 = CARTESIAN_POINT ( 'NONE',  ( 2.000000000000000000, 0.000000000000000000, -2.449293598294705921E-16 ) ) ;
#332 =( GEOMETRIC_REPRESENTATION_CONTEXT ( 3 ) GLOBAL_UNCERTAINTY_ASSIGNED_CONTEXT ( ( #128 ) ) GLOBAL_UNIT_ASSIGNED_CONTEXT ( ( #391, #88, #20 ) ) REPRESENTATION_CONTEXT ( 'NONE', 'WORKASPACE' ) );
#333 = SECURITY_CLASSIFICATION_LEVEL ( 'unclassified' ) ;
#334 = DIRECTION ( 'NONE',  ( 0.000000000000000000, 0.000000000000000000, -1.000000000000000000 ) ) ;
#335 = PERSON_AND_ORGANIZATION ( #345, #140 ) ;
#336 = FACE_OUTER_BOUND ( 'NONE', #72, .T. ) ;
#337 = ORIENTED_EDGE ( 'NONE', *, *, #114, .T. ) ;
#338 = ADVANCED_FACE ( 'NONE', ( #118, #388 ), #148, .T. ) ;
#339 = VECTOR ( 'NONE', #233, 1000.000000000000000 ) ;
#340 = VERTEX_POINT ( 'NONE', #331 ) ;
#341 = EDGE_LOOP ( 'NONE', ( #225, #97 ) ) ;
#342 = DIRECTION ( 'NONE',  ( -1.000000000000000000, 0.000000000000000000, 0.000000000000000000 ) ) ;
#343 = EDGE_CURVE ( 'NONE', #164, #340, #37, .T. ) ;
#344 = DIRECTION ( 'NONE',  ( -1.000000000000000000, 0.000000000000000000, 0.000000000000000000 ) ) ;
#345 = PERSON ( 'NEURÈENÝ', 'NEURÈENÝ', 'NEURÈENÝ', ('NEURÈENÝ'), ('NEURÈENÝ'), ('NEURÈENÝ') ) ;
#346 = ORIENTED_EDGE ( 'NONE', *, *, #288, .T. ) ;
#347 = CARTESIAN_POINT ( 'NONE',  ( 1.000000000000003331, 0.000000000000000000, 0.000000000000000000 ) ) ;
#348 = EDGE_CURVE ( 'NONE', #125, #8, #101, .T. ) ;
#349 = ORIENTED_EDGE ( 'NONE', *, *, #102, .T. ) ;
#350 = DIRECTION ( 'NONE',  ( -0.000000000000000000, -0.000000000000000000, 1.000000000000000000 ) ) ;
#351 = CARTESIAN_POINT ( 'NONE',  ( 0.7000000000000000666, 0.000000000000000000, -82.00000000000000000 ) ) ;
#352 = DIRECTION ( 'NONE',  ( -1.224646799147353207E-16, 1.000000000000000000, 0.000000000000000000 ) ) ;
#353 = CARTESIAN_POINT ( 'NONE',  ( -0.7000000000000000666, 8.572527594031473190E-17, -352.0000000000001137 ) ) ;
#354 = EDGE_CURVE ( 'NONE', #371, #110, #5, .T. ) ;
#355 = CC_DESIGN_APPROVAL ( #178, ( #11 ) ) ;
#356 = DIRECTION ( 'NONE',  ( -0.000000000000000000, -1.000000000000000000, -0.000000000000000000 ) ) ;
#357 = CARTESIAN_POINT ( 'NONE',  ( -2.000000000000000000, 2.449293598294706414E-16, -2.449293598294705921E-16 ) ) ;
#358 = CC_DESIGN_PERSON_AND_ORGANIZATION_ASSIGNMENT ( #123, #243, ( #234 ) ) ;
#359 = CARTESIAN_POINT ( 'NONE',  ( 0.000000000000000000, 0.000000000000000000, -81.48038475772935385 ) ) ;
#360 = PERSON_AND_ORGANIZATION ( #345, #140 ) ;
#361 = AXIS2_PLACEMENT_3D ( 'NONE', #299, #289, #171 ) ;
#362 = CARTESIAN_POINT ( 'NONE',  ( 0.000000000000000000, 0.000000000000000000, 0.000000000000000000 ) ) ;
#363 = APPROVAL_PERSON_ORGANIZATION ( #213, #178, #303 ) ;
#364 = DIRECTION ( 'NONE',  ( 1.000000000000000000, 0.000000000000000000, 0.000000000000000000 ) ) ;
#365 = ORIENTED_EDGE ( 'NONE', *, *, #251, .T. ) ;
#366 = ADVANCED_FACE ( 'NONE', ( #113 ), #232, .T. ) ;
#367 = DATE_AND_TIME ( #85, #4 ) ;
#368 = CALENDAR_DATE ( 2023, 13, 1 ) ;
#369 = ORIENTED_EDGE ( 'NONE', *, *, #80, .F. ) ;
#370 = APPLICATION_PROTOCOL_DEFINITION ( 'international standard', 'config_control_design', 1994, #50 ) ;
#371 = VERTEX_POINT ( 'NONE', #82 ) ;
#372 = ORIENTED_EDGE ( 'NONE', *, *, #144, .F. ) ;
#373 = APPROVAL_PERSON_ORGANIZATION ( #91, #260, #192 ) ;
#374 = LINE ( 'NONE', #253, #120 ) ;
#375 = ORIENTED_EDGE ( 'NONE', *, *, #251, .F. ) ;
#376 = CARTESIAN_POINT ( 'NONE',  ( 0.000000000000000000, 0.000000000000000000, -2.000000000000000444 ) ) ;
#377 = DIRECTION ( 'NONE',  ( -0.000000000000000000, -0.000000000000000000, 1.000000000000000000 ) ) ;
#378 = LOCAL_TIME ( 9, 56, 55.00000000000000000, #215 ) ;
#379 = DIRECTION ( 'NONE',  ( 1.000000000000000000, 0.000000000000000000, 0.000000000000000000 ) ) ;
#380 = CIRCLE ( 'NONE', #13, 0.7000000000000000666 ) ;
#381 = ADVANCED_FACE ( 'NONE', ( #173 ), #295, .T. ) ;
#382 = DIRECTION ( 'NONE',  ( 0.000000000000000000, 0.000000000000000000, -1.000000000000000000 ) ) ;
#383 = CARTESIAN_POINT ( 'NONE',  ( 2.000000000000000000, 0.000000000000000000, 0.000000000000000000 ) ) ;
#384 = DIRECTION ( 'NONE',  ( 1.000000000000000000, 0.000000000000000000, 0.000000000000000000 ) ) ;
#385 = DIRECTION ( 'NONE',  ( -0.000000000000000000, -0.000000000000000000, 1.000000000000000000 ) ) ;
#386 = DIRECTION ( 'NONE',  ( 0.000000000000000000, 0.000000000000000000, -1.000000000000000000 ) ) ;
#387 = EDGE_CURVE ( 'NONE', #183, #340, #304, .T. ) ;
#388 = FACE_OUTER_BOUND ( 'NONE', #311, .T. ) ;
#389 = CIRCLE ( 'NONE', #327, 1.200000000000003286 ) ;
#390 = LINE ( 'NONE', #117, #196 ) ;
#391 =( LENGTH_UNIT ( ) NAMED_UNIT ( * ) SI_UNIT ( .MILLI., .METRE. ) );
#392 = DIRECTION ( 'NONE',  ( 0.000000000000000000, -0.000000000000000000, 1.000000000000000000 ) ) ;
#393 = PERSON_AND_ORGANIZATION_ROLE ( 'creator' ) ;
#394 = ORIENTED_EDGE ( 'NONE', *, *, #348, .F. ) ;
#395 = AXIS2_PLACEMENT_3D ( 'NONE', #258, #356, #382 ) ;
#396 = CONICAL_SURFACE ( 'NONE', #116, 1.000000000000003109, 0.5235987755983149139 ) ;
#397 = CARTESIAN_POINT ( 'NONE',  ( 1.000000000000003109, 0.000000000000000000, -81.48038475772935385 ) ) ;
#398 = ORIENTED_EDGE ( 'NONE', *, *, #60, .F. ) ;
#399 = DESIGN_CONTEXT ( 'detailed design', #61, 'design' ) ;
#400 = CLOSED_SHELL ( 'NONE', ( #320, #155, #209, #277, #366, #381, #16, #94, #284, #338, #89, #244, #166 ) ) ;
#401 = APPROVAL_DATE_TIME ( #158, #3 ) ;
#402 = COORDINATED_UNIVERSAL_TIME_OFFSET ( 1, 0, .AHEAD. ) ;
#403 = ORIENTED_EDGE ( 'NONE', *, *, #248, .T. ) ;
#404 = AXIS2_PLACEMENT_3D ( 'NONE', #177, #14, #205 ) ;
#405 = CC_DESIGN_DATE_AND_TIME_ASSIGNMENT ( #63, #28, ( #234 ) ) ;
#406 = AXIS2_PLACEMENT_3D ( 'NONE', #323, #350, #203 ) ;
#407 = ORIENTED_EDGE ( 'NONE', *, *, #144, .T. ) ;
ENDSEC;
END-ISO-10303-21;
