ISO-10303-21;
HEADER;
FILE_DESCRIPTION (( 'STEP AP203' ),
    '1' );
FILE_NAME ('678a.STEP',
    '2022-06-20T09:58:15',
    ( '' ),
    ( '' ),
    'SwSTEP 2.0',
    'SolidWorks 2019',
    '' );
FILE_SCHEMA (( 'CONFIG_CONTROL_DESIGN' ));
ENDSEC;

DATA;
#1 = CIRCLE ( 'NONE', #179, 6.000000000000000888 ) ;
#2 = DIRECTION ( 'NONE',  ( 1.000000000000000000, 0.000000000000000000, 0.000000000000000000 ) ) ;
#3 = CC_DESIGN_PERSON_AND_ORGANIZATION_ASSIGNMENT ( #276, #255, ( #121 ) ) ;
#4 = CARTESIAN_POINT ( 'NONE',  ( 0.000000000000000000, 0.000000000000000000, 205.0000000000000284 ) ) ;
#5 = LINE ( 'NONE', #200, #259 ) ;
#6 = LOCAL_TIME ( 11, 58, 15.00000000000000000, #270 ) ;
#7 = LOCAL_TIME ( 11, 58, 15.00000000000000000, #33 ) ;
#8 = DIRECTION ( 'NONE',  ( 0.000000000000000000, -1.000000000000000000, 0.000000000000000000 ) ) ;
#9 = CALENDAR_DATE ( 2022, 20, 6 ) ;
#10 = APPROVAL_PERSON_ORGANIZATION ( #253, #220, #29 ) ;
#11 =( NAMED_UNIT ( * ) SI_UNIT ( $, .STERADIAN. ) SOLID_ANGLE_UNIT ( ) );
#12 = EDGE_LOOP ( 'NONE', ( #304, #210 ) ) ;
#13 = CALENDAR_DATE ( 2022, 20, 6 ) ;
#14 = PERSON ( 'NEURÈENÝ', 'NEURÈENÝ', 'NEURÈENÝ', ('NEURÈENÝ'), ('NEURÈENÝ'), ('NEURÈENÝ') ) ;
#15 = ORIENTED_EDGE ( 'NONE', *, *, #43, .F. ) ;
#16 = CC_DESIGN_DATE_AND_TIME_ASSIGNMENT ( #208, #289, ( #121 ) ) ;
#17 = DIRECTION ( 'NONE',  ( -0.000000000000000000, -0.000000000000000000, -1.000000000000000000 ) ) ;
#18 = EDGE_LOOP ( 'NONE', ( #157, #229, #235, #284 ) ) ;
#19 = CC_DESIGN_PERSON_AND_ORGANIZATION_ASSIGNMENT ( #132, #206, ( #126 ) ) ;
#20 = FACE_OUTER_BOUND ( 'NONE', #280, .T. ) ;
#21 = DIRECTION ( 'NONE',  ( 0.000000000000000000, 0.000000000000000000, 1.000000000000000000 ) ) ;
#22 = CARTESIAN_POINT ( 'NONE',  ( 3.200000000000000622, 0.000000000000000000, 5.000000000000005329 ) ) ;
#23 = FACE_OUTER_BOUND ( 'NONE', #236, .T. ) ;
#24 = AXIS2_PLACEMENT_3D ( 'NONE', #300, #297, #134 ) ;
#25 = DIRECTION ( 'NONE',  ( 1.000000000000000000, 0.000000000000000000, -0.000000000000000000 ) ) ;
#26 = FACE_OUTER_BOUND ( 'NONE', #180, .T. ) ;
#27 = DIRECTION ( 'NONE',  ( -1.000000000000000000, 0.000000000000000000, 0.000000000000000000 ) ) ;
#28 = DIRECTION ( 'NONE',  ( 1.000000000000000000, 0.000000000000000000, 0.000000000000000000 ) ) ;
#29 = APPROVAL_ROLE ( '' ) ;
#30 = PERSON_AND_ORGANIZATION_ROLE ( 'creator' ) ;
#31 = ORIENTED_EDGE ( 'NONE', *, *, #99, .F. ) ;
#32 = EDGE_CURVE ( 'NONE', #167, #39, #158, .T. ) ;
#33 = COORDINATED_UNIVERSAL_TIME_OFFSET ( 1, 0, .AHEAD. ) ;
#34 = ORIENTED_EDGE ( 'NONE', *, *, #93, .T. ) ;
#35 = AXIS2_PLACEMENT_3D ( 'NONE', #243, #286, #73 ) ;
#36 = APPROVAL_STATUS ( 'not_yet_approved' ) ;
#37 = ORIENTED_EDGE ( 'NONE', *, *, #302, .T. ) ;
#38 = EDGE_CURVE ( 'NONE', #80, #109, #144, .T. ) ;
#39 = VERTEX_POINT ( 'NONE', #142 ) ;
#40 = CIRCLE ( 'NONE', #139, 6.000000000000000888 ) ;
#41 = LINE ( 'NONE', #238, #269 ) ;
#42 = DIRECTION ( 'NONE',  ( 0.000000000000000000, 0.000000000000000000, 1.000000000000000000 ) ) ;
#43 = EDGE_CURVE ( 'NONE', #46, #298, #307, .T. ) ;
#44 = CARTESIAN_POINT ( 'NONE',  ( 0.000000000000000000, 0.000000000000000000, 205.0000000000000284 ) ) ;
#45 = CC_DESIGN_APPROVAL ( #220, ( #121 ) ) ;
#46 = VERTEX_POINT ( 'NONE', #22 ) ;
#47 = APPLICATION_CONTEXT ( 'configuration controlled 3d designs of mechanical parts and assemblies' ) ;
#48 = CARTESIAN_POINT ( 'NONE',  ( 6.000000000000000888, 7.347880794884120722E-16, 5.000000000000000000 ) ) ;
#49 = ADVANCED_FACE ( 'NONE', ( #218 ), #65, .T. ) ;
#50 = DIRECTION ( 'NONE',  ( 0.000000000000000000, 0.000000000000000000, 1.000000000000000000 ) ) ;
#51 = CARTESIAN_POINT ( 'NONE',  ( -3.000000000000000444, 0.000000000000000000, 205.0000000000000284 ) ) ;
#52 = CARTESIAN_POINT ( 'NONE',  ( 0.000000000000000000, 0.000000000000000000, 5.000000000000000000 ) ) ;
#53 = CARTESIAN_POINT ( 'NONE',  ( 0.000000000000000000, 0.000000000000000000, 205.0000000000000284 ) ) ;
#54 = CC_DESIGN_PERSON_AND_ORGANIZATION_ASSIGNMENT ( #113, #30, ( #163 ) ) ;
#55 = APPROVAL_DATE_TIME ( #185, #249 ) ;
#56 = ORIENTED_EDGE ( 'NONE', *, *, #61, .T. ) ;
#57 = PERSON_AND_ORGANIZATION ( #14, #299 ) ;
#58 = TOROIDAL_SURFACE ( 'NONE', #145, 3.200000000000000622, 0.2000000000000000111 ) ;
#59 = ORIENTED_EDGE ( 'NONE', *, *, #93, .F. ) ;
#60 = PERSON_AND_ORGANIZATION ( #14, #299 ) ;
#61 = EDGE_CURVE ( 'NONE', #39, #124, #41, .T. ) ;
#62 = DIRECTION ( 'NONE',  ( 0.000000000000000000, 0.000000000000000000, 1.000000000000000000 ) ) ;
#63 = VECTOR ( 'NONE', #192, 1000.000000000000000 ) ;
#64 = LOCAL_TIME ( 11, 58, 15.00000000000000000, #105 ) ;
#65 = CYLINDRICAL_SURFACE ( 'NONE', #95, 3.000000000000000444 ) ;
#66 = CARTESIAN_POINT ( 'NONE',  ( 0.000000000000000000, 0.000000000000000000, 0.000000000000000000 ) ) ;
#67 = DESIGN_CONTEXT ( 'detailed design', #278, 'design' ) ;
#68 = CARTESIAN_POINT ( 'NONE',  ( 0.000000000000000000, 0.000000000000000000, 5.200000000000009948 ) ) ;
#69 = AXIS2_PLACEMENT_3D ( 'NONE', #88, #122, #260 ) ;
#70 = EDGE_CURVE ( 'NONE', #86, #109, #40, .T. ) ;
#71 = CARTESIAN_POINT ( 'NONE',  ( 0.000000000000000000, 0.000000000000000000, 205.0000000000000284 ) ) ;
#72 = DIRECTION ( 'NONE',  ( -0.000000000000000000, -0.000000000000000000, -1.000000000000000000 ) ) ;
#73 = DIRECTION ( 'NONE',  ( -1.000000000000000000, 1.224646799147353207E-16, 0.000000000000000000 ) ) ;
#74 = AXIS2_PLACEMENT_3D ( 'NONE', #174, #204, #262 ) ;
#75 = DIRECTION ( 'NONE',  ( 0.000000000000000000, 0.000000000000000000, 1.000000000000000000 ) ) ;
#76 = DIRECTION ( 'NONE',  ( -0.000000000000000000, -0.000000000000000000, -1.000000000000000000 ) ) ;
#77 = CARTESIAN_POINT ( 'NONE',  ( 0.000000000000000000, 0.000000000000000000, 5.000000000000000000 ) ) ;
#78 = SHAPE_DEFINITION_REPRESENTATION ( #198, #189 ) ;
#79 = CIRCLE ( 'NONE', #101, 3.200000000000000622 ) ;
#80 = VERTEX_POINT ( 'NONE', #48 ) ;
#81 =( LENGTH_UNIT ( ) NAMED_UNIT ( * ) SI_UNIT ( .MILLI., .METRE. ) );
#82 = ORIENTED_EDGE ( 'NONE', *, *, #32, .F. ) ;
#83 = DATE_AND_TIME ( #272, #7 ) ;
#84 = TOROIDAL_SURFACE ( 'NONE', #140, 3.200000000000000622, 0.2000000000000000111 ) ;
#85 = EDGE_LOOP ( 'NONE', ( #111, #191 ) ) ;
#86 = VERTEX_POINT ( 'NONE', #120 ) ;
#87 = CYLINDRICAL_SURFACE ( 'NONE', #175, 6.000000000000000888 ) ;
#88 = CARTESIAN_POINT ( 'NONE',  ( 0.000000000000000000, 0.000000000000000000, 205.0000000000000284 ) ) ;
#89 = ADVANCED_FACE ( 'NONE', ( #20 ), #58, .F. ) ;
#90 = AXIS2_PLACEMENT_3D ( 'NONE', #287, #96, #151 ) ;
#91 = DIRECTION ( 'NONE',  ( 1.000000000000000000, 0.000000000000000000, 0.000000000000000000 ) ) ;
#92 = DIRECTION ( 'NONE',  ( 1.000000000000000000, 0.000000000000000000, 0.000000000000000000 ) ) ;
#93 = EDGE_CURVE ( 'NONE', #80, #231, #274, .T. ) ;
#94 = DIRECTION ( 'NONE',  ( -0.000000000000000000, -0.000000000000000000, -1.000000000000000000 ) ) ;
#95 = AXIS2_PLACEMENT_3D ( 'NONE', #71, #261, #147 ) ;
#96 = DIRECTION ( 'NONE',  ( 0.000000000000000000, 0.000000000000000000, 1.000000000000000000 ) ) ;
#97 = FACE_BOUND ( 'NONE', #12, .T. ) ;
#98 = DIRECTION ( 'NONE',  ( 0.000000000000000000, 0.000000000000000000, 1.000000000000000000 ) ) ;
#99 = EDGE_CURVE ( 'NONE', #39, #167, #169, .T. ) ;
#100 = AXIS2_PLACEMENT_3D ( 'NONE', #44, #62, #258 ) ;
#101 = AXIS2_PLACEMENT_3D ( 'NONE', #52, #152, #172 ) ;
#102 = CARTESIAN_POINT ( 'NONE',  ( -3.200000000000000622, 3.918869757271530953E-16, 5.000000000000005329 ) ) ;
#103 = CARTESIAN_POINT ( 'NONE',  ( 0.000000000000000000, 0.000000000000000000, 0.000000000000000000 ) ) ;
#104 = ADVANCED_FACE ( 'NONE', ( #305 ), #87, .T. ) ;
#105 = COORDINATED_UNIVERSAL_TIME_OFFSET ( 1, 0, .AHEAD. ) ;
#106 = AXIS2_PLACEMENT_3D ( 'NONE', #171, #164, #215 ) ;
#107 = PERSON_AND_ORGANIZATION_ROLE ( 'creator' ) ;
#108 = AXIS2_PLACEMENT_3D ( 'NONE', #125, #8, #226 ) ;
#109 = VERTEX_POINT ( 'NONE', #282 ) ;
#110 = MECHANICAL_CONTEXT ( 'NONE', #47, 'mechanical' ) ;
#111 = ORIENTED_EDGE ( 'NONE', *, *, #32, .T. ) ;
#112 = APPROVAL ( #133, 'NEURÈENÝ' ) ;
#113 = PERSON_AND_ORGANIZATION ( #14, #299 ) ;
#114 = ORIENTED_EDGE ( 'NONE', *, *, #70, .F. ) ;
#115 = VECTOR ( 'NONE', #205, 1000.000000000000000 ) ;
#116 = ORIENTED_EDGE ( 'NONE', *, *, #154, .F. ) ;
#117 = ORIENTED_EDGE ( 'NONE', *, *, #173, .T. ) ;
#118 = ADVANCED_FACE ( 'NONE', ( #141 ), #84, .F. ) ;
#119 = DIRECTION ( 'NONE',  ( 1.000000000000000000, 0.000000000000000000, 0.000000000000000000 ) ) ;
#120 = CARTESIAN_POINT ( 'NONE',  ( -6.000000000000000888, 0.000000000000000000, 0.000000000000000000 ) ) ;
#121 = SECURITY_CLASSIFICATION ( '', '', #292 ) ;
#122 = DIRECTION ( 'NONE',  ( 0.000000000000000000, 0.000000000000000000, 1.000000000000000000 ) ) ;
#123 = ADVANCED_FACE ( 'NONE', ( #239 ), #165, .F. ) ;
#124 = VERTEX_POINT ( 'NONE', #267 ) ;
#125 = CARTESIAN_POINT ( 'NONE',  ( 3.200000000000000622, 0.000000000000000000, 5.200000000000009948 ) ) ;
#126 = PRODUCT_DEFINITION_FORMATION_WITH_SPECIFIED_SOURCE ( 'LIBOVOLNÝ', '', #241, .NOT_KNOWN. ) ;
#127 = CARTESIAN_POINT ( 'NONE',  ( -6.000000000000000888, 0.000000000000000000, 5.000000000000000000 ) ) ;
#128 = LINE ( 'NONE', #127, #115 ) ;
#129 = FACE_OUTER_BOUND ( 'NONE', #85, .T. ) ;
#130 = AXIS2_PLACEMENT_3D ( 'NONE', #256, #219, #119 ) ;
#131 = CIRCLE ( 'NONE', #35, 0.2000000000000000944 ) ;
#132 = PERSON_AND_ORGANIZATION ( #14, #299 ) ;
#133 = APPROVAL_STATUS ( 'not_yet_approved' ) ;
#134 = DIRECTION ( 'NONE',  ( 1.000000000000000000, 0.000000000000000000, 0.000000000000000000 ) ) ;
#135 = AXIS2_PLACEMENT_3D ( 'NONE', #53, #149, #242 ) ;
#136 = EDGE_LOOP ( 'NONE', ( #283, #254, #301, #195 ) ) ;
#137 = COORDINATED_UNIVERSAL_TIME_OFFSET ( 1, 0, .AHEAD. ) ;
#138 = ORIENTED_EDGE ( 'NONE', *, *, #244, .F. ) ;
#139 = AXIS2_PLACEMENT_3D ( 'NONE', #66, #21, #92 ) ;
#140 = AXIS2_PLACEMENT_3D ( 'NONE', #257, #42, #237 ) ;
#141 = FACE_OUTER_BOUND ( 'NONE', #18, .T. ) ;
#142 = CARTESIAN_POINT ( 'NONE',  ( 3.000000000000000444, 3.673940397442060361E-16, 205.0000000000000284 ) ) ;
#143 = ADVANCED_FACE ( 'NONE', ( #26 ), #266, .T. ) ;
#144 = LINE ( 'NONE', #148, #63 ) ;
#145 = AXIS2_PLACEMENT_3D ( 'NONE', #68, #168, #91 ) ;
#146 = CIRCLE ( 'NONE', #108, 0.1999999999999996503 ) ;
#147 = DIRECTION ( 'NONE',  ( -1.000000000000000000, 0.000000000000000000, 0.000000000000000000 ) ) ;
#148 = CARTESIAN_POINT ( 'NONE',  ( 6.000000000000000888, 7.347880794884120722E-16, 5.000000000000000000 ) ) ;
#149 = DIRECTION ( 'NONE',  ( -0.000000000000000000, -0.000000000000000000, -1.000000000000000000 ) ) ;
#150 = CIRCLE ( 'NONE', #247, 3.000000000000000444 ) ;
#151 = DIRECTION ( 'NONE',  ( 1.000000000000000000, 0.000000000000000000, -0.000000000000000000 ) ) ;
#152 = DIRECTION ( 'NONE',  ( -0.000000000000000000, -0.000000000000000000, -1.000000000000000000 ) ) ;
#153 = CARTESIAN_POINT ( 'NONE',  ( 0.000000000000000000, 0.000000000000000000, 5.200000000000009948 ) ) ;
#154 = EDGE_CURVE ( 'NONE', #124, #46, #146, .T. ) ;
#155 = DATE_AND_TIME ( #182, #6 ) ;
#156 = PERSON_AND_ORGANIZATION ( #14, #299 ) ;
#157 = ORIENTED_EDGE ( 'NONE', *, *, #296, .F. ) ;
#158 = CIRCLE ( 'NONE', #100, 3.000000000000000444 ) ;
#159 = COORDINATED_UNIVERSAL_TIME_OFFSET ( 1, 0, .AHEAD. ) ;
#160 = AXIS2_PLACEMENT_3D ( 'NONE', #265, #72, #27 ) ;
#161 = EDGE_LOOP ( 'NONE', ( #31, #56, #37, #187 ) ) ;
#162 = APPROVAL_ROLE ( '' ) ;
#163 = PRODUCT_DEFINITION ( 'NEZNÁMÝ', '', #126, #67 ) ;
#164 = DIRECTION ( 'NONE',  ( -0.000000000000000000, -0.000000000000000000, -1.000000000000000000 ) ) ;
#165 = PLANE ( 'NONE',  #222 ) ;
#166 = EDGE_CURVE ( 'NONE', #231, #80, #281, .T. ) ;
#167 = VERTEX_POINT ( 'NONE', #51 ) ;
#168 = DIRECTION ( 'NONE',  ( 0.000000000000000000, 0.000000000000000000, 1.000000000000000000 ) ) ;
#169 = CIRCLE ( 'NONE', #69, 3.000000000000000444 ) ;
#170 = CC_DESIGN_SECURITY_CLASSIFICATION ( #121, ( #126 ) ) ;
#171 = CARTESIAN_POINT ( 'NONE',  ( 0.000000000000000000, 0.000000000000000000, 5.000000000000000000 ) ) ;
#172 = DIRECTION ( 'NONE',  ( 1.000000000000000000, 0.000000000000000000, 0.000000000000000000 ) ) ;
#173 = EDGE_CURVE ( 'NONE', #167, #217, #5, .T. ) ;
#174 = CARTESIAN_POINT ( 'NONE',  ( 0.000000000000000000, 0.000000000000000000, 5.200000000000009948 ) ) ;
#175 = AXIS2_PLACEMENT_3D ( 'NONE', #285, #17, #303 ) ;
#176 = DIRECTION ( 'NONE',  ( 0.000000000000000000, 0.000000000000000000, 1.000000000000000000 ) ) ;
#177 = MANIFOLD_SOLID_BREP ( 'Zaoblit1', #201 ) ;
#178 = FACE_OUTER_BOUND ( 'NONE', #295, .T. ) ;
#179 = AXIS2_PLACEMENT_3D ( 'NONE', #103, #176, #2 ) ;
#180 = EDGE_LOOP ( 'NONE', ( #232, #82, #117, #183 ) ) ;
#181 = ADVANCED_FACE ( 'NONE', ( #97, #23 ), #246, .T. ) ;
#182 = CALENDAR_DATE ( 2022, 20, 6 ) ;
#183 = ORIENTED_EDGE ( 'NONE', *, *, #209, .T. ) ;
#184 = LOCAL_TIME ( 11, 58, 15.00000000000000000, #159 ) ;
#185 = DATE_AND_TIME ( #9, #184 ) ;
#186 = AXIS2_PLACEMENT_3D ( 'NONE', #77, #98, #223 ) ;
#187 = ORIENTED_EDGE ( 'NONE', *, *, #173, .F. ) ;
#188 =( NAMED_UNIT ( * ) PLANE_ANGLE_UNIT ( ) SI_UNIT ( $, .RADIAN. ) );
#189 = ADVANCED_BREP_SHAPE_REPRESENTATION ( '678a', ( #177, #24 ), #216 ) ;
#190 = ORIENTED_EDGE ( 'NONE', *, *, #38, .T. ) ;
#191 = ORIENTED_EDGE ( 'NONE', *, *, #99, .T. ) ;
#192 = DIRECTION ( 'NONE',  ( -0.000000000000000000, -0.000000000000000000, -1.000000000000000000 ) ) ;
#193 = UNCERTAINTY_MEASURE_WITH_UNIT (LENGTH_MEASURE( 1.000000000000000082E-05 ), #81, 'distance_accuracy_value', 'NONE');
#194 = ORIENTED_EDGE ( 'NONE', *, *, #233, .T. ) ;
#195 = ORIENTED_EDGE ( 'NONE', *, *, #70, .T. ) ;
#196 = CC_DESIGN_PERSON_AND_ORGANIZATION_ASSIGNMENT ( #156, #107, ( #126 ) ) ;
#197 = CARTESIAN_POINT ( 'NONE',  ( -6.000000000000000888, 0.000000000000000000, 5.000000000000000000 ) ) ;
#198 = PRODUCT_DEFINITION_SHAPE ( 'NONE', 'NONE',  #163 ) ;
#199 = CARTESIAN_POINT ( 'NONE',  ( -3.000000000000000444, 0.000000000000000000, 5.200000000000009948 ) ) ;
#200 = CARTESIAN_POINT ( 'NONE',  ( -3.000000000000000444, 0.000000000000000000, 205.0000000000000284 ) ) ;
#201 = CLOSED_SHELL ( 'NONE', ( #89, #49, #264, #104, #181, #123, #143, #271, #118 ) ) ;
#202 = CIRCLE ( 'NONE', #74, 3.000000000000000444 ) ;
#203 = PRODUCT_RELATED_PRODUCT_CATEGORY ( 'detail', '', ( #241 ) ) ;
#204 = DIRECTION ( 'NONE',  ( 0.000000000000000000, 0.000000000000000000, 1.000000000000000000 ) ) ;
#205 = DIRECTION ( 'NONE',  ( -0.000000000000000000, -0.000000000000000000, -1.000000000000000000 ) ) ;
#206 = PERSON_AND_ORGANIZATION_ROLE ( 'design_supplier' ) ;
#207 = CC_DESIGN_APPROVAL ( #112, ( #163 ) ) ;
#208 = DATE_AND_TIME ( #234, #64 ) ;
#209 = EDGE_CURVE ( 'NONE', #217, #124, #150, .T. ) ;
#210 = ORIENTED_EDGE ( 'NONE', *, *, #268, .T. ) ;
#211 = PERSON_AND_ORGANIZATION ( #14, #299 ) ;
#212 = DATE_AND_TIME ( #13, #288 ) ;
#213 = ORIENTED_EDGE ( 'NONE', *, *, #166, .T. ) ;
#214 = APPROVAL_DATE_TIME ( #212, #220 ) ;
#215 = DIRECTION ( 'NONE',  ( 1.000000000000000000, 0.000000000000000000, 0.000000000000000000 ) ) ;
#216 =( GEOMETRIC_REPRESENTATION_CONTEXT ( 3 ) GLOBAL_UNCERTAINTY_ASSIGNED_CONTEXT ( ( #193 ) ) GLOBAL_UNIT_ASSIGNED_CONTEXT ( ( #81, #188, #11 ) ) REPRESENTATION_CONTEXT ( 'NONE', 'WORKASPACE' ) );
#217 = VERTEX_POINT ( 'NONE', #199 ) ;
#218 = FACE_OUTER_BOUND ( 'NONE', #161, .T. ) ;
#219 = DIRECTION ( 'NONE',  ( 0.000000000000000000, 0.000000000000000000, 1.000000000000000000 ) ) ;
#220 = APPROVAL ( #36, 'NEURÈENÝ' ) ;
#221 = CYLINDRICAL_SURFACE ( 'NONE', #160, 6.000000000000000888 ) ;
#222 = AXIS2_PLACEMENT_3D ( 'NONE', #306, #227, #25 ) ;
#223 = DIRECTION ( 'NONE',  ( 1.000000000000000000, 0.000000000000000000, 0.000000000000000000 ) ) ;
#224 = DIRECTION ( 'NONE',  ( 1.000000000000000000, 0.000000000000000000, -0.000000000000000000 ) ) ;
#225 = CC_DESIGN_PERSON_AND_ORGANIZATION_ASSIGNMENT ( #211, #279, ( #241 ) ) ;
#226 = DIRECTION ( 'NONE',  ( 0.000000000000000000, 0.000000000000000000, -1.000000000000000000 ) ) ;
#227 = DIRECTION ( 'NONE',  ( 0.000000000000000000, 0.000000000000000000, 1.000000000000000000 ) ) ;
#228 = APPROVAL_STATUS ( 'not_yet_approved' ) ;
#229 = ORIENTED_EDGE ( 'NONE', *, *, #302, .F. ) ;
#230 = APPLICATION_PROTOCOL_DEFINITION ( 'international standard', 'config_control_design', 1994, #47 ) ;
#231 = VERTEX_POINT ( 'NONE', #197 ) ;
#232 = ORIENTED_EDGE ( 'NONE', *, *, #61, .F. ) ;
#233 = EDGE_CURVE ( 'NONE', #109, #86, #1, .T. ) ;
#234 = CALENDAR_DATE ( 2022, 20, 6 ) ;
#235 = ORIENTED_EDGE ( 'NONE', *, *, #154, .T. ) ;
#236 = EDGE_LOOP ( 'NONE', ( #213, #34 ) ) ;
#237 = DIRECTION ( 'NONE',  ( 1.000000000000000000, 0.000000000000000000, 0.000000000000000000 ) ) ;
#238 = CARTESIAN_POINT ( 'NONE',  ( 3.000000000000000444, 3.673940397442060361E-16, 205.0000000000000284 ) ) ;
#239 = FACE_OUTER_BOUND ( 'NONE', #293, .T. ) ;
#240 = CC_DESIGN_DATE_AND_TIME_ASSIGNMENT ( #155, #248, ( #163 ) ) ;
#241 = PRODUCT ( '678a', '678a', '', ( #110 ) ) ;
#242 = DIRECTION ( 'NONE',  ( -1.000000000000000000, 0.000000000000000000, 0.000000000000000000 ) ) ;
#243 = CARTESIAN_POINT ( 'NONE',  ( -3.200000000000000622, 3.918869757271530953E-16, 5.200000000000009948 ) ) ;
#244 = EDGE_CURVE ( 'NONE', #231, #86, #128, .T. ) ;
#245 = PLANE ( 'NONE',  #252 ) ;
#246 = PLANE ( 'NONE',  #90 ) ;
#247 = AXIS2_PLACEMENT_3D ( 'NONE', #153, #75, #28 ) ;
#248 = DATE_TIME_ROLE ( 'creation_date' ) ;
#249 = APPROVAL ( #228, 'NEURÈENÝ' ) ;
#250 = APPROVAL_ROLE ( '' ) ;
#251 = APPLICATION_PROTOCOL_DEFINITION ( 'international standard', 'config_control_design', 1994, #278 ) ;
#252 = AXIS2_PLACEMENT_3D ( 'NONE', #4, #50, #224 ) ;
#253 = PERSON_AND_ORGANIZATION ( #14, #299 ) ;
#254 = ORIENTED_EDGE ( 'NONE', *, *, #166, .F. ) ;
#255 = PERSON_AND_ORGANIZATION_ROLE ( 'classification_officer' ) ;
#256 = CARTESIAN_POINT ( 'NONE',  ( 0.000000000000000000, 0.000000000000000000, 5.000000000000000000 ) ) ;
#257 = CARTESIAN_POINT ( 'NONE',  ( 0.000000000000000000, 0.000000000000000000, 5.200000000000009948 ) ) ;
#258 = DIRECTION ( 'NONE',  ( 1.000000000000000000, 0.000000000000000000, 0.000000000000000000 ) ) ;
#259 = VECTOR ( 'NONE', #76, 1000.000000000000000 ) ;
#260 = DIRECTION ( 'NONE',  ( 1.000000000000000000, 0.000000000000000000, 0.000000000000000000 ) ) ;
#261 = DIRECTION ( 'NONE',  ( -0.000000000000000000, -0.000000000000000000, -1.000000000000000000 ) ) ;
#262 = DIRECTION ( 'NONE',  ( 1.000000000000000000, 0.000000000000000000, 0.000000000000000000 ) ) ;
#263 = APPROVAL_PERSON_ORGANIZATION ( #57, #249, #162 ) ;
#264 = ADVANCED_FACE ( 'NONE', ( #178 ), #221, .T. ) ;
#265 = CARTESIAN_POINT ( 'NONE',  ( 0.000000000000000000, 0.000000000000000000, 5.000000000000000000 ) ) ;
#266 = CYLINDRICAL_SURFACE ( 'NONE', #135, 3.000000000000000444 ) ;
#267 = CARTESIAN_POINT ( 'NONE',  ( 3.000000000000000444, 3.673940397442060361E-16, 5.200000000000009948 ) ) ;
#268 = EDGE_CURVE ( 'NONE', #298, #46, #79, .T. ) ;
#269 = VECTOR ( 'NONE', #94, 1000.000000000000000 ) ;
#270 = COORDINATED_UNIVERSAL_TIME_OFFSET ( 1, 0, .AHEAD. ) ;
#271 = ADVANCED_FACE ( 'NONE', ( #129 ), #245, .T. ) ;
#272 = CALENDAR_DATE ( 2022, 20, 6 ) ;
#273 = ORIENTED_EDGE ( 'NONE', *, *, #233, .F. ) ;
#274 = CIRCLE ( 'NONE', #130, 6.000000000000000888 ) ;
#275 = APPROVAL_PERSON_ORGANIZATION ( #60, #112, #250 ) ;
#276 = PERSON_AND_ORGANIZATION ( #14, #299 ) ;
#277 = ORIENTED_EDGE ( 'NONE', *, *, #209, .F. ) ;
#278 = APPLICATION_CONTEXT ( 'configuration controlled 3d designs of mechanical parts and assemblies' ) ;
#279 = PERSON_AND_ORGANIZATION_ROLE ( 'design_owner' ) ;
#280 = EDGE_LOOP ( 'NONE', ( #277, #290, #15, #116 ) ) ;
#281 = CIRCLE ( 'NONE', #186, 6.000000000000000888 ) ;
#282 = CARTESIAN_POINT ( 'NONE',  ( 6.000000000000000888, 7.347880794884120722E-16, 0.000000000000000000 ) ) ;
#283 = ORIENTED_EDGE ( 'NONE', *, *, #38, .F. ) ;
#284 = ORIENTED_EDGE ( 'NONE', *, *, #268, .F. ) ;
#285 = CARTESIAN_POINT ( 'NONE',  ( 0.000000000000000000, 0.000000000000000000, 5.000000000000000000 ) ) ;
#286 = DIRECTION ( 'NONE',  ( 1.224646799147353207E-16, 1.000000000000000000, -0.000000000000000000 ) ) ;
#287 = CARTESIAN_POINT ( 'NONE',  ( 0.000000000000000000, 0.000000000000000000, 5.000000000000000000 ) ) ;
#288 = LOCAL_TIME ( 11, 58, 15.00000000000000000, #137 ) ;
#289 = DATE_TIME_ROLE ( 'classification_date' ) ;
#290 = ORIENTED_EDGE ( 'NONE', *, *, #296, .T. ) ;
#291 = CC_DESIGN_APPROVAL ( #249, ( #126 ) ) ;
#292 = SECURITY_CLASSIFICATION_LEVEL ( 'unclassified' ) ;
#293 = EDGE_LOOP ( 'NONE', ( #114, #273 ) ) ;
#294 = APPROVAL_DATE_TIME ( #83, #112 ) ;
#295 = EDGE_LOOP ( 'NONE', ( #59, #190, #194, #138 ) ) ;
#296 = EDGE_CURVE ( 'NONE', #217, #298, #131, .T. ) ;
#297 = DIRECTION ( 'NONE',  ( 0.000000000000000000, 0.000000000000000000, 1.000000000000000000 ) ) ;
#298 = VERTEX_POINT ( 'NONE', #102 ) ;
#299 = ORGANIZATION ( 'NEURÈENÝ', 'NEURÈENÝ', '' ) ;
#300 = CARTESIAN_POINT ( 'NONE',  ( 0.000000000000000000, 0.000000000000000000, 0.000000000000000000 ) ) ;
#301 = ORIENTED_EDGE ( 'NONE', *, *, #244, .T. ) ;
#302 = EDGE_CURVE ( 'NONE', #124, #217, #202, .T. ) ;
#303 = DIRECTION ( 'NONE',  ( -1.000000000000000000, 0.000000000000000000, 0.000000000000000000 ) ) ;
#304 = ORIENTED_EDGE ( 'NONE', *, *, #43, .T. ) ;
#305 = FACE_OUTER_BOUND ( 'NONE', #136, .T. ) ;
#306 = CARTESIAN_POINT ( 'NONE',  ( 0.000000000000000000, 0.000000000000000000, 0.000000000000000000 ) ) ;
#307 = CIRCLE ( 'NONE', #106, 3.200000000000000622 ) ;
ENDSEC;
END-ISO-10303-21;
