ISO-10303-21;
HEADER;
FILE_DESCRIPTION (( 'STEP AP203' ),
    '1' );
FILE_NAME ('93e3.STEP',
    '2022-06-20T10:04:24',
    ( '' ),
    ( '' ),
    'SwSTEP 2.0',
    'SolidWorks 2019',
    '' );
FILE_SCHEMA (( 'CONFIG_CONTROL_DESIGN' ));
ENDSEC;

DATA;
#1 = ORIENTED_EDGE ( 'NONE', *, *, #54, .T. ) ;
#2 = CARTESIAN_POINT ( 'NONE',  ( 0.000000000000000000, 0.000000000000000000, 103.0000000000000142 ) ) ;
#3 = DIRECTION ( 'NONE',  ( 0.000000000000000000, 0.000000000000000000, 1.000000000000000000 ) ) ;
#4 = EDGE_CURVE ( 'NONE', #116, #182, #17, .T. ) ;
#5 = FACE_OUTER_BOUND ( 'NONE', #249, .T. ) ;
#6 = CC_DESIGN_PERSON_AND_ORGANIZATION_ASSIGNMENT ( #107, #138, ( #259 ) ) ;
#7 = DIRECTION ( 'NONE',  ( 0.000000000000000000, 0.000000000000000000, 1.000000000000000000 ) ) ;
#8 = CARTESIAN_POINT ( 'NONE',  ( 2.500000000000000000, 3.061616997868383141E-16, 3.199999999999994404 ) ) ;
#9 = APPROVAL_PERSON_ORGANIZATION ( #155, #225, #236 ) ;
#10 = ADVANCED_FACE ( 'NONE', ( #188 ), #21, .T. ) ;
#11 = EDGE_LOOP ( 'NONE', ( #233, #307, #113, #99 ) ) ;
#12 = PERSON_AND_ORGANIZATION_ROLE ( 'design_supplier' ) ;
#13 = ORIENTED_EDGE ( 'NONE', *, *, #230, .F. ) ;
#14 = APPROVAL_DATE_TIME ( #135, #60 ) ;
#15 = CALENDAR_DATE ( 2022, 20, 6 ) ;
#16 = ORIENTED_EDGE ( 'NONE', *, *, #191, .T. ) ;
#17 = CIRCLE ( 'NONE', #270, 0.2000000000000000944 ) ;
#18 = CALENDAR_DATE ( 2022, 20, 6 ) ;
#19 = ORIENTED_EDGE ( 'NONE', *, *, #274, .F. ) ;
#20 = CC_DESIGN_PERSON_AND_ORGANIZATION_ASSIGNMENT ( #59, #62, ( #217 ) ) ;
#21 = CYLINDRICAL_SURFACE ( 'NONE', #211, 2.500000000000000000 ) ;
#22 = ORIENTED_EDGE ( 'NONE', *, *, #264, .T. ) ;
#23 = DIRECTION ( 'NONE',  ( 0.000000000000000000, 0.000000000000000000, 1.000000000000000000 ) ) ;
#24 = AXIS2_PLACEMENT_3D ( 'NONE', #89, #66, #42 ) ;
#25 = DIRECTION ( 'NONE',  ( 1.000000000000000000, 0.000000000000000000, 0.000000000000000000 ) ) ;
#26 = CARTESIAN_POINT ( 'NONE',  ( 0.000000000000000000, 0.000000000000000000, 3.000000000000000000 ) ) ;
#27 = DIRECTION ( 'NONE',  ( 1.000000000000000000, 0.000000000000000000, 0.000000000000000000 ) ) ;
#28 = AXIS2_PLACEMENT_3D ( 'NONE', #2, #78, #25 ) ;
#29 = ORGANIZATION ( 'NEURÈENÝ', 'NEURÈENÝ', '' ) ;
#30 = DIRECTION ( 'NONE',  ( 1.000000000000000000, 0.000000000000000000, -0.000000000000000000 ) ) ;
#31 = CARTESIAN_POINT ( 'NONE',  ( 0.000000000000000000, 0.000000000000000000, 103.0000000000000142 ) ) ;
#32 = APPROVAL_ROLE ( '' ) ;
#33 = AXIS2_PLACEMENT_3D ( 'NONE', #266, #7, #123 ) ;
#34 = ORIENTED_EDGE ( 'NONE', *, *, #148, .F. ) ;
#35 = CLOSED_SHELL ( 'NONE', ( #296, #134, #199, #105, #79, #302, #10, #241, #128 ) ) ;
#36 = CALENDAR_DATE ( 2022, 20, 6 ) ;
#37 = EDGE_CURVE ( 'NONE', #275, #201, #282, .T. ) ;
#38 = ORIENTED_EDGE ( 'NONE', *, *, #90, .T. ) ;
#39 = AXIS2_PLACEMENT_3D ( 'NONE', #145, #216, #218 ) ;
#40 = COORDINATED_UNIVERSAL_TIME_OFFSET ( 1, 0, .AHEAD. ) ;
#41 = EDGE_LOOP ( 'NONE', ( #67, #224 ) ) ;
#42 = DIRECTION ( 'NONE',  ( 1.000000000000000000, 0.000000000000000000, 0.000000000000000000 ) ) ;
#43 = CARTESIAN_POINT ( 'NONE',  ( 0.000000000000000000, 0.000000000000000000, 3.000000000000000000 ) ) ;
#44 = VERTEX_POINT ( 'NONE', #94 ) ;
#45 = CARTESIAN_POINT ( 'NONE',  ( 0.000000000000000000, 0.000000000000000000, 3.199999999999994404 ) ) ;
#46 = ORIENTED_EDGE ( 'NONE', *, *, #37, .F. ) ;
#47 = CIRCLE ( 'NONE', #39, 5.000000000000000000 ) ;
#48 = CARTESIAN_POINT ( 'NONE',  ( 0.000000000000000000, 0.000000000000000000, 3.000000000000000000 ) ) ;
#49 = CARTESIAN_POINT ( 'NONE',  ( -2.700000000000000178, 3.306546357697853733E-16, 2.999999999999997335 ) ) ;
#50 = LINE ( 'NONE', #262, #286 ) ;
#51 = CARTESIAN_POINT ( 'NONE',  ( 0.000000000000000000, 0.000000000000000000, 0.000000000000000000 ) ) ;
#52 =( GEOMETRIC_REPRESENTATION_CONTEXT ( 3 ) GLOBAL_UNCERTAINTY_ASSIGNED_CONTEXT ( ( #279 ) ) GLOBAL_UNIT_ASSIGNED_CONTEXT ( ( #151, #288, #131 ) ) REPRESENTATION_CONTEXT ( 'NONE', 'WORKASPACE' ) );
#53 = CARTESIAN_POINT ( 'NONE',  ( 5.000000000000000000, 6.123233995736766282E-16, 3.000000000000000000 ) ) ;
#54 = EDGE_CURVE ( 'NONE', #293, #116, #168, .T. ) ;
#55 = ADVANCED_BREP_SHAPE_REPRESENTATION ( '93e3', ( #120, #85 ), #52 ) ;
#56 = COORDINATED_UNIVERSAL_TIME_OFFSET ( 1, 0, .AHEAD. ) ;
#57 = DIRECTION ( 'NONE',  ( 0.000000000000000000, 0.000000000000000000, 1.000000000000000000 ) ) ;
#58 = AXIS2_PLACEMENT_3D ( 'NONE', #51, #149, #30 ) ;
#59 = PERSON_AND_ORGANIZATION ( #298, #29 ) ;
#60 = APPROVAL ( #136, 'NEURÈENÝ' ) ;
#61 = SECURITY_CLASSIFICATION_LEVEL ( 'unclassified' ) ;
#62 = PERSON_AND_ORGANIZATION_ROLE ( 'design_owner' ) ;
#63 = CIRCLE ( 'NONE', #28, 2.500000000000000000 ) ;
#64 = CC_DESIGN_APPROVAL ( #60, ( #259 ) ) ;
#65 = VERTEX_POINT ( 'NONE', #252 ) ;
#66 = DIRECTION ( 'NONE',  ( 0.000000000000000000, 0.000000000000000000, 1.000000000000000000 ) ) ;
#67 = ORIENTED_EDGE ( 'NONE', *, *, #283, .T. ) ;
#68 = VECTOR ( 'NONE', #242, 1000.000000000000000 ) ;
#69 = DIRECTION ( 'NONE',  ( 0.000000000000000000, -1.000000000000000000, 0.000000000000000000 ) ) ;
#70 = CC_DESIGN_PERSON_AND_ORGANIZATION_ASSIGNMENT ( #200, #292, ( #96 ) ) ;
#71 = CARTESIAN_POINT ( 'NONE',  ( 0.000000000000000000, 0.000000000000000000, 3.199999999999994404 ) ) ;
#72 = DATE_AND_TIME ( #121, #255 ) ;
#73 = CYLINDRICAL_SURFACE ( 'NONE', #238, 2.500000000000000000 ) ;
#74 = AXIS2_PLACEMENT_3D ( 'NONE', #194, #77, #171 ) ;
#75 = CARTESIAN_POINT ( 'NONE',  ( -2.500000000000000000, 0.000000000000000000, 103.0000000000000142 ) ) ;
#76 = CARTESIAN_POINT ( 'NONE',  ( -5.000000000000000000, 0.000000000000000000, 3.000000000000000000 ) ) ;
#77 = DIRECTION ( 'NONE',  ( 0.000000000000000000, 0.000000000000000000, 1.000000000000000000 ) ) ;
#78 = DIRECTION ( 'NONE',  ( 0.000000000000000000, 0.000000000000000000, 1.000000000000000000 ) ) ;
#79 = ADVANCED_FACE ( 'NONE', ( #301, #254 ), #142, .T. ) ;
#80 = AXIS2_PLACEMENT_3D ( 'NONE', #26, #124, #237 ) ;
#81 = PERSON_AND_ORGANIZATION ( #298, #29 ) ;
#82 = AXIS2_PLACEMENT_3D ( 'NONE', #210, #69, #163 ) ;
#83 = APPROVAL_ROLE ( '' ) ;
#84 = APPLICATION_PROTOCOL_DEFINITION ( 'international standard', 'config_control_design', 1994, #273 ) ;
#85 = AXIS2_PLACEMENT_3D ( 'NONE', #244, #57, #267 ) ;
#86 = CALENDAR_DATE ( 2022, 20, 6 ) ;
#87 = EDGE_LOOP ( 'NONE', ( #13, #153, #304, #114 ) ) ;
#88 = EDGE_LOOP ( 'NONE', ( #16, #257 ) ) ;
#89 = CARTESIAN_POINT ( 'NONE',  ( 0.000000000000000000, 0.000000000000000000, 3.199999999999994404 ) ) ;
#90 = EDGE_CURVE ( 'NONE', #293, #44, #180, .T. ) ;
#91 = ORIENTED_EDGE ( 'NONE', *, *, #148, .T. ) ;
#92 = CIRCLE ( 'NONE', #306, 5.000000000000000000 ) ;
#93 = EDGE_CURVE ( 'NONE', #116, #293, #251, .T. ) ;
#94 = CARTESIAN_POINT ( 'NONE',  ( 2.700000000000000178, 0.000000000000000000, 2.999999999999997335 ) ) ;
#95 = CC_DESIGN_DATE_AND_TIME_ASSIGNMENT ( #177, #223, ( #259 ) ) ;
#96 = PRODUCT_DEFINITION_FORMATION_WITH_SPECIFIED_SOURCE ( 'LIBOVOLNÝ', '', #217, .NOT_KNOWN. ) ;
#97 = DIRECTION ( 'NONE',  ( -1.000000000000000000, 1.224646799147353207E-16, 0.000000000000000000 ) ) ;
#98 = AXIS2_PLACEMENT_3D ( 'NONE', #71, #184, #161 ) ;
#99 = ORIENTED_EDGE ( 'NONE', *, *, #164, .T. ) ;
#100 = DIRECTION ( 'NONE',  ( 1.000000000000000000, 0.000000000000000000, 0.000000000000000000 ) ) ;
#101 = APPROVAL_DATE_TIME ( #72, #225 ) ;
#102 = LOCAL_TIME ( 12, 4, 24.00000000000000000, #56 ) ;
#103 = DIRECTION ( 'NONE',  ( 0.000000000000000000, 0.000000000000000000, 1.000000000000000000 ) ) ;
#104 = CARTESIAN_POINT ( 'NONE',  ( 0.000000000000000000, 0.000000000000000000, 0.000000000000000000 ) ) ;
#105 = ADVANCED_FACE ( 'NONE', ( #162 ), #253, .T. ) ;
#106 = DIRECTION ( 'NONE',  ( -1.000000000000000000, 0.000000000000000000, 0.000000000000000000 ) ) ;
#107 = PERSON_AND_ORGANIZATION ( #298, #29 ) ;
#108 = DATE_AND_TIME ( #86, #102 ) ;
#109 = ORIENTED_EDGE ( 'NONE', *, *, #37, .T. ) ;
#110 = DATE_AND_TIME ( #18, #239 ) ;
#111 = APPROVAL_PERSON_ORGANIZATION ( #269, #231, #83 ) ;
#112 = APPROVAL_STATUS ( 'not_yet_approved' ) ;
#113 = ORIENTED_EDGE ( 'NONE', *, *, #245, .T. ) ;
#114 = ORIENTED_EDGE ( 'NONE', *, *, #245, .F. ) ;
#115 = CARTESIAN_POINT ( 'NONE',  ( 0.000000000000000000, 0.000000000000000000, 103.0000000000000142 ) ) ;
#116 = VERTEX_POINT ( 'NONE', #119 ) ;
#117 = AXIS2_PLACEMENT_3D ( 'NONE', #45, #143, #232 ) ;
#118 = CARTESIAN_POINT ( 'NONE',  ( 0.000000000000000000, 0.000000000000000000, 103.0000000000000142 ) ) ;
#119 = CARTESIAN_POINT ( 'NONE',  ( -2.500000000000000000, 0.000000000000000000, 3.199999999999994404 ) ) ;
#120 = MANIFOLD_SOLID_BREP ( 'Zaoblit1', #35 ) ;
#121 = CALENDAR_DATE ( 2022, 20, 6 ) ;
#122 = DIRECTION ( 'NONE',  ( 0.000000000000000000, 0.000000000000000000, 1.000000000000000000 ) ) ;
#123 = DIRECTION ( 'NONE',  ( 1.000000000000000000, 0.000000000000000000, -0.000000000000000000 ) ) ;
#124 = DIRECTION ( 'NONE',  ( -0.000000000000000000, -0.000000000000000000, -1.000000000000000000 ) ) ;
#125 = VECTOR ( 'NONE', #167, 1000.000000000000000 ) ;
#126 = CC_DESIGN_SECURITY_CLASSIFICATION ( #227, ( #96 ) ) ;
#127 = CARTESIAN_POINT ( 'NONE',  ( -5.000000000000000000, 0.000000000000000000, 0.000000000000000000 ) ) ;
#128 = ADVANCED_FACE ( 'NONE', ( #226 ), #206, .F. ) ;
#129 = DIRECTION ( 'NONE',  ( 1.000000000000000000, 0.000000000000000000, 0.000000000000000000 ) ) ;
#130 = CARTESIAN_POINT ( 'NONE',  ( 0.000000000000000000, 0.000000000000000000, 0.000000000000000000 ) ) ;
#131 =( NAMED_UNIT ( * ) SI_UNIT ( $, .STERADIAN. ) SOLID_ANGLE_UNIT ( ) );
#132 = LOCAL_TIME ( 12, 4, 24.00000000000000000, #247 ) ;
#133 = ORIENTED_EDGE ( 'NONE', *, *, #90, .F. ) ;
#134 = ADVANCED_FACE ( 'NONE', ( #205 ), #73, .T. ) ;
#135 = DATE_AND_TIME ( #15, #300 ) ;
#136 = APPROVAL_STATUS ( 'not_yet_approved' ) ;
#137 = EDGE_CURVE ( 'NONE', #183, #295, #92, .T. ) ;
#138 = PERSON_AND_ORGANIZATION_ROLE ( 'creator' ) ;
#139 = ORIENTED_EDGE ( 'NONE', *, *, #219, .F. ) ;
#140 = EDGE_CURVE ( 'NONE', #65, #183, #240, .T. ) ;
#141 = DIRECTION ( 'NONE',  ( -0.000000000000000000, -0.000000000000000000, -1.000000000000000000 ) ) ;
#142 = PLANE ( 'NONE',  #303 ) ;
#143 = DIRECTION ( 'NONE',  ( 0.000000000000000000, 0.000000000000000000, 1.000000000000000000 ) ) ;
#144 = DIRECTION ( 'NONE',  ( 1.224646799147353207E-16, 1.000000000000000000, -0.000000000000000000 ) ) ;
#145 = CARTESIAN_POINT ( 'NONE',  ( 0.000000000000000000, 0.000000000000000000, 3.000000000000000000 ) ) ;
#146 = DIRECTION ( 'NONE',  ( 1.000000000000000000, 0.000000000000000000, 0.000000000000000000 ) ) ;
#147 = DIRECTION ( 'NONE',  ( -0.000000000000000000, -0.000000000000000000, -1.000000000000000000 ) ) ;
#148 = EDGE_CURVE ( 'NONE', #201, #275, #63, .T. ) ;
#149 = DIRECTION ( 'NONE',  ( 0.000000000000000000, 0.000000000000000000, 1.000000000000000000 ) ) ;
#150 = LINE ( 'NONE', #75, #68 ) ;
#151 =( LENGTH_UNIT ( ) NAMED_UNIT ( * ) SI_UNIT ( .MILLI., .METRE. ) );
#152 = ORIENTED_EDGE ( 'NONE', *, *, #264, .F. ) ;
#153 = ORIENTED_EDGE ( 'NONE', *, *, #140, .T. ) ;
#154 = PERSON_AND_ORGANIZATION_ROLE ( 'classification_officer' ) ;
#155 = PERSON_AND_ORGANIZATION ( #298, #29 ) ;
#156 = CIRCLE ( 'NONE', #158, 2.700000000000000178 ) ;
#157 = ORIENTED_EDGE ( 'NONE', *, *, #93, .F. ) ;
#158 = AXIS2_PLACEMENT_3D ( 'NONE', #281, #170, #146 ) ;
#159 = DIRECTION ( 'NONE',  ( -1.000000000000000000, 0.000000000000000000, 0.000000000000000000 ) ) ;
#160 = CARTESIAN_POINT ( 'NONE',  ( -2.700000000000000178, 3.306546357697853733E-16, 3.199999999999994404 ) ) ;
#161 = DIRECTION ( 'NONE',  ( 1.000000000000000000, 0.000000000000000000, 0.000000000000000000 ) ) ;
#162 = FACE_OUTER_BOUND ( 'NONE', #11, .T. ) ;
#163 = DIRECTION ( 'NONE',  ( 0.000000000000000000, 0.000000000000000000, -1.000000000000000000 ) ) ;
#164 = EDGE_CURVE ( 'NONE', #295, #183, #172, .T. ) ;
#165 = DIRECTION ( 'NONE',  ( -0.000000000000000000, -0.000000000000000000, -1.000000000000000000 ) ) ;
#166 = DESIGN_CONTEXT ( 'detailed design', #185, 'design' ) ;
#167 = DIRECTION ( 'NONE',  ( -0.000000000000000000, -0.000000000000000000, -1.000000000000000000 ) ) ;
#168 = CIRCLE ( 'NONE', #98, 2.500000000000000000 ) ;
#169 = SHAPE_DEFINITION_REPRESENTATION ( #173, #55 ) ;
#170 = DIRECTION ( 'NONE',  ( -0.000000000000000000, -0.000000000000000000, -1.000000000000000000 ) ) ;
#171 = DIRECTION ( 'NONE',  ( 1.000000000000000000, 0.000000000000000000, 0.000000000000000000 ) ) ;
#172 = CIRCLE ( 'NONE', #299, 5.000000000000000000 ) ;
#173 = PRODUCT_DEFINITION_SHAPE ( 'NONE', 'NONE',  #259 ) ;
#174 = LINE ( 'NONE', #280, #178 ) ;
#175 = APPROVAL_DATE_TIME ( #110, #231 ) ;
#176 = COORDINATED_UNIVERSAL_TIME_OFFSET ( 1, 0, .AHEAD. ) ;
#177 = DATE_AND_TIME ( #36, #132 ) ;
#178 = VECTOR ( 'NONE', #147, 1000.000000000000000 ) ;
#179 = EDGE_LOOP ( 'NONE', ( #109, #91 ) ) ;
#180 = CIRCLE ( 'NONE', #82, 0.2000000000000000944 ) ;
#181 = ORIENTED_EDGE ( 'NONE', *, *, #283, .F. ) ;
#182 = VERTEX_POINT ( 'NONE', #49 ) ;
#183 = VERTEX_POINT ( 'NONE', #213 ) ;
#184 = DIRECTION ( 'NONE',  ( 0.000000000000000000, 0.000000000000000000, 1.000000000000000000 ) ) ;
#185 = APPLICATION_CONTEXT ( 'configuration controlled 3d designs of mechanical parts and assemblies' ) ;
#186 = ORIENTED_EDGE ( 'NONE', *, *, #137, .F. ) ;
#187 = CIRCLE ( 'NONE', #214, 5.000000000000000000 ) ;
#188 = FACE_OUTER_BOUND ( 'NONE', #198, .T. ) ;
#189 = VERTEX_POINT ( 'NONE', #76 ) ;
#190 = DIRECTION ( 'NONE',  ( -0.000000000000000000, -0.000000000000000000, -1.000000000000000000 ) ) ;
#191 = EDGE_CURVE ( 'NONE', #189, #65, #47, .T. ) ;
#192 = TOROIDAL_SURFACE ( 'NONE', #74, 2.700000000000000178, 0.2000000000000000111 ) ;
#193 = FACE_OUTER_BOUND ( 'NONE', #87, .T. ) ;
#194 = CARTESIAN_POINT ( 'NONE',  ( 0.000000000000000000, 0.000000000000000000, 3.199999999999994404 ) ) ;
#195 = DIRECTION ( 'NONE',  ( -1.000000000000000000, 0.000000000000000000, 0.000000000000000000 ) ) ;
#196 = CIRCLE ( 'NONE', #80, 2.700000000000000178 ) ;
#197 = PERSON_AND_ORGANIZATION ( #298, #29 ) ;
#198 = EDGE_LOOP ( 'NONE', ( #152, #46, #271, #208 ) ) ;
#199 = ADVANCED_FACE ( 'NONE', ( #193 ), #285, .T. ) ;
#200 = PERSON_AND_ORGANIZATION ( #298, #29 ) ;
#201 = VERTEX_POINT ( 'NONE', #278 ) ;
#202 = PRODUCT_RELATED_PRODUCT_CATEGORY ( 'detail', '', ( #217 ) ) ;
#203 = CARTESIAN_POINT ( 'NONE',  ( 0.000000000000000000, 0.000000000000000000, 3.000000000000000000 ) ) ;
#204 = CC_DESIGN_APPROVAL ( #231, ( #96 ) ) ;
#205 = FACE_OUTER_BOUND ( 'NONE', #220, .T. ) ;
#206 = TOROIDAL_SURFACE ( 'NONE', #117, 2.700000000000000178, 0.2000000000000000111 ) ;
#207 = DIRECTION ( 'NONE',  ( 1.000000000000000000, 0.000000000000000000, 0.000000000000000000 ) ) ;
#208 = ORIENTED_EDGE ( 'NONE', *, *, #93, .T. ) ;
#209 = APPROVAL_PERSON_ORGANIZATION ( #197, #60, #32 ) ;
#210 = CARTESIAN_POINT ( 'NONE',  ( 2.700000000000000178, 0.000000000000000000, 3.199999999999994404 ) ) ;
#211 = AXIS2_PLACEMENT_3D ( 'NONE', #115, #277, #159 ) ;
#212 = DIRECTION ( 'NONE',  ( 0.000000000000000000, 0.000000000000000000, 1.000000000000000000 ) ) ;
#213 = CARTESIAN_POINT ( 'NONE',  ( 5.000000000000000000, 6.123233995736766282E-16, 0.000000000000000000 ) ) ;
#214 = AXIS2_PLACEMENT_3D ( 'NONE', #48, #212, #27 ) ;
#215 = FACE_OUTER_BOUND ( 'NONE', #305, .T. ) ;
#216 = DIRECTION ( 'NONE',  ( 0.000000000000000000, 0.000000000000000000, 1.000000000000000000 ) ) ;
#217 = PRODUCT ( '93e3', '93e3', '', ( #294 ) ) ;
#218 = DIRECTION ( 'NONE',  ( 1.000000000000000000, 0.000000000000000000, 0.000000000000000000 ) ) ;
#219 = EDGE_CURVE ( 'NONE', #182, #44, #156, .T. ) ;
#220 = EDGE_LOOP ( 'NONE', ( #34, #22, #1, #19 ) ) ;
#221 = AXIS2_PLACEMENT_3D ( 'NONE', #261, #165, #106 ) ;
#222 = DATE_TIME_ROLE ( 'classification_date' ) ;
#223 = DATE_TIME_ROLE ( 'creation_date' ) ;
#224 = ORIENTED_EDGE ( 'NONE', *, *, #219, .T. ) ;
#225 = APPROVAL ( #260, 'NEURÈENÝ' ) ;
#226 = FACE_OUTER_BOUND ( 'NONE', #291, .T. ) ;
#227 = SECURITY_CLASSIFICATION ( '', '', #61 ) ;
#228 = ORIENTED_EDGE ( 'NONE', *, *, #164, .F. ) ;
#229 = AXIS2_PLACEMENT_3D ( 'NONE', #118, #23, #207 ) ;
#230 = EDGE_CURVE ( 'NONE', #65, #189, #187, .T. ) ;
#231 = APPROVAL ( #112, 'NEURÈENÝ' ) ;
#232 = DIRECTION ( 'NONE',  ( 1.000000000000000000, 0.000000000000000000, 0.000000000000000000 ) ) ;
#233 = ORIENTED_EDGE ( 'NONE', *, *, #140, .F. ) ;
#234 = PLANE ( 'NONE',  #33 ) ;
#235 = CARTESIAN_POINT ( 'NONE',  ( -2.500000000000000000, 0.000000000000000000, 103.0000000000000142 ) ) ;
#236 = APPROVAL_ROLE ( '' ) ;
#237 = DIRECTION ( 'NONE',  ( 1.000000000000000000, 0.000000000000000000, 0.000000000000000000 ) ) ;
#238 = AXIS2_PLACEMENT_3D ( 'NONE', #31, #258, #195 ) ;
#239 = LOCAL_TIME ( 12, 4, 24.00000000000000000, #287 ) ;
#240 = LINE ( 'NONE', #53, #125 ) ;
#241 = ADVANCED_FACE ( 'NONE', ( #284 ), #234, .T. ) ;
#242 = DIRECTION ( 'NONE',  ( -0.000000000000000000, -0.000000000000000000, -1.000000000000000000 ) ) ;
#243 = CC_DESIGN_PERSON_AND_ORGANIZATION_ASSIGNMENT ( #81, #154, ( #227 ) ) ;
#244 = CARTESIAN_POINT ( 'NONE',  ( 0.000000000000000000, 0.000000000000000000, 0.000000000000000000 ) ) ;
#245 = EDGE_CURVE ( 'NONE', #189, #295, #50, .T. ) ;
#246 = AXIS2_PLACEMENT_3D ( 'NONE', #43, #141, #256 ) ;
#247 = COORDINATED_UNIVERSAL_TIME_OFFSET ( 1, 0, .AHEAD. ) ;
#248 = PERSON_AND_ORGANIZATION ( #298, #29 ) ;
#249 = EDGE_LOOP ( 'NONE', ( #228, #186 ) ) ;
#250 = APPLICATION_PROTOCOL_DEFINITION ( 'international standard', 'config_control_design', 1994, #185 ) ;
#251 = CIRCLE ( 'NONE', #24, 2.500000000000000000 ) ;
#252 = CARTESIAN_POINT ( 'NONE',  ( 5.000000000000000000, 6.123233995736766282E-16, 3.000000000000000000 ) ) ;
#253 = CYLINDRICAL_SURFACE ( 'NONE', #246, 5.000000000000000000 ) ;
#254 = FACE_OUTER_BOUND ( 'NONE', #88, .T. ) ;
#255 = LOCAL_TIME ( 12, 4, 24.00000000000000000, #176 ) ;
#256 = DIRECTION ( 'NONE',  ( -1.000000000000000000, 0.000000000000000000, 0.000000000000000000 ) ) ;
#257 = ORIENTED_EDGE ( 'NONE', *, *, #230, .T. ) ;
#258 = DIRECTION ( 'NONE',  ( -0.000000000000000000, -0.000000000000000000, -1.000000000000000000 ) ) ;
#259 = PRODUCT_DEFINITION ( 'NEZNÁMÝ', '', #96, #166 ) ;
#260 = APPROVAL_STATUS ( 'not_yet_approved' ) ;
#261 = CARTESIAN_POINT ( 'NONE',  ( 0.000000000000000000, 0.000000000000000000, 3.000000000000000000 ) ) ;
#262 = CARTESIAN_POINT ( 'NONE',  ( -5.000000000000000000, 0.000000000000000000, 3.000000000000000000 ) ) ;
#263 = PLANE ( 'NONE',  #58 ) ;
#264 = EDGE_CURVE ( 'NONE', #201, #293, #174, .T. ) ;
#265 = CC_DESIGN_PERSON_AND_ORGANIZATION_ASSIGNMENT ( #248, #12, ( #96 ) ) ;
#266 = CARTESIAN_POINT ( 'NONE',  ( 0.000000000000000000, 0.000000000000000000, 103.0000000000000142 ) ) ;
#267 = DIRECTION ( 'NONE',  ( 1.000000000000000000, 0.000000000000000000, 0.000000000000000000 ) ) ;
#268 = CC_DESIGN_APPROVAL ( #225, ( #227 ) ) ;
#269 = PERSON_AND_ORGANIZATION ( #298, #29 ) ;
#270 = AXIS2_PLACEMENT_3D ( 'NONE', #160, #144, #97 ) ;
#271 = ORIENTED_EDGE ( 'NONE', *, *, #274, .T. ) ;
#272 = ORIENTED_EDGE ( 'NONE', *, *, #54, .F. ) ;
#273 = APPLICATION_CONTEXT ( 'configuration controlled 3d designs of mechanical parts and assemblies' ) ;
#274 = EDGE_CURVE ( 'NONE', #275, #116, #150, .T. ) ;
#275 = VERTEX_POINT ( 'NONE', #235 ) ;
#276 = DIRECTION ( 'NONE',  ( 1.000000000000000000, 0.000000000000000000, -0.000000000000000000 ) ) ;
#277 = DIRECTION ( 'NONE',  ( -0.000000000000000000, -0.000000000000000000, -1.000000000000000000 ) ) ;
#278 = CARTESIAN_POINT ( 'NONE',  ( 2.500000000000000000, 3.061616997868383141E-16, 103.0000000000000142 ) ) ;
#279 = UNCERTAINTY_MEASURE_WITH_UNIT (LENGTH_MEASURE( 1.000000000000000082E-05 ), #151, 'distance_accuracy_value', 'NONE');
#280 = CARTESIAN_POINT ( 'NONE',  ( 2.500000000000000000, 3.061616997868383141E-16, 103.0000000000000142 ) ) ;
#281 = CARTESIAN_POINT ( 'NONE',  ( 0.000000000000000000, 0.000000000000000000, 3.000000000000000000 ) ) ;
#282 = CIRCLE ( 'NONE', #229, 2.500000000000000000 ) ;
#283 = EDGE_CURVE ( 'NONE', #44, #182, #196, .T. ) ;
#284 = FACE_OUTER_BOUND ( 'NONE', #179, .T. ) ;
#285 = CYLINDRICAL_SURFACE ( 'NONE', #221, 5.000000000000000000 ) ;
#286 = VECTOR ( 'NONE', #190, 1000.000000000000000 ) ;
#287 = COORDINATED_UNIVERSAL_TIME_OFFSET ( 1, 0, .AHEAD. ) ;
#288 =( NAMED_UNIT ( * ) PLANE_ANGLE_UNIT ( ) SI_UNIT ( $, .RADIAN. ) );
#289 = ORIENTED_EDGE ( 'NONE', *, *, #4, .F. ) ;
#290 = CC_DESIGN_DATE_AND_TIME_ASSIGNMENT ( #108, #222, ( #227 ) ) ;
#291 = EDGE_LOOP ( 'NONE', ( #289, #272, #38, #139 ) ) ;
#292 = PERSON_AND_ORGANIZATION_ROLE ( 'creator' ) ;
#293 = VERTEX_POINT ( 'NONE', #8 ) ;
#294 = MECHANICAL_CONTEXT ( 'NONE', #273, 'mechanical' ) ;
#295 = VERTEX_POINT ( 'NONE', #127 ) ;
#296 = ADVANCED_FACE ( 'NONE', ( #215 ), #192, .F. ) ;
#297 = ORIENTED_EDGE ( 'NONE', *, *, #4, .T. ) ;
#298 = PERSON ( 'NEURÈENÝ', 'NEURÈENÝ', 'NEURÈENÝ', ('NEURÈENÝ'), ('NEURÈENÝ'), ('NEURÈENÝ') ) ;
#299 = AXIS2_PLACEMENT_3D ( 'NONE', #104, #3, #100 ) ;
#300 = LOCAL_TIME ( 12, 4, 24.00000000000000000, #40 ) ;
#301 = FACE_BOUND ( 'NONE', #41, .T. ) ;
#302 = ADVANCED_FACE ( 'NONE', ( #5 ), #263, .F. ) ;
#303 = AXIS2_PLACEMENT_3D ( 'NONE', #203, #122, #276 ) ;
#304 = ORIENTED_EDGE ( 'NONE', *, *, #137, .T. ) ;
#305 = EDGE_LOOP ( 'NONE', ( #157, #297, #181, #133 ) ) ;
#306 = AXIS2_PLACEMENT_3D ( 'NONE', #130, #103, #129 ) ;
#307 = ORIENTED_EDGE ( 'NONE', *, *, #191, .F. ) ;
ENDSEC;
END-ISO-10303-21;
