ISO-10303-21;
HEADER;
FILE_DESCRIPTION (( 'STEP AP203' ),
    '1' );
FILE_NAME ('7b05.STEP',
    '2023-02-13T08:57:42',
    ( '' ),
    ( '' ),
    'SwSTEP 2.0',
    'SolidWorks 2019',
    '' );
FILE_SCHEMA (( 'CONFIG_CONTROL_DESIGN' ));
ENDSEC;

DATA;
#1 = ORIENTED_EDGE ( 'NONE', *, *, #21, .T. ) ;
#2 = CIRCLE ( 'NONE', #195, 3.000000000000000000 ) ;
#3 = DATE_AND_TIME ( #338, #49 ) ;
#4 = EDGE_LOOP ( 'NONE', ( #152, #36, #354, #225 ) ) ;
#5 = SHAPE_DEFINITION_REPRESENTATION ( #113, #176 ) ;
#6 = ORIENTED_EDGE ( 'NONE', *, *, #284, .F. ) ;
#7 = APPROVAL ( #335, 'NEURÈENÝ' ) ;
#8 = ORIENTED_EDGE ( 'NONE', *, *, #233, .T. ) ;
#9 = ORGANIZATION ( 'NEURÈENÝ', 'NEURÈENÝ', '' ) ;
#10 = CARTESIAN_POINT ( 'NONE',  ( 1.500000000000000000, 0.000000000000000000, -80.00000000000000000 ) ) ;
#11 = VECTOR ( 'NONE', #269, 1000.000000000000000 ) ;
#12 = ORIENTED_EDGE ( 'NONE', *, *, #218, .F. ) ;
#13 = AXIS2_PLACEMENT_3D ( 'NONE', #122, #308, #98 ) ;
#14 = PERSON_AND_ORGANIZATION ( #27, #9 ) ;
#15 = CARTESIAN_POINT ( 'NONE',  ( 1.500000000000000000, 0.000000000000000000, 0.000000000000000000 ) ) ;
#16 = EDGE_CURVE ( 'NONE', #277, #280, #115, .T. ) ;
#17 = CYLINDRICAL_SURFACE ( 'NONE', #55, 3.000000000000000000 ) ;
#18 = DIRECTION ( 'NONE',  ( -0.000000000000000000, -0.000000000000000000, 1.000000000000000000 ) ) ;
#19 = CARTESIAN_POINT ( 'NONE',  ( -1.000000000000000000, 1.224646799147353207E-16, -80.86602540378444814 ) ) ;
#20 = FACE_OUTER_BOUND ( 'NONE', #148, .T. ) ;
#21 = EDGE_CURVE ( 'NONE', #178, #32, #254, .T. ) ;
#22 =( NAMED_UNIT ( * ) SI_UNIT ( $, .STERADIAN. ) SOLID_ANGLE_UNIT ( ) );
#23 = ADVANCED_FACE ( 'NONE', ( #253 ), #222, .T. ) ;
#24 = CARTESIAN_POINT ( 'NONE',  ( 0.000000000000000000, 0.000000000000000000, -80.00000000000000000 ) ) ;
#25 = LINE ( 'NONE', #168, #138 ) ;
#26 = ORIENTED_EDGE ( 'NONE', *, *, #224, .T. ) ;
#27 = PERSON ( 'NEURÈENÝ', 'NEURÈENÝ', 'NEURÈENÝ', ('NEURÈENÝ'), ('NEURÈENÝ'), ('NEURÈENÝ') ) ;
#28 = ADVANCED_FACE ( 'NONE', ( #156 ), #324, .T. ) ;
#29 = ADVANCED_FACE ( 'NONE', ( #206, #59 ), #311, .T. ) ;
#30 = ORIENTED_EDGE ( 'NONE', *, *, #74, .T. ) ;
#31 = CC_DESIGN_DATE_AND_TIME_ASSIGNMENT ( #262, #100, ( #173 ) ) ;
#32 = VERTEX_POINT ( 'NONE', #344 ) ;
#33 = CARTESIAN_POINT ( 'NONE',  ( 0.000000000000000000, 0.000000000000000000, -80.00000000000000000 ) ) ;
#34 = AXIS2_PLACEMENT_3D ( 'NONE', #125, #231, #300 ) ;
#35 = APPROVAL_DATE_TIME ( #3, #241 ) ;
#36 = ORIENTED_EDGE ( 'NONE', *, *, #345, .T. ) ;
#37 = UNCERTAINTY_MEASURE_WITH_UNIT (LENGTH_MEASURE( 1.000000000000000082E-05 ), #315, 'distance_accuracy_value', 'NONE');
#38 = PERSON_AND_ORGANIZATION_ROLE ( 'design_owner' ) ;
#39 = DIRECTION ( 'NONE',  ( 1.000000000000000000, 0.000000000000000000, 0.000000000000000000 ) ) ;
#40 = ORIENTED_EDGE ( 'NONE', *, *, #291, .F. ) ;
#41 = PERSON_AND_ORGANIZATION ( #27, #9 ) ;
#42 = DIRECTION ( 'NONE',  ( 1.000000000000000000, 0.000000000000000000, 0.000000000000000000 ) ) ;
#43 = DATE_AND_TIME ( #90, #175 ) ;
#44 = CYLINDRICAL_SURFACE ( 'NONE', #102, 1.000000000000000000 ) ;
#45 = CARTESIAN_POINT ( 'NONE',  ( -1.500000000000000000, 1.836970198721029934E-16, -3.000000000000000444 ) ) ;
#46 = CARTESIAN_POINT ( 'NONE',  ( 0.000000000000000000, 0.000000000000000000, 0.000000000000000000 ) ) ;
#47 = ADVANCED_FACE ( 'NONE', ( #72 ), #165, .T. ) ;
#48 = DIRECTION ( 'NONE',  ( -1.000000000000000000, 0.000000000000000000, -0.000000000000000000 ) ) ;
#49 = LOCAL_TIME ( 9, 57, 42.00000000000000000, #151 ) ;
#50 = PRODUCT_RELATED_PRODUCT_CATEGORY ( 'detail', '', ( #217 ) ) ;
#51 = DIRECTION ( 'NONE',  ( -0.000000000000000000, -0.000000000000000000, 1.000000000000000000 ) ) ;
#52 = DIRECTION ( 'NONE',  ( 0.4999999999999981681, 0.000000000000000000, 0.8660254037844395958 ) ) ;
#53 = CARTESIAN_POINT ( 'NONE',  ( -3.000000000000000000, 3.673940397442059868E-16, -3.673940397442059868E-16 ) ) ;
#54 = VECTOR ( 'NONE', #289, 1000.000000000000000 ) ;
#55 = AXIS2_PLACEMENT_3D ( 'NONE', #287, #159, #104 ) ;
#56 = CC_DESIGN_APPROVAL ( #7, ( #215 ) ) ;
#57 = AXIS2_PLACEMENT_3D ( 'NONE', #24, #143, #318 ) ;
#58 = EDGE_LOOP ( 'NONE', ( #232, #304, #170, #274 ) ) ;
#59 = FACE_OUTER_BOUND ( 'NONE', #62, .T. ) ;
#60 = ORIENTED_EDGE ( 'NONE', *, *, #116, .F. ) ;
#61 = CLOSED_SHELL ( 'NONE', ( #137, #95, #94, #107, #127, #223, #28, #144, #29, #23, #47 ) ) ;
#62 = EDGE_LOOP ( 'NONE', ( #199, #85 ) ) ;
#63 = COORDINATED_UNIVERSAL_TIME_OFFSET ( 1, 0, .AHEAD. ) ;
#64 = EDGE_LOOP ( 'NONE', ( #221, #281, #184, #12 ) ) ;
#65 = PERSON_AND_ORGANIZATION_ROLE ( 'creator' ) ;
#66 = EDGE_CURVE ( 'NONE', #178, #126, #133, .T. ) ;
#67 = DIRECTION ( 'NONE',  ( -0.000000000000000000, -0.000000000000000000, 1.000000000000000000 ) ) ;
#68 = ORIENTED_EDGE ( 'NONE', *, *, #351, .F. ) ;
#69 = MECHANICAL_CONTEXT ( 'NONE', #275, 'mechanical' ) ;
#70 = CC_DESIGN_PERSON_AND_ORGANIZATION_ASSIGNMENT ( #41, #255, ( #215 ) ) ;
#71 = FACE_OUTER_BOUND ( 'NONE', #249, .T. ) ;
#72 = FACE_OUTER_BOUND ( 'NONE', #87, .T. ) ;
#73 = CYLINDRICAL_SURFACE ( 'NONE', #209, 1.500000000000000000 ) ;
#74 = EDGE_CURVE ( 'NONE', #32, #178, #203, .T. ) ;
#75 = LINE ( 'NONE', #347, #54 ) ;
#76 = CC_DESIGN_DATE_AND_TIME_ASSIGNMENT ( #43, #330, ( #172 ) ) ;
#77 = CARTESIAN_POINT ( 'NONE',  ( 0.000000000000000000, 0.000000000000000000, -3.000000000000000444 ) ) ;
#78 = DIRECTION ( 'NONE',  ( 1.000000000000000000, 0.000000000000000000, 0.000000000000000000 ) ) ;
#79 = AXIS2_PLACEMENT_3D ( 'NONE', #336, #97, #317 ) ;
#80 = DIRECTION ( 'NONE',  ( 1.000000000000000000, 0.000000000000000000, 0.000000000000000000 ) ) ;
#81 = EDGE_LOOP ( 'NONE', ( #26, #114 ) ) ;
#82 = VERTEX_POINT ( 'NONE', #162 ) ;
#83 = CIRCLE ( 'NONE', #323, 3.000000000000000000 ) ;
#84 = ORIENTED_EDGE ( 'NONE', *, *, #16, .F. ) ;
#85 = ORIENTED_EDGE ( 'NONE', *, *, #326, .F. ) ;
#86 = DIRECTION ( 'NONE',  ( -0.000000000000000000, -0.000000000000000000, 1.000000000000000000 ) ) ;
#87 = EDGE_LOOP ( 'NONE', ( #89, #197 ) ) ;
#88 = CALENDAR_DATE ( 2023, 13, 2 ) ;
#89 = ORIENTED_EDGE ( 'NONE', *, *, #351, .T. ) ;
#90 = CALENDAR_DATE ( 2023, 13, 2 ) ;
#91 = ORIENTED_EDGE ( 'NONE', *, *, #233, .F. ) ;
#92 = APPROVAL_ROLE ( '' ) ;
#93 = DIRECTION ( 'NONE',  ( 1.000000000000000000, 0.000000000000000000, 0.000000000000000000 ) ) ;
#94 = ADVANCED_FACE ( 'NONE', ( #268 ), #177, .T. ) ;
#95 = ADVANCED_FACE ( 'NONE', ( #186 ), #73, .T. ) ;
#96 = CARTESIAN_POINT ( 'NONE',  ( 0.000000000000000000, 0.000000000000000000, 0.000000000000000000 ) ) ;
#97 = DIRECTION ( 'NONE',  ( -0.000000000000000000, -0.000000000000000000, 1.000000000000000000 ) ) ;
#98 = DIRECTION ( 'NONE',  ( 1.000000000000000000, 0.000000000000000000, 0.000000000000000000 ) ) ;
#99 = CC_DESIGN_PERSON_AND_ORGANIZATION_ASSIGNMENT ( #259, #312, ( #173 ) ) ;
#100 = DATE_TIME_ROLE ( 'classification_date' ) ;
#101 = DIRECTION ( 'NONE',  ( 1.000000000000000000, 0.000000000000000000, 0.000000000000000000 ) ) ;
#102 = AXIS2_PLACEMENT_3D ( 'NONE', #343, #163, #78 ) ;
#103 = AXIS2_PLACEMENT_3D ( 'NONE', #169, #271, #80 ) ;
#104 = DIRECTION ( 'NONE',  ( 1.000000000000000000, 0.000000000000000000, 0.000000000000000000 ) ) ;
#105 = AXIS2_PLACEMENT_3D ( 'NONE', #270, #237, #101 ) ;
#106 = DIRECTION ( 'NONE',  ( -0.4999999999999981681, 6.123233995736742617E-17, 0.8660254037844395958 ) ) ;
#107 = ADVANCED_FACE ( 'NONE', ( #341 ), #44, .T. ) ;
#108 = FACE_OUTER_BOUND ( 'NONE', #350, .T. ) ;
#109 = DIRECTION ( 'NONE',  ( 0.000000000000000000, 0.000000000000000000, -1.000000000000000000 ) ) ;
#110 = CARTESIAN_POINT ( 'NONE',  ( 1.500000000000000000, 0.000000000000000000, -80.00000000000000000 ) ) ;
#111 = CIRCLE ( 'NONE', #273, 3.000000000000000000 ) ;
#112 = CARTESIAN_POINT ( 'NONE',  ( 1.000000000000000000, 0.000000000000000000, -80.86602540378444814 ) ) ;
#113 = PRODUCT_DEFINITION_SHAPE ( 'NONE', 'NONE',  #172 ) ;
#114 = ORIENTED_EDGE ( 'NONE', *, *, #218, .T. ) ;
#115 = CIRCLE ( 'NONE', #353, 1.500000000000000000 ) ;
#116 = EDGE_CURVE ( 'NONE', #134, #327, #75, .T. ) ;
#117 = CC_DESIGN_APPROVAL ( #183, ( #172 ) ) ;
#118 = VERTEX_POINT ( 'NONE', #19 ) ;
#119 = ORIENTED_EDGE ( 'NONE', *, *, #66, .T. ) ;
#120 = LOCAL_TIME ( 9, 57, 42.00000000000000000, #278 ) ;
#121 = PERSON_AND_ORGANIZATION ( #27, #9 ) ;
#122 = CARTESIAN_POINT ( 'NONE',  ( 0.000000000000000000, 0.000000000000000000, -120.0000000000000000 ) ) ;
#123 = VERTEX_POINT ( 'NONE', #45 ) ;
#124 = PERSON_AND_ORGANIZATION ( #27, #9 ) ;
#125 = CARTESIAN_POINT ( 'NONE',  ( 0.000000000000000000, 0.000000000000000000, -80.86602540378444814 ) ) ;
#126 = VERTEX_POINT ( 'NONE', #112 ) ;
#127 = ADVANCED_FACE ( 'NONE', ( #20 ), #136, .T. ) ;
#128 =( GEOMETRIC_REPRESENTATION_CONTEXT ( 3 ) GLOBAL_UNCERTAINTY_ASSIGNED_CONTEXT ( ( #37 ) ) GLOBAL_UNIT_ASSIGNED_CONTEXT ( ( #315, #292, #22 ) ) REPRESENTATION_CONTEXT ( 'NONE', 'WORKASPACE' ) );
#129 = PERSON_AND_ORGANIZATION_ROLE ( 'design_supplier' ) ;
#130 = CARTESIAN_POINT ( 'NONE',  ( -1.500000000000000000, 1.836970198721029934E-16, -80.00000000000000000 ) ) ;
#131 = ORIENTED_EDGE ( 'NONE', *, *, #296, .F. ) ;
#132 = PERSON_AND_ORGANIZATION ( #27, #9 ) ;
#133 = LINE ( 'NONE', #208, #180 ) ;
#134 = VERTEX_POINT ( 'NONE', #293 ) ;
#135 = DIRECTION ( 'NONE',  ( 1.000000000000000000, 0.000000000000000000, 0.000000000000000000 ) ) ;
#136 = PLANE ( 'NONE',  #229 ) ;
#137 = ADVANCED_FACE ( 'NONE', ( #108 ), #17, .T. ) ;
#138 = VECTOR ( 'NONE', #106, 1000.000000000000114 ) ;
#139 = EDGE_CURVE ( 'NONE', #134, #82, #220, .T. ) ;
#140 = CARTESIAN_POINT ( 'NONE',  ( 0.000000000000000000, 0.000000000000000000, -3.000000000000000444 ) ) ;
#141 = AXIS2_PLACEMENT_3D ( 'NONE', #302, #339, #48 ) ;
#142 = CARTESIAN_POINT ( 'NONE',  ( 0.000000000000000000, 0.000000000000000000, -120.0000000000000000 ) ) ;
#143 = DIRECTION ( 'NONE',  ( -0.000000000000000000, -0.000000000000000000, 1.000000000000000000 ) ) ;
#144 = ADVANCED_FACE ( 'NONE', ( #213 ), #316, .T. ) ;
#145 = ORIENTED_EDGE ( 'NONE', *, *, #305, .T. ) ;
#146 = EDGE_CURVE ( 'NONE', #82, #200, #191, .T. ) ;
#147 = CIRCLE ( 'NONE', #352, 1.500000000000000000 ) ;
#148 = EDGE_LOOP ( 'NONE', ( #258, #329 ) ) ;
#149 = LINE ( 'NONE', #322, #238 ) ;
#150 = AXIS2_PLACEMENT_3D ( 'NONE', #288, #161, #135 ) ;
#151 = COORDINATED_UNIVERSAL_TIME_OFFSET ( 1, 0, .AHEAD. ) ;
#152 = ORIENTED_EDGE ( 'NONE', *, *, #291, .T. ) ;
#153 = PERSON_AND_ORGANIZATION ( #27, #9 ) ;
#154 = DIRECTION ( 'NONE',  ( -0.000000000000000000, -0.000000000000000000, 1.000000000000000000 ) ) ;
#155 = SECURITY_CLASSIFICATION_LEVEL ( 'unclassified' ) ;
#156 = FACE_OUTER_BOUND ( 'NONE', #251, .T. ) ;
#157 = APPROVAL_PERSON_ORGANIZATION ( #14, #241, #160 ) ;
#158 = APPROVAL_ROLE ( '' ) ;
#159 = DIRECTION ( 'NONE',  ( -0.000000000000000000, -0.000000000000000000, 1.000000000000000000 ) ) ;
#160 = APPROVAL_ROLE ( '' ) ;
#161 = DIRECTION ( 'NONE',  ( -0.000000000000000000, -0.000000000000000000, 1.000000000000000000 ) ) ;
#162 = CARTESIAN_POINT ( 'NONE',  ( -3.000000000000000000, 3.673940397442059868E-16, -3.000000000000000444 ) ) ;
#163 = DIRECTION ( 'NONE',  ( -0.000000000000000000, -0.000000000000000000, 1.000000000000000000 ) ) ;
#164 = LOCAL_TIME ( 9, 57, 42.00000000000000000, #63 ) ;
#165 = PLANE ( 'NONE',  #105 ) ;
#166 = EDGE_CURVE ( 'NONE', #280, #228, #167, .T. ) ;
#167 = LINE ( 'NONE', #15, #298 ) ;
#168 = CARTESIAN_POINT ( 'NONE',  ( -1.500000000000000000, 1.836970198721029934E-16, -80.00000000000000000 ) ) ;
#169 = CARTESIAN_POINT ( 'NONE',  ( 0.000000000000000000, 0.000000000000000000, -3.000000000000000444 ) ) ;
#170 = ORIENTED_EDGE ( 'NONE', *, *, #116, .T. ) ;
#171 = CIRCLE ( 'NONE', #103, 1.500000000000000000 ) ;
#172 = PRODUCT_DEFINITION ( 'NEZNÁMÝ', '', #215, #282 ) ;
#173 = SECURITY_CLASSIFICATION ( '', '', #155 ) ;
#174 = ORIENTED_EDGE ( 'NONE', *, *, #66, .F. ) ;
#175 = LOCAL_TIME ( 9, 57, 42.00000000000000000, #179 ) ;
#176 = ADVANCED_BREP_SHAPE_REPRESENTATION ( '7b05', ( #226, #265 ), #128 ) ;
#177 = CONICAL_SURFACE ( 'NONE', #57, 1.500000000000000000, 0.5235987755982968173 ) ;
#178 = VERTEX_POINT ( 'NONE', #297 ) ;
#179 = COORDINATED_UNIVERSAL_TIME_OFFSET ( 1, 0, .AHEAD. ) ;
#180 = VECTOR ( 'NONE', #188, 1000.000000000000000 ) ;
#181 = CARTESIAN_POINT ( 'NONE',  ( 0.000000000000000000, 0.000000000000000000, -80.86602540378444814 ) ) ;
#182 = CARTESIAN_POINT ( 'NONE',  ( 0.000000000000000000, 0.000000000000000000, -80.00000000000000000 ) ) ;
#183 = APPROVAL ( #227, 'NEURÈENÝ' ) ;
#184 = ORIENTED_EDGE ( 'NONE', *, *, #166, .T. ) ;
#185 = APPROVAL_DATE_TIME ( #306, #183 ) ;
#186 = FACE_OUTER_BOUND ( 'NONE', #4, .T. ) ;
#187 = CARTESIAN_POINT ( 'NONE',  ( 1.500000000000000000, 0.000000000000000000, -3.000000000000000444 ) ) ;
#188 = DIRECTION ( 'NONE',  ( -0.000000000000000000, -0.000000000000000000, 1.000000000000000000 ) ) ;
#189 = DIRECTION ( 'NONE',  ( -0.000000000000000000, -0.000000000000000000, 1.000000000000000000 ) ) ;
#190 = CIRCLE ( 'NONE', #79, 1.500000000000000000 ) ;
#191 = LINE ( 'NONE', #295, #279 ) ;
#192 = AXIS2_PLACEMENT_3D ( 'NONE', #260, #334, #93 ) ;
#193 = CARTESIAN_POINT ( 'NONE',  ( -1.500000000000000000, 1.836970198721029934E-16, 0.000000000000000000 ) ) ;
#194 = DIRECTION ( 'NONE',  ( -0.000000000000000000, -0.000000000000000000, 1.000000000000000000 ) ) ;
#195 = AXIS2_PLACEMENT_3D ( 'NONE', #307, #310, #340 ) ;
#196 = CC_DESIGN_PERSON_AND_ORGANIZATION_ASSIGNMENT ( #121, #38, ( #217 ) ) ;
#197 = ORIENTED_EDGE ( 'NONE', *, *, #248, .T. ) ;
#198 = CALENDAR_DATE ( 2023, 13, 2 ) ;
#199 = ORIENTED_EDGE ( 'NONE', *, *, #139, .F. ) ;
#200 = VERTEX_POINT ( 'NONE', #53 ) ;
#201 = VECTOR ( 'NONE', #52, 1000.000000000000114 ) ;
#202 = DIRECTION ( 'NONE',  ( 0.000000000000000000, 0.000000000000000000, 1.000000000000000000 ) ) ;
#203 = CIRCLE ( 'NONE', #266, 1.000000000000000000 ) ;
#204 = ORIENTED_EDGE ( 'NONE', *, *, #219, .F. ) ;
#205 = CARTESIAN_POINT ( 'NONE',  ( 0.000000000000000000, 0.000000000000000000, -3.000000000000000444 ) ) ;
#206 = FACE_BOUND ( 'NONE', #81, .T. ) ;
#207 = APPLICATION_PROTOCOL_DEFINITION ( 'international standard', 'config_control_design', 1994, #321 ) ;
#208 = CARTESIAN_POINT ( 'NONE',  ( 1.000000000000000000, 0.000000000000000000, 0.000000000000000000 ) ) ;
#209 = AXIS2_PLACEMENT_3D ( 'NONE', #46, #189, #244 ) ;
#210 = LINE ( 'NONE', #110, #201 ) ;
#211 = DIRECTION ( 'NONE',  ( -0.000000000000000000, -0.000000000000000000, 1.000000000000000000 ) ) ;
#212 = DIRECTION ( 'NONE',  ( 1.000000000000000000, 0.000000000000000000, 0.000000000000000000 ) ) ;
#213 = FACE_OUTER_BOUND ( 'NONE', #64, .T. ) ;
#214 = DIRECTION ( 'NONE',  ( 1.000000000000000000, 0.000000000000000000, 0.000000000000000000 ) ) ;
#215 = PRODUCT_DEFINITION_FORMATION_WITH_SPECIFIED_SOURCE ( 'LIBOVOLNÝ', '', #217, .NOT_KNOWN. ) ;
#216 = ORIENTED_EDGE ( 'NONE', *, *, #146, .T. ) ;
#217 = PRODUCT ( '7b05', '7b05', '', ( #69 ) ) ;
#218 = EDGE_CURVE ( 'NONE', #123, #228, #171, .T. ) ;
#219 = EDGE_CURVE ( 'NONE', #32, #118, #149, .T. ) ;
#220 = CIRCLE ( 'NONE', #294, 3.000000000000000000 ) ;
#221 = ORIENTED_EDGE ( 'NONE', *, *, #345, .F. ) ;
#222 = CYLINDRICAL_SURFACE ( 'NONE', #192, 3.000000000000000000 ) ;
#223 = ADVANCED_FACE ( 'NONE', ( #71 ), #355, .T. ) ;
#224 = EDGE_CURVE ( 'NONE', #228, #123, #147, .T. ) ;
#225 = ORIENTED_EDGE ( 'NONE', *, *, #166, .F. ) ;
#226 = MANIFOLD_SOLID_BREP ( 'Rotovat1', #61 ) ;
#227 = APPROVAL_STATUS ( 'not_yet_approved' ) ;
#228 = VERTEX_POINT ( 'NONE', #187 ) ;
#229 = AXIS2_PLACEMENT_3D ( 'NONE', #264, #109, #320 ) ;
#230 = COORDINATED_UNIVERSAL_TIME_OFFSET ( 1, 0, .AHEAD. ) ;
#231 = DIRECTION ( 'NONE',  ( -0.000000000000000000, -0.000000000000000000, 1.000000000000000000 ) ) ;
#232 = ORIENTED_EDGE ( 'NONE', *, *, #146, .F. ) ;
#233 = EDGE_CURVE ( 'NONE', #118, #126, #333, .T. ) ;
#234 = APPROVAL_STATUS ( 'not_yet_approved' ) ;
#235 = DIRECTION ( 'NONE',  ( 1.000000000000000000, 0.000000000000000000, 0.000000000000000000 ) ) ;
#236 = DIRECTION ( 'NONE',  ( 1.000000000000000000, 0.000000000000000000, 0.000000000000000000 ) ) ;
#237 = DIRECTION ( 'NONE',  ( 0.000000000000000000, -0.000000000000000000, 1.000000000000000000 ) ) ;
#238 = VECTOR ( 'NONE', #250, 1000.000000000000000 ) ;
#239 = DIRECTION ( 'NONE',  ( -0.000000000000000000, -0.000000000000000000, 1.000000000000000000 ) ) ;
#240 = CARTESIAN_POINT ( 'NONE',  ( 3.000000000000000000, 0.000000000000000000, -3.673940397442059868E-16 ) ) ;
#241 = APPROVAL ( #234, 'NEURÈENÝ' ) ;
#242 = CARTESIAN_POINT ( 'NONE',  ( 0.000000000000000000, 0.000000000000000000, 0.000000000000000000 ) ) ;
#243 = CARTESIAN_POINT ( 'NONE',  ( 0.000000000000000000, 0.000000000000000000, -3.673940397442059868E-16 ) ) ;
#244 = DIRECTION ( 'NONE',  ( 1.000000000000000000, 0.000000000000000000, 0.000000000000000000 ) ) ;
#245 = EDGE_LOOP ( 'NONE', ( #348, #145, #40, #131 ) ) ;
#246 = LINE ( 'NONE', #193, #11 ) ;
#247 = CIRCLE ( 'NONE', #34, 1.000000000000000000 ) ;
#248 = EDGE_CURVE ( 'NONE', #200, #327, #2, .T. ) ;
#249 = EDGE_LOOP ( 'NONE', ( #204, #30, #119, #91 ) ) ;
#250 = DIRECTION ( 'NONE',  ( -0.000000000000000000, -0.000000000000000000, 1.000000000000000000 ) ) ;
#251 = EDGE_LOOP ( 'NONE', ( #256, #8, #331, #84 ) ) ;
#252 = AXIS2_PLACEMENT_3D ( 'NONE', #242, #263, #214 ) ;
#253 = FACE_OUTER_BOUND ( 'NONE', #58, .T. ) ;
#254 = CIRCLE ( 'NONE', #13, 1.000000000000000000 ) ;
#255 = PERSON_AND_ORGANIZATION_ROLE ( 'creator' ) ;
#256 = ORIENTED_EDGE ( 'NONE', *, *, #305, .F. ) ;
#257 = DIRECTION ( 'NONE',  ( 1.000000000000000000, 0.000000000000000000, 0.000000000000000000 ) ) ;
#258 = ORIENTED_EDGE ( 'NONE', *, *, #21, .F. ) ;
#259 = PERSON_AND_ORGANIZATION ( #27, #9 ) ;
#260 = CARTESIAN_POINT ( 'NONE',  ( 0.000000000000000000, 0.000000000000000000, 0.000000000000000000 ) ) ;
#261 = CC_DESIGN_APPROVAL ( #241, ( #173 ) ) ;
#262 = DATE_AND_TIME ( #286, #120 ) ;
#263 = DIRECTION ( 'NONE',  ( -0.000000000000000000, -0.000000000000000000, 1.000000000000000000 ) ) ;
#264 = CARTESIAN_POINT ( 'NONE',  ( 0.000000000000000000, 0.000000000000000000, -120.0000000000000000 ) ) ;
#265 = AXIS2_PLACEMENT_3D ( 'NONE', #96, #202, #257 ) ;
#266 = AXIS2_PLACEMENT_3D ( 'NONE', #142, #211, #290 ) ;
#267 = DIRECTION ( 'NONE',  ( 1.000000000000000000, 0.000000000000000000, 0.000000000000000000 ) ) ;
#268 = FACE_OUTER_BOUND ( 'NONE', #245, .T. ) ;
#269 = DIRECTION ( 'NONE',  ( -0.000000000000000000, -0.000000000000000000, 1.000000000000000000 ) ) ;
#270 = CARTESIAN_POINT ( 'NONE',  ( 0.000000000000000000, 0.000000000000000000, -1.836970198721029934E-16 ) ) ;
#271 = DIRECTION ( 'NONE',  ( -0.000000000000000000, -0.000000000000000000, 1.000000000000000000 ) ) ;
#272 = ORIENTED_EDGE ( 'NONE', *, *, #139, .T. ) ;
#273 = AXIS2_PLACEMENT_3D ( 'NONE', #77, #314, #212 ) ;
#274 = ORIENTED_EDGE ( 'NONE', *, *, #248, .F. ) ;
#275 = APPLICATION_CONTEXT ( 'configuration controlled 3d designs of mechanical parts and assemblies' ) ;
#276 = ORIENTED_EDGE ( 'NONE', *, *, #219, .T. ) ;
#277 = VERTEX_POINT ( 'NONE', #130 ) ;
#278 = COORDINATED_UNIVERSAL_TIME_OFFSET ( 1, 0, .AHEAD. ) ;
#279 = VECTOR ( 'NONE', #51, 1000.000000000000000 ) ;
#280 = VERTEX_POINT ( 'NONE', #10 ) ;
#281 = ORIENTED_EDGE ( 'NONE', *, *, #16, .T. ) ;
#282 = DESIGN_CONTEXT ( 'detailed design', #321, 'design' ) ;
#283 = APPROVAL_DATE_TIME ( #309, #7 ) ;
#284 = EDGE_CURVE ( 'NONE', #126, #118, #247, .T. ) ;
#285 = DIRECTION ( 'NONE',  ( -0.000000000000000000, -0.000000000000000000, 1.000000000000000000 ) ) ;
#286 = CALENDAR_DATE ( 2023, 13, 2 ) ;
#287 = CARTESIAN_POINT ( 'NONE',  ( 0.000000000000000000, 0.000000000000000000, 0.000000000000000000 ) ) ;
#288 = CARTESIAN_POINT ( 'NONE',  ( 0.000000000000000000, 0.000000000000000000, 0.000000000000000000 ) ) ;
#289 = DIRECTION ( 'NONE',  ( -0.000000000000000000, -0.000000000000000000, 1.000000000000000000 ) ) ;
#290 = DIRECTION ( 'NONE',  ( 1.000000000000000000, 0.000000000000000000, 0.000000000000000000 ) ) ;
#291 = EDGE_CURVE ( 'NONE', #280, #277, #190, .T. ) ;
#292 =( NAMED_UNIT ( * ) PLANE_ANGLE_UNIT ( ) SI_UNIT ( $, .RADIAN. ) );
#293 = CARTESIAN_POINT ( 'NONE',  ( 3.000000000000000000, 0.000000000000000000, -3.000000000000000444 ) ) ;
#294 = AXIS2_PLACEMENT_3D ( 'NONE', #140, #239, #235 ) ;
#295 = CARTESIAN_POINT ( 'NONE',  ( -3.000000000000000000, 3.673940397442059868E-16, 0.000000000000000000 ) ) ;
#296 = EDGE_CURVE ( 'NONE', #126, #280, #210, .T. ) ;
#297 = CARTESIAN_POINT ( 'NONE',  ( 1.000000000000000000, 0.000000000000000000, -120.0000000000000000 ) ) ;
#298 = VECTOR ( 'NONE', #194, 1000.000000000000000 ) ;
#299 = CC_DESIGN_PERSON_AND_ORGANIZATION_ASSIGNMENT ( #132, #129, ( #215 ) ) ;
#300 = DIRECTION ( 'NONE',  ( 1.000000000000000000, 0.000000000000000000, 0.000000000000000000 ) ) ;
#301 = CC_DESIGN_SECURITY_CLASSIFICATION ( #173, ( #215 ) ) ;
#302 = CARTESIAN_POINT ( 'NONE',  ( 0.000000000000000000, -3.000000000000000000, -3.000000000000000444 ) ) ;
#303 = APPROVAL_PERSON_ORGANIZATION ( #332, #7, #92 ) ;
#304 = ORIENTED_EDGE ( 'NONE', *, *, #326, .T. ) ;
#305 = EDGE_CURVE ( 'NONE', #118, #277, #25, .T. ) ;
#306 = DATE_AND_TIME ( #198, #349 ) ;
#307 = CARTESIAN_POINT ( 'NONE',  ( 0.000000000000000000, 0.000000000000000000, -3.673940397442059868E-16 ) ) ;
#308 = DIRECTION ( 'NONE',  ( -0.000000000000000000, -0.000000000000000000, 1.000000000000000000 ) ) ;
#309 = DATE_AND_TIME ( #88, #164 ) ;
#310 = DIRECTION ( 'NONE',  ( -0.000000000000000000, -0.000000000000000000, 1.000000000000000000 ) ) ;
#311 = PLANE ( 'NONE',  #141 ) ;
#312 = PERSON_AND_ORGANIZATION_ROLE ( 'classification_officer' ) ;
#313 = AXIS2_PLACEMENT_3D ( 'NONE', #33, #285, #42 ) ;
#314 = DIRECTION ( 'NONE',  ( -0.000000000000000000, -0.000000000000000000, 1.000000000000000000 ) ) ;
#315 =( LENGTH_UNIT ( ) NAMED_UNIT ( * ) SI_UNIT ( .MILLI., .METRE. ) );
#316 = CYLINDRICAL_SURFACE ( 'NONE', #252, 1.500000000000000000 ) ;
#317 = DIRECTION ( 'NONE',  ( 1.000000000000000000, 0.000000000000000000, 0.000000000000000000 ) ) ;
#318 = DIRECTION ( 'NONE',  ( 1.000000000000000000, 0.000000000000000000, 0.000000000000000000 ) ) ;
#319 = APPROVAL_PERSON_ORGANIZATION ( #124, #183, #158 ) ;
#320 = DIRECTION ( 'NONE',  ( -1.000000000000000000, 0.000000000000000000, -0.000000000000000000 ) ) ;
#321 = APPLICATION_CONTEXT ( 'configuration controlled 3d designs of mechanical parts and assemblies' ) ;
#322 = CARTESIAN_POINT ( 'NONE',  ( -1.000000000000000000, 1.224646799147353207E-16, 0.000000000000000000 ) ) ;
#323 = AXIS2_PLACEMENT_3D ( 'NONE', #243, #18, #267 ) ;
#324 = CONICAL_SURFACE ( 'NONE', #313, 1.500000000000000000, 0.5235987755982968173 ) ;
#325 = CC_DESIGN_PERSON_AND_ORGANIZATION_ASSIGNMENT ( #153, #65, ( #172 ) ) ;
#326 = EDGE_CURVE ( 'NONE', #82, #134, #111, .T. ) ;
#327 = VERTEX_POINT ( 'NONE', #240 ) ;
#328 = DIRECTION ( 'NONE',  ( 1.000000000000000000, 0.000000000000000000, 0.000000000000000000 ) ) ;
#329 = ORIENTED_EDGE ( 'NONE', *, *, #74, .F. ) ;
#330 = DATE_TIME_ROLE ( 'creation_date' ) ;
#331 = ORIENTED_EDGE ( 'NONE', *, *, #296, .T. ) ;
#332 = PERSON_AND_ORGANIZATION ( #27, #9 ) ;
#333 = CIRCLE ( 'NONE', #342, 1.000000000000000000 ) ;
#334 = DIRECTION ( 'NONE',  ( -0.000000000000000000, -0.000000000000000000, 1.000000000000000000 ) ) ;
#335 = APPROVAL_STATUS ( 'not_yet_approved' ) ;
#336 = CARTESIAN_POINT ( 'NONE',  ( 0.000000000000000000, 0.000000000000000000, -80.00000000000000000 ) ) ;
#337 = EDGE_LOOP ( 'NONE', ( #1, #276, #6, #174 ) ) ;
#338 = CALENDAR_DATE ( 2023, 13, 2 ) ;
#339 = DIRECTION ( 'NONE',  ( 0.000000000000000000, 0.000000000000000000, -1.000000000000000000 ) ) ;
#340 = DIRECTION ( 'NONE',  ( 1.000000000000000000, 0.000000000000000000, 0.000000000000000000 ) ) ;
#341 = FACE_OUTER_BOUND ( 'NONE', #337, .T. ) ;
#342 = AXIS2_PLACEMENT_3D ( 'NONE', #181, #67, #236 ) ;
#343 = CARTESIAN_POINT ( 'NONE',  ( 0.000000000000000000, 0.000000000000000000, 0.000000000000000000 ) ) ;
#344 = CARTESIAN_POINT ( 'NONE',  ( -1.000000000000000000, 1.224646799147353207E-16, -120.0000000000000000 ) ) ;
#345 = EDGE_CURVE ( 'NONE', #277, #123, #246, .T. ) ;
#346 = APPLICATION_PROTOCOL_DEFINITION ( 'international standard', 'config_control_design', 1994, #275 ) ;
#347 = CARTESIAN_POINT ( 'NONE',  ( 3.000000000000000000, 0.000000000000000000, 0.000000000000000000 ) ) ;
#348 = ORIENTED_EDGE ( 'NONE', *, *, #284, .T. ) ;
#349 = LOCAL_TIME ( 9, 57, 42.00000000000000000, #230 ) ;
#350 = EDGE_LOOP ( 'NONE', ( #272, #216, #68, #60 ) ) ;
#351 = EDGE_CURVE ( 'NONE', #327, #200, #83, .T. ) ;
#352 = AXIS2_PLACEMENT_3D ( 'NONE', #205, #86, #39 ) ;
#353 = AXIS2_PLACEMENT_3D ( 'NONE', #182, #154, #328 ) ;
#354 = ORIENTED_EDGE ( 'NONE', *, *, #224, .F. ) ;
#355 = CYLINDRICAL_SURFACE ( 'NONE', #150, 1.000000000000000000 ) ;
ENDSEC;
END-ISO-10303-21;
