ISO-10303-21;
HEADER;
FILE_DESCRIPTION (( 'STEP AP203' ),
    '1' );
FILE_NAME ('8cec.STEP',
    '2023-02-13T08:58:37',
    ( '' ),
    ( '' ),
    'SwSTEP 2.0',
    'SolidWorks 2019',
    '' );
FILE_SCHEMA (( 'CONFIG_CONTROL_DESIGN' ));
ENDSEC;

DATA;
#1 = AXIS2_PLACEMENT_3D ( 'NONE', #109, #313, #191 ) ;
#2 = PERSON_AND_ORGANIZATION ( #353, #197 ) ;
#3 = PRODUCT ( '8cec', '8cec', '', ( #274 ) ) ;
#4 = ORIENTED_EDGE ( 'NONE', *, *, #181, .T. ) ;
#5 = ADVANCED_FACE ( 'NONE', ( #305 ), #324, .T. ) ;
#6 = CALENDAR_DATE ( 2023, 13, 2 ) ;
#7 = ORIENTED_EDGE ( 'NONE', *, *, #310, .T. ) ;
#8 = CARTESIAN_POINT ( 'NONE',  ( 1.500000000000000000, 0.000000000000000000, -63.00000000000000000 ) ) ;
#9 = APPROVAL_PERSON_ORGANIZATION ( #88, #54, #279 ) ;
#10 = DIRECTION ( 'NONE',  ( -0.000000000000000000, -0.000000000000000000, 1.000000000000000000 ) ) ;
#11 = DIRECTION ( 'NONE',  ( 1.000000000000000000, 0.000000000000000000, 0.000000000000000000 ) ) ;
#12 = FACE_OUTER_BOUND ( 'NONE', #213, .T. ) ;
#13 = CIRCLE ( 'NONE', #67, 0.7500000000000000000 ) ;
#14 = ADVANCED_FACE ( 'NONE', ( #146 ), #119, .T. ) ;
#15 = CC_DESIGN_APPROVAL ( #333, ( #255 ) ) ;
#16 = CARTESIAN_POINT ( 'NONE',  ( 0.000000000000000000, 0.000000000000000000, -3.673940397442059868E-16 ) ) ;
#17 = CARTESIAN_POINT ( 'NONE',  ( 0.7500000000000000000, 0.000000000000000000, -97.00000000000000000 ) ) ;
#18 = EDGE_LOOP ( 'NONE', ( #38, #139 ) ) ;
#19 = DIRECTION ( 'NONE',  ( -0.000000000000000000, -0.000000000000000000, 1.000000000000000000 ) ) ;
#20 = VERTEX_POINT ( 'NONE', #111 ) ;
#21 = APPLICATION_PROTOCOL_DEFINITION ( 'international standard', 'config_control_design', 1994, #265 ) ;
#22 =( GEOMETRIC_REPRESENTATION_CONTEXT ( 3 ) GLOBAL_UNCERTAINTY_ASSIGNED_CONTEXT ( ( #42 ) ) GLOBAL_UNIT_ASSIGNED_CONTEXT ( ( #189, #104, #80 ) ) REPRESENTATION_CONTEXT ( 'NONE', 'WORKASPACE' ) );
#23 = CC_DESIGN_DATE_AND_TIME_ASSIGNMENT ( #145, #41, ( #78 ) ) ;
#24 = APPLICATION_CONTEXT ( 'configuration controlled 3d designs of mechanical parts and assemblies' ) ;
#25 = CARTESIAN_POINT ( 'NONE',  ( 1.500000000000000000, 0.000000000000000000, 0.000000000000000000 ) ) ;
#26 = ORIENTED_EDGE ( 'NONE', *, *, #349, .T. ) ;
#27 = MANIFOLD_SOLID_BREP ( 'Rotovat1', #212 ) ;
#28 = CYLINDRICAL_SURFACE ( 'NONE', #187, 3.000000000000000000 ) ;
#29 = ORIENTED_EDGE ( 'NONE', *, *, #209, .F. ) ;
#30 = EDGE_CURVE ( 'NONE', #115, #315, #230, .T. ) ;
#31 = ORIENTED_EDGE ( 'NONE', *, *, #238, .F. ) ;
#32 = CIRCLE ( 'NONE', #272, 1.500000000000000000 ) ;
#33 = PERSON_AND_ORGANIZATION_ROLE ( 'creator' ) ;
#34 = VERTEX_POINT ( 'NONE', #222 ) ;
#35 = CALENDAR_DATE ( 2023, 13, 2 ) ;
#36 = ORIENTED_EDGE ( 'NONE', *, *, #259, .T. ) ;
#37 = CALENDAR_DATE ( 2023, 13, 2 ) ;
#38 = ORIENTED_EDGE ( 'NONE', *, *, #297, .F. ) ;
#39 = EDGE_CURVE ( 'NONE', #350, #352, #323, .T. ) ;
#40 = CC_DESIGN_APPROVAL ( #54, ( #78 ) ) ;
#41 = DATE_TIME_ROLE ( 'creation_date' ) ;
#42 = UNCERTAINTY_MEASURE_WITH_UNIT (LENGTH_MEASURE( 1.000000000000000082E-05 ), #189, 'distance_accuracy_value', 'NONE');
#43 = ORIENTED_EDGE ( 'NONE', *, *, #227, .T. ) ;
#44 = CARTESIAN_POINT ( 'NONE',  ( 0.000000000000000000, 0.000000000000000000, -3.000000000000000444 ) ) ;
#45 = APPROVAL ( #198, 'NEURÈENÝ' ) ;
#46 = CYLINDRICAL_SURFACE ( 'NONE', #47, 3.000000000000000000 ) ;
#47 = AXIS2_PLACEMENT_3D ( 'NONE', #290, #147, #123 ) ;
#48 = DIRECTION ( 'NONE',  ( 0.000000000000000000, -0.000000000000000000, 1.000000000000000000 ) ) ;
#49 = CYLINDRICAL_SURFACE ( 'NONE', #149, 0.7500000000000000000 ) ;
#50 = LINE ( 'NONE', #291, #142 ) ;
#51 = DIRECTION ( 'NONE',  ( 0.000000000000000000, 0.000000000000000000, -1.000000000000000000 ) ) ;
#52 = FACE_OUTER_BOUND ( 'NONE', #216, .T. ) ;
#53 = ORIENTED_EDGE ( 'NONE', *, *, #133, .T. ) ;
#54 = APPROVAL ( #200, 'NEURÈENÝ' ) ;
#55 = AXIS2_PLACEMENT_3D ( 'NONE', #56, #273, #132 ) ;
#56 = CARTESIAN_POINT ( 'NONE',  ( 0.000000000000000000, 0.000000000000000000, 0.000000000000000000 ) ) ;
#57 = ADVANCED_FACE ( 'NONE', ( #173 ), #300, .T. ) ;
#58 = DATE_TIME_ROLE ( 'classification_date' ) ;
#59 = AXIS2_PLACEMENT_3D ( 'NONE', #122, #103, #125 ) ;
#60 = COORDINATED_UNIVERSAL_TIME_OFFSET ( 1, 0, .AHEAD. ) ;
#61 = CARTESIAN_POINT ( 'NONE',  ( 0.000000000000000000, 0.000000000000000000, 0.000000000000000000 ) ) ;
#62 = AXIS2_PLACEMENT_3D ( 'NONE', #320, #106, #185 ) ;
#63 = DIRECTION ( 'NONE',  ( -1.000000000000000000, 0.000000000000000000, -0.000000000000000000 ) ) ;
#64 = EDGE_CURVE ( 'NONE', #140, #350, #196, .T. ) ;
#65 = EDGE_LOOP ( 'NONE', ( #339, #203, #112, #29 ) ) ;
#66 = DATE_AND_TIME ( #6, #348 ) ;
#67 = AXIS2_PLACEMENT_3D ( 'NONE', #121, #10, #207 ) ;
#68 = DIRECTION ( 'NONE',  ( 0.000000000000000000, 0.000000000000000000, -1.000000000000000000 ) ) ;
#69 = AXIS2_PLACEMENT_3D ( 'NONE', #334, #76, #289 ) ;
#70 = FACE_OUTER_BOUND ( 'NONE', #65, .T. ) ;
#71 = CC_DESIGN_PERSON_AND_ORGANIZATION_ASSIGNMENT ( #2, #92, ( #255 ) ) ;
#72 = DIRECTION ( 'NONE',  ( -0.000000000000000000, -0.000000000000000000, 1.000000000000000000 ) ) ;
#73 = CARTESIAN_POINT ( 'NONE',  ( -0.7500000000000000000, 9.184850993605149670E-17, -97.00000000000000000 ) ) ;
#74 = CIRCLE ( 'NONE', #69, 0.7500000000000000000 ) ;
#75 = CIRCLE ( 'NONE', #231, 3.000000000000000000 ) ;
#76 = DIRECTION ( 'NONE',  ( -0.000000000000000000, -0.000000000000000000, 1.000000000000000000 ) ) ;
#77 = DIRECTION ( 'NONE',  ( -0.000000000000000000, -0.000000000000000000, 1.000000000000000000 ) ) ;
#78 = PRODUCT_DEFINITION ( 'NEZNÁMÝ', '', #255, #282 ) ;
#79 = CARTESIAN_POINT ( 'NONE',  ( 1.500000000000000000, 0.000000000000000000, -3.000000000000000444 ) ) ;
#80 =( NAMED_UNIT ( * ) SI_UNIT ( $, .STERADIAN. ) SOLID_ANGLE_UNIT ( ) );
#81 = ORIENTED_EDGE ( 'NONE', *, *, #242, .T. ) ;
#82 = CARTESIAN_POINT ( 'NONE',  ( 0.000000000000000000, -3.000000000000000000, -3.000000000000000444 ) ) ;
#83 = AXIS2_PLACEMENT_3D ( 'NONE', #61, #355, #258 ) ;
#84 = LOCAL_TIME ( 9, 58, 37.00000000000000000, #202 ) ;
#85 = PLANE ( 'NONE',  #214 ) ;
#86 = PERSON_AND_ORGANIZATION_ROLE ( 'design_owner' ) ;
#87 = EDGE_LOOP ( 'NONE', ( #53, #36 ) ) ;
#88 = PERSON_AND_ORGANIZATION ( #353, #197 ) ;
#89 = CARTESIAN_POINT ( 'NONE',  ( 0.7500000000000000000, 0.000000000000000000, 0.000000000000000000 ) ) ;
#90 = EDGE_LOOP ( 'NONE', ( #201, #137, #178, #175 ) ) ;
#91 = VERTEX_POINT ( 'NONE', #266 ) ;
#92 = PERSON_AND_ORGANIZATION_ROLE ( 'creator' ) ;
#93 = VERTEX_POINT ( 'NONE', #8 ) ;
#94 = VECTOR ( 'NONE', #199, 1000.000000000000000 ) ;
#95 = EDGE_LOOP ( 'NONE', ( #283, #160, #130, #218 ) ) ;
#96 = AXIS2_PLACEMENT_3D ( 'NONE', #16, #236, #210 ) ;
#97 = DIRECTION ( 'NONE',  ( -0.5000000000000021094, 6.123233995736791920E-17, 0.8660254037844373753 ) ) ;
#98 = CARTESIAN_POINT ( 'NONE',  ( 0.000000000000000000, 0.000000000000000000, 0.000000000000000000 ) ) ;
#99 = CARTESIAN_POINT ( 'NONE',  ( -1.500000000000000000, 1.836970198721029934E-16, -63.00000000000000000 ) ) ;
#100 = AXIS2_PLACEMENT_3D ( 'NONE', #44, #77, #337 ) ;
#101 = ADVANCED_FACE ( 'NONE', ( #70 ), #135, .T. ) ;
#102 = DIRECTION ( 'NONE',  ( 1.000000000000000000, 0.000000000000000000, 0.000000000000000000 ) ) ;
#103 = DIRECTION ( 'NONE',  ( -0.000000000000000000, -0.000000000000000000, 1.000000000000000000 ) ) ;
#104 =( NAMED_UNIT ( * ) PLANE_ANGLE_UNIT ( ) SI_UNIT ( $, .RADIAN. ) );
#105 = CIRCLE ( 'NONE', #284, 1.500000000000000000 ) ;
#106 = DIRECTION ( 'NONE',  ( -0.000000000000000000, -0.000000000000000000, 1.000000000000000000 ) ) ;
#107 = LINE ( 'NONE', #25, #151 ) ;
#108 = CIRCLE ( 'NONE', #100, 1.500000000000000000 ) ;
#109 = CARTESIAN_POINT ( 'NONE',  ( 0.000000000000000000, 0.000000000000000000, -97.00000000000000000 ) ) ;
#110 = APPROVAL_DATE_TIME ( #354, #45 ) ;
#111 = CARTESIAN_POINT ( 'NONE',  ( -1.500000000000000000, 1.836970198721029934E-16, -63.00000000000000000 ) ) ;
#112 = ORIENTED_EDGE ( 'NONE', *, *, #217, .F. ) ;
#113 = EDGE_CURVE ( 'NONE', #285, #20, #128, .T. ) ;
#114 = CIRCLE ( 'NONE', #169, 1.500000000000000000 ) ;
#115 = VERTEX_POINT ( 'NONE', #179 ) ;
#116 = PERSON_AND_ORGANIZATION ( #353, #197 ) ;
#117 = ORIENTED_EDGE ( 'NONE', *, *, #30, .T. ) ;
#118 = ADVANCED_FACE ( 'NONE', ( #331 ), #49, .T. ) ;
#119 = CYLINDRICAL_SURFACE ( 'NONE', #83, 1.500000000000000000 ) ;
#120 = AXIS2_PLACEMENT_3D ( 'NONE', #224, #68, #63 ) ;
#121 = CARTESIAN_POINT ( 'NONE',  ( 0.000000000000000000, 0.000000000000000000, -64.29903810567664380 ) ) ;
#122 = CARTESIAN_POINT ( 'NONE',  ( 0.000000000000000000, 0.000000000000000000, -63.00000000000000000 ) ) ;
#123 = DIRECTION ( 'NONE',  ( 1.000000000000000000, 0.000000000000000000, 0.000000000000000000 ) ) ;
#124 = EDGE_CURVE ( 'NONE', #352, #285, #13, .T. ) ;
#125 = DIRECTION ( 'NONE',  ( 1.000000000000000000, 0.000000000000000000, 0.000000000000000000 ) ) ;
#126 = AXIS2_PLACEMENT_3D ( 'NONE', #208, #152, #11 ) ;
#127 = VECTOR ( 'NONE', #240, 1000.000000000000000 ) ;
#128 = LINE ( 'NONE', #99, #318 ) ;
#129 = EDGE_CURVE ( 'NONE', #115, #91, #299, .T. ) ;
#130 = ORIENTED_EDGE ( 'NONE', *, *, #39, .T. ) ;
#131 = DIRECTION ( 'NONE',  ( 1.000000000000000000, 0.000000000000000000, 0.000000000000000000 ) ) ;
#132 = DIRECTION ( 'NONE',  ( 1.000000000000000000, 0.000000000000000000, 0.000000000000000000 ) ) ;
#133 = EDGE_CURVE ( 'NONE', #315, #34, #220, .T. ) ;
#134 = EDGE_LOOP ( 'NONE', ( #31, #7, #117, #307 ) ) ;
#135 = CONICAL_SURFACE ( 'NONE', #59, 1.500000000000000000, 0.5235987755983013692 ) ;
#136 = PERSON_AND_ORGANIZATION ( #353, #197 ) ;
#137 = ORIENTED_EDGE ( 'NONE', *, *, #144, .T. ) ;
#138 = APPROVAL_DATE_TIME ( #248, #54 ) ;
#139 = ORIENTED_EDGE ( 'NONE', *, *, #64, .F. ) ;
#140 = VERTEX_POINT ( 'NONE', #73 ) ;
#141 = PERSON_AND_ORGANIZATION ( #353, #197 ) ;
#142 = VECTOR ( 'NONE', #154, 1000.000000000000000 ) ;
#143 = ORIENTED_EDGE ( 'NONE', *, *, #217, .T. ) ;
#144 = EDGE_CURVE ( 'NONE', #285, #352, #74, .T. ) ;
#145 = DATE_AND_TIME ( #35, #156 ) ;
#146 = FACE_OUTER_BOUND ( 'NONE', #276, .T. ) ;
#147 = DIRECTION ( 'NONE',  ( -0.000000000000000000, -0.000000000000000000, 1.000000000000000000 ) ) ;
#148 = PRODUCT_DEFINITION_SHAPE ( 'NONE', 'NONE',  #78 ) ;
#149 = AXIS2_PLACEMENT_3D ( 'NONE', #98, #205, #308 ) ;
#150 = CARTESIAN_POINT ( 'NONE',  ( 0.000000000000000000, 0.000000000000000000, -3.000000000000000444 ) ) ;
#151 = VECTOR ( 'NONE', #158, 1000.000000000000000 ) ;
#152 = DIRECTION ( 'NONE',  ( -0.000000000000000000, -0.000000000000000000, 1.000000000000000000 ) ) ;
#153 = LINE ( 'NONE', #262, #271 ) ;
#154 = DIRECTION ( 'NONE',  ( -0.000000000000000000, -0.000000000000000000, 1.000000000000000000 ) ) ;
#155 = AXIS2_PLACEMENT_3D ( 'NONE', #280, #332, #234 ) ;
#156 = LOCAL_TIME ( 9, 58, 37.00000000000000000, #174 ) ;
#157 = ADVANCED_FACE ( 'NONE', ( #182 ), #211, .T. ) ;
#158 = DIRECTION ( 'NONE',  ( -0.000000000000000000, -0.000000000000000000, 1.000000000000000000 ) ) ;
#159 = CARTESIAN_POINT ( 'NONE',  ( -3.000000000000000000, 3.673940397442059868E-16, 0.000000000000000000 ) ) ;
#160 = ORIENTED_EDGE ( 'NONE', *, *, #64, .T. ) ;
#161 = FACE_BOUND ( 'NONE', #256, .T. ) ;
#162 = CIRCLE ( 'NONE', #1, 0.7500000000000000000 ) ;
#163 = DIRECTION ( 'NONE',  ( -1.000000000000000000, 0.000000000000000000, -0.000000000000000000 ) ) ;
#164 = DIRECTION ( 'NONE',  ( 1.000000000000000000, 0.000000000000000000, 0.000000000000000000 ) ) ;
#165 = EDGE_LOOP ( 'NONE', ( #303, #193 ) ) ;
#166 = CALENDAR_DATE ( 2023, 13, 2 ) ;
#167 = ORIENTED_EDGE ( 'NONE', *, *, #319, .T. ) ;
#168 = ADVANCED_FACE ( 'NONE', ( #287 ), #296, .T. ) ;
#169 = AXIS2_PLACEMENT_3D ( 'NONE', #335, #264, #102 ) ;
#170 = CALENDAR_DATE ( 2023, 13, 2 ) ;
#171 = ORIENTED_EDGE ( 'NONE', *, *, #133, .F. ) ;
#172 = DATE_AND_TIME ( #37, #261 ) ;
#173 = FACE_OUTER_BOUND ( 'NONE', #95, .T. ) ;
#174 = COORDINATED_UNIVERSAL_TIME_OFFSET ( 1, 0, .AHEAD. ) ;
#175 = ORIENTED_EDGE ( 'NONE', *, *, #302, .F. ) ;
#176 = VECTOR ( 'NONE', #195, 1000.000000000000000 ) ;
#177 = CC_DESIGN_APPROVAL ( #45, ( #321 ) ) ;
#178 = ORIENTED_EDGE ( 'NONE', *, *, #209, .T. ) ;
#179 = CARTESIAN_POINT ( 'NONE',  ( 3.000000000000000000, 0.000000000000000000, -3.000000000000000444 ) ) ;
#180 = DIRECTION ( 'NONE',  ( 1.000000000000000000, 0.000000000000000000, 0.000000000000000000 ) ) ;
#181 = EDGE_CURVE ( 'NONE', #325, #347, #108, .T. ) ;
#182 = FACE_OUTER_BOUND ( 'NONE', #87, .T. ) ;
#183 = DIRECTION ( 'NONE',  ( -0.000000000000000000, -0.000000000000000000, 1.000000000000000000 ) ) ;
#184 = DIRECTION ( 'NONE',  ( 0.5000000000000021094, 0.000000000000000000, 0.8660254037844373753 ) ) ;
#185 = DIRECTION ( 'NONE',  ( 1.000000000000000000, 0.000000000000000000, 0.000000000000000000 ) ) ;
#186 = ADVANCED_BREP_SHAPE_REPRESENTATION ( '8cec', ( #27, #55 ), #22 ) ;
#187 = AXIS2_PLACEMENT_3D ( 'NONE', #346, #338, #164 ) ;
#188 = CARTESIAN_POINT ( 'NONE',  ( 0.000000000000000000, 0.000000000000000000, -3.000000000000000444 ) ) ;
#189 =( LENGTH_UNIT ( ) NAMED_UNIT ( * ) SI_UNIT ( .MILLI., .METRE. ) );
#190 = ORIENTED_EDGE ( 'NONE', *, *, #181, .F. ) ;
#191 = DIRECTION ( 'NONE',  ( 1.000000000000000000, 0.000000000000000000, 0.000000000000000000 ) ) ;
#192 = APPROVAL_STATUS ( 'not_yet_approved' ) ;
#193 = ORIENTED_EDGE ( 'NONE', *, *, #310, .F. ) ;
#194 = ADVANCED_FACE ( 'NONE', ( #235 ), #46, .T. ) ;
#195 = DIRECTION ( 'NONE',  ( -0.000000000000000000, -0.000000000000000000, 1.000000000000000000 ) ) ;
#196 = CIRCLE ( 'NONE', #126, 0.7500000000000000000 ) ;
#197 = ORGANIZATION ( 'NEURÈENÝ', 'NEURÈENÝ', '' ) ;
#198 = APPROVAL_STATUS ( 'not_yet_approved' ) ;
#199 = DIRECTION ( 'NONE',  ( -0.000000000000000000, -0.000000000000000000, 1.000000000000000000 ) ) ;
#200 = APPROVAL_STATUS ( 'not_yet_approved' ) ;
#201 = ORIENTED_EDGE ( 'NONE', *, *, #113, .F. ) ;
#202 = COORDINATED_UNIVERSAL_TIME_OFFSET ( 1, 0, .AHEAD. ) ;
#203 = ORIENTED_EDGE ( 'NONE', *, *, #113, .T. ) ;
#204 = ORIENTED_EDGE ( 'NONE', *, *, #238, .T. ) ;
#205 = DIRECTION ( 'NONE',  ( -0.000000000000000000, -0.000000000000000000, 1.000000000000000000 ) ) ;
#206 = ADVANCED_FACE ( 'NONE', ( #12 ), #311, .T. ) ;
#207 = DIRECTION ( 'NONE',  ( 1.000000000000000000, 0.000000000000000000, 0.000000000000000000 ) ) ;
#208 = CARTESIAN_POINT ( 'NONE',  ( 0.000000000000000000, 0.000000000000000000, -97.00000000000000000 ) ) ;
#209 = EDGE_CURVE ( 'NONE', #352, #93, #153, .T. ) ;
#210 = DIRECTION ( 'NONE',  ( 1.000000000000000000, 0.000000000000000000, 0.000000000000000000 ) ) ;
#211 = PLANE ( 'NONE',  #267 ) ;
#212 = CLOSED_SHELL ( 'NONE', ( #246, #206, #101, #118, #5, #57, #168, #14, #326, #194, #157 ) ) ;
#213 = EDGE_LOOP ( 'NONE', ( #143, #43, #190, #329 ) ) ;
#214 = AXIS2_PLACEMENT_3D ( 'NONE', #82, #51, #163 ) ;
#215 = DIRECTION ( 'NONE',  ( -0.000000000000000000, -0.000000000000000000, 1.000000000000000000 ) ) ;
#216 = EDGE_LOOP ( 'NONE', ( #253, #204, #171, #229 ) ) ;
#217 = EDGE_CURVE ( 'NONE', #93, #20, #114, .T. ) ;
#218 = ORIENTED_EDGE ( 'NONE', *, *, #144, .F. ) ;
#219 = CARTESIAN_POINT ( 'NONE',  ( -0.7500000000000000000, 9.184850993605149670E-17, -64.29903810567664380 ) ) ;
#220 = CIRCLE ( 'NONE', #96, 3.000000000000000000 ) ;
#221 = PERSON_AND_ORGANIZATION ( #353, #197 ) ;
#222 = CARTESIAN_POINT ( 'NONE',  ( -3.000000000000000000, 3.673940397442059868E-16, -3.673940397442059868E-16 ) ) ;
#223 = PERSON_AND_ORGANIZATION ( #353, #197 ) ;
#224 = CARTESIAN_POINT ( 'NONE',  ( 0.000000000000000000, 0.000000000000000000, -97.00000000000000000 ) ) ;
#225 = AXIS2_PLACEMENT_3D ( 'NONE', #260, #183, #232 ) ;
#226 = CARTESIAN_POINT ( 'NONE',  ( 3.000000000000000000, 0.000000000000000000, 0.000000000000000000 ) ) ;
#227 = EDGE_CURVE ( 'NONE', #20, #347, #50, .T. ) ;
#228 = APPROVAL_ROLE ( '' ) ;
#229 = ORIENTED_EDGE ( 'NONE', *, *, #30, .F. ) ;
#230 = LINE ( 'NONE', #226, #94 ) ;
#231 = AXIS2_PLACEMENT_3D ( 'NONE', #314, #245, #131 ) ;
#232 = DIRECTION ( 'NONE',  ( 1.000000000000000000, 0.000000000000000000, 0.000000000000000000 ) ) ;
#233 = CC_DESIGN_PERSON_AND_ORGANIZATION_ASSIGNMENT ( #116, #281, ( #255 ) ) ;
#234 = DIRECTION ( 'NONE',  ( 1.000000000000000000, 0.000000000000000000, 0.000000000000000000 ) ) ;
#235 = FACE_OUTER_BOUND ( 'NONE', #134, .T. ) ;
#236 = DIRECTION ( 'NONE',  ( -0.000000000000000000, -0.000000000000000000, 1.000000000000000000 ) ) ;
#237 = APPROVAL_PERSON_ORGANIZATION ( #327, #333, #252 ) ;
#238 = EDGE_CURVE ( 'NONE', #91, #34, #295, .T. ) ;
#239 = CARTESIAN_POINT ( 'NONE',  ( 0.000000000000000000, 0.000000000000000000, -63.00000000000000000 ) ) ;
#240 = DIRECTION ( 'NONE',  ( -0.000000000000000000, -0.000000000000000000, 1.000000000000000000 ) ) ;
#241 = DIRECTION ( 'NONE',  ( 1.000000000000000000, 0.000000000000000000, 0.000000000000000000 ) ) ;
#242 = EDGE_CURVE ( 'NONE', #140, #285, #268, .T. ) ;
#243 = VECTOR ( 'NONE', #19, 1000.000000000000000 ) ;
#244 = CARTESIAN_POINT ( 'NONE',  ( 0.7500000000000000000, 0.000000000000000000, -64.29903810567664380 ) ) ;
#245 = DIRECTION ( 'NONE',  ( -0.000000000000000000, -0.000000000000000000, 1.000000000000000000 ) ) ;
#246 = ADVANCED_FACE ( 'NONE', ( #52 ), #28, .T. ) ;
#247 = CARTESIAN_POINT ( 'NONE',  ( -0.7500000000000000000, 9.184850993605149670E-17, 0.000000000000000000 ) ) ;
#248 = DATE_AND_TIME ( #170, #306 ) ;
#249 = ORIENTED_EDGE ( 'NONE', *, *, #297, .T. ) ;
#250 = APPROVAL_DATE_TIME ( #66, #333 ) ;
#251 = ORIENTED_EDGE ( 'NONE', *, *, #302, .T. ) ;
#252 = APPROVAL_ROLE ( '' ) ;
#253 = ORIENTED_EDGE ( 'NONE', *, *, #129, .T. ) ;
#254 = CC_DESIGN_PERSON_AND_ORGANIZATION_ASSIGNMENT ( #221, #351, ( #321 ) ) ;
#255 = PRODUCT_DEFINITION_FORMATION_WITH_SPECIFIED_SOURCE ( 'LIBOVOLNÝ', '', #3, .NOT_KNOWN. ) ;
#256 = EDGE_LOOP ( 'NONE', ( #4, #167 ) ) ;
#257 = COORDINATED_UNIVERSAL_TIME_OFFSET ( 1, 0, .AHEAD. ) ;
#258 = DIRECTION ( 'NONE',  ( 1.000000000000000000, 0.000000000000000000, 0.000000000000000000 ) ) ;
#259 = EDGE_CURVE ( 'NONE', #34, #315, #330, .T. ) ;
#260 = CARTESIAN_POINT ( 'NONE',  ( 0.000000000000000000, 0.000000000000000000, 0.000000000000000000 ) ) ;
#261 = LOCAL_TIME ( 9, 58, 37.00000000000000000, #322 ) ;
#262 = CARTESIAN_POINT ( 'NONE',  ( 1.500000000000000000, 0.000000000000000000, -63.00000000000000000 ) ) ;
#263 = DIRECTION ( 'NONE',  ( 1.000000000000000000, 0.000000000000000000, 0.000000000000000000 ) ) ;
#264 = DIRECTION ( 'NONE',  ( -0.000000000000000000, -0.000000000000000000, 1.000000000000000000 ) ) ;
#265 = APPLICATION_CONTEXT ( 'configuration controlled 3d designs of mechanical parts and assemblies' ) ;
#266 = CARTESIAN_POINT ( 'NONE',  ( -3.000000000000000000, 3.673940397442059868E-16, -3.000000000000000444 ) ) ;
#267 = AXIS2_PLACEMENT_3D ( 'NONE', #312, #48, #288 ) ;
#268 = LINE ( 'NONE', #247, #243 ) ;
#269 = DIRECTION ( 'NONE',  ( -0.000000000000000000, -0.000000000000000000, 1.000000000000000000 ) ) ;
#270 = ORIENTED_EDGE ( 'NONE', *, *, #39, .F. ) ;
#271 = VECTOR ( 'NONE', #184, 1000.000000000000227 ) ;
#272 = AXIS2_PLACEMENT_3D ( 'NONE', #345, #215, #316 ) ;
#273 = DIRECTION ( 'NONE',  ( 0.000000000000000000, 0.000000000000000000, 1.000000000000000000 ) ) ;
#274 = MECHANICAL_CONTEXT ( 'NONE', #265, 'mechanical' ) ;
#275 = SHAPE_DEFINITION_REPRESENTATION ( #148, #186 ) ;
#276 = EDGE_LOOP ( 'NONE', ( #304, #251, #26, #317 ) ) ;
#277 = SECURITY_CLASSIFICATION_LEVEL ( 'unclassified' ) ;
#278 = ORIENTED_EDGE ( 'NONE', *, *, #124, .F. ) ;
#279 = APPROVAL_ROLE ( '' ) ;
#280 = CARTESIAN_POINT ( 'NONE',  ( 0.000000000000000000, 0.000000000000000000, 0.000000000000000000 ) ) ;
#281 = PERSON_AND_ORGANIZATION_ROLE ( 'design_supplier' ) ;
#282 = DESIGN_CONTEXT ( 'detailed design', #24, 'design' ) ;
#283 = ORIENTED_EDGE ( 'NONE', *, *, #242, .F. ) ;
#284 = AXIS2_PLACEMENT_3D ( 'NONE', #188, #269, #241 ) ;
#285 = VERTEX_POINT ( 'NONE', #219 ) ;
#286 = PRODUCT_RELATED_PRODUCT_CATEGORY ( 'detail', '', ( #3 ) ) ;
#287 = FACE_OUTER_BOUND ( 'NONE', #90, .T. ) ;
#288 = DIRECTION ( 'NONE',  ( 1.000000000000000000, 0.000000000000000000, 0.000000000000000000 ) ) ;
#289 = DIRECTION ( 'NONE',  ( 1.000000000000000000, 0.000000000000000000, 0.000000000000000000 ) ) ;
#290 = CARTESIAN_POINT ( 'NONE',  ( 0.000000000000000000, 0.000000000000000000, 0.000000000000000000 ) ) ;
#291 = CARTESIAN_POINT ( 'NONE',  ( -1.500000000000000000, 1.836970198721029934E-16, 0.000000000000000000 ) ) ;
#292 = FACE_OUTER_BOUND ( 'NONE', #165, .T. ) ;
#293 = AXIS2_PLACEMENT_3D ( 'NONE', #239, #72, #263 ) ;
#294 = CC_DESIGN_PERSON_AND_ORGANIZATION_ASSIGNMENT ( #136, #86, ( #3 ) ) ;
#295 = LINE ( 'NONE', #159, #127 ) ;
#296 = CONICAL_SURFACE ( 'NONE', #293, 1.500000000000000000, 0.5235987755983013692 ) ;
#297 = EDGE_CURVE ( 'NONE', #350, #140, #162, .T. ) ;
#298 = APPLICATION_PROTOCOL_DEFINITION ( 'international standard', 'config_control_design', 1994, #24 ) ;
#299 = CIRCLE ( 'NONE', #340, 3.000000000000000000 ) ;
#300 = CYLINDRICAL_SURFACE ( 'NONE', #155, 0.7500000000000000000 ) ;
#301 = APPROVAL_PERSON_ORGANIZATION ( #141, #45, #228 ) ;
#302 = EDGE_CURVE ( 'NONE', #20, #93, #32, .T. ) ;
#303 = ORIENTED_EDGE ( 'NONE', *, *, #129, .F. ) ;
#304 = ORIENTED_EDGE ( 'NONE', *, *, #227, .F. ) ;
#305 = FACE_OUTER_BOUND ( 'NONE', #18, .T. ) ;
#306 = LOCAL_TIME ( 9, 58, 37.00000000000000000, #60 ) ;
#307 = ORIENTED_EDGE ( 'NONE', *, *, #259, .F. ) ;
#308 = DIRECTION ( 'NONE',  ( 1.000000000000000000, 0.000000000000000000, 0.000000000000000000 ) ) ;
#309 = DIRECTION ( 'NONE',  ( -0.000000000000000000, -0.000000000000000000, 1.000000000000000000 ) ) ;
#310 = EDGE_CURVE ( 'NONE', #91, #115, #75, .T. ) ;
#311 = CYLINDRICAL_SURFACE ( 'NONE', #225, 1.500000000000000000 ) ;
#312 = CARTESIAN_POINT ( 'NONE',  ( 0.000000000000000000, 0.000000000000000000, -1.836970198721029934E-16 ) ) ;
#313 = DIRECTION ( 'NONE',  ( -0.000000000000000000, -0.000000000000000000, 1.000000000000000000 ) ) ;
#314 = CARTESIAN_POINT ( 'NONE',  ( 0.000000000000000000, 0.000000000000000000, -3.000000000000000444 ) ) ;
#315 = VERTEX_POINT ( 'NONE', #341 ) ;
#316 = DIRECTION ( 'NONE',  ( 1.000000000000000000, 0.000000000000000000, 0.000000000000000000 ) ) ;
#317 = ORIENTED_EDGE ( 'NONE', *, *, #319, .F. ) ;
#318 = VECTOR ( 'NONE', #97, 1000.000000000000227 ) ;
#319 = EDGE_CURVE ( 'NONE', #347, #325, #105, .T. ) ;
#320 = CARTESIAN_POINT ( 'NONE',  ( 0.000000000000000000, 0.000000000000000000, -3.673940397442059868E-16 ) ) ;
#321 = SECURITY_CLASSIFICATION ( '', '', #277 ) ;
#322 = COORDINATED_UNIVERSAL_TIME_OFFSET ( 1, 0, .AHEAD. ) ;
#323 = LINE ( 'NONE', #89, #176 ) ;
#324 = PLANE ( 'NONE',  #120 ) ;
#325 = VERTEX_POINT ( 'NONE', #79 ) ;
#326 = ADVANCED_FACE ( 'NONE', ( #161, #292 ), #85, .T. ) ;
#327 = PERSON_AND_ORGANIZATION ( #353, #197 ) ;
#328 = EDGE_LOOP ( 'NONE', ( #249, #81, #278, #270 ) ) ;
#329 = ORIENTED_EDGE ( 'NONE', *, *, #349, .F. ) ;
#330 = CIRCLE ( 'NONE', #62, 3.000000000000000000 ) ;
#331 = FACE_OUTER_BOUND ( 'NONE', #328, .T. ) ;
#332 = DIRECTION ( 'NONE',  ( -0.000000000000000000, -0.000000000000000000, 1.000000000000000000 ) ) ;
#333 = APPROVAL ( #192, 'NEURÈENÝ' ) ;
#334 = CARTESIAN_POINT ( 'NONE',  ( 0.000000000000000000, 0.000000000000000000, -64.29903810567664380 ) ) ;
#335 = CARTESIAN_POINT ( 'NONE',  ( 0.000000000000000000, 0.000000000000000000, -63.00000000000000000 ) ) ;
#336 = CC_DESIGN_DATE_AND_TIME_ASSIGNMENT ( #172, #58, ( #321 ) ) ;
#337 = DIRECTION ( 'NONE',  ( 1.000000000000000000, 0.000000000000000000, 0.000000000000000000 ) ) ;
#338 = DIRECTION ( 'NONE',  ( -0.000000000000000000, -0.000000000000000000, 1.000000000000000000 ) ) ;
#339 = ORIENTED_EDGE ( 'NONE', *, *, #124, .T. ) ;
#340 = AXIS2_PLACEMENT_3D ( 'NONE', #150, #309, #180 ) ;
#341 = CARTESIAN_POINT ( 'NONE',  ( 3.000000000000000000, 0.000000000000000000, -3.673940397442059868E-16 ) ) ;
#342 = CC_DESIGN_SECURITY_CLASSIFICATION ( #321, ( #255 ) ) ;
#343 = CARTESIAN_POINT ( 'NONE',  ( -1.500000000000000000, 1.836970198721029934E-16, -3.000000000000000444 ) ) ;
#344 = CC_DESIGN_PERSON_AND_ORGANIZATION_ASSIGNMENT ( #223, #33, ( #78 ) ) ;
#345 = CARTESIAN_POINT ( 'NONE',  ( 0.000000000000000000, 0.000000000000000000, -63.00000000000000000 ) ) ;
#346 = CARTESIAN_POINT ( 'NONE',  ( 0.000000000000000000, 0.000000000000000000, 0.000000000000000000 ) ) ;
#347 = VERTEX_POINT ( 'NONE', #343 ) ;
#348 = LOCAL_TIME ( 9, 58, 37.00000000000000000, #257 ) ;
#349 = EDGE_CURVE ( 'NONE', #93, #325, #107, .T. ) ;
#350 = VERTEX_POINT ( 'NONE', #17 ) ;
#351 = PERSON_AND_ORGANIZATION_ROLE ( 'classification_officer' ) ;
#352 = VERTEX_POINT ( 'NONE', #244 ) ;
#353 = PERSON ( 'NEURÈENÝ', 'NEURÈENÝ', 'NEURÈENÝ', ('NEURÈENÝ'), ('NEURÈENÝ'), ('NEURÈENÝ') ) ;
#354 = DATE_AND_TIME ( #166, #84 ) ;
#355 = DIRECTION ( 'NONE',  ( -0.000000000000000000, -0.000000000000000000, 1.000000000000000000 ) ) ;
ENDSEC;
END-ISO-10303-21;
