ISO-10303-21;
HEADER;
FILE_DESCRIPTION (( 'STEP AP203' ),
    '1' );
FILE_NAME ('8511.STEP',
    '2022-07-10T09:03:48',
    ( '' ),
    ( '' ),
    'SwSTEP 2.0',
    'SolidWorks 2019',
    '' );
FILE_SCHEMA (( 'CONFIG_CONTROL_DESIGN' ));
ENDSEC;

DATA;
#1 = VERTEX_POINT ( 'NONE', #93 ) ;
#2 = CALENDAR_DATE ( 2022, 10, 7 ) ;
#3 = EDGE_CURVE ( 'NONE', #41, #62, #374, .T. ) ;
#4 = DIRECTION ( 'NONE',  ( 0.000000000000000000, 0.000000000000000000, -1.000000000000000000 ) ) ;
#5 = EDGE_LOOP ( 'NONE', ( #162, #120, #209, #45 ) ) ;
#6 = PERSON_AND_ORGANIZATION ( #372, #170 ) ;
#7 = FACE_OUTER_BOUND ( 'NONE', #5, .T. ) ;
#8 = CIRCLE ( 'NONE', #364, 6.000000000000000888 ) ;
#9 = EDGE_CURVE ( 'NONE', #271, #38, #227, .T. ) ;
#10 = DIRECTION ( 'NONE',  ( -0.000000000000000000, -0.000000000000000000, -1.000000000000000000 ) ) ;
#11 = ORIENTED_EDGE ( 'NONE', *, *, #376, .T. ) ;
#12 = ORIENTED_EDGE ( 'NONE', *, *, #137, .T. ) ;
#13 = PRODUCT_DEFINITION_FORMATION_WITH_SPECIFIED_SOURCE ( 'LIBOVOLNÝ', '', #74, .NOT_KNOWN. ) ;
#14 = PRODUCT_RELATED_PRODUCT_CATEGORY ( 'detail', '', ( #74 ) ) ;
#15 = DIRECTION ( 'NONE',  ( 0.000000000000000000, 0.000000000000000000, 1.000000000000000000 ) ) ;
#16 = ORIENTED_EDGE ( 'NONE', *, *, #305, .F. ) ;
#17 = DIRECTION ( 'NONE',  ( 0.000000000000000000, 0.000000000000000000, -1.000000000000000000 ) ) ;
#18 = FACE_OUTER_BOUND ( 'NONE', #327, .T. ) ;
#19 = VERTEX_POINT ( 'NONE', #27 ) ;
#20 = TOROIDAL_SURFACE ( 'NONE', #139, 6.700000000000001066, 0.6999999999999999556 ) ;
#21 = FACE_BOUND ( 'NONE', #124, .T. ) ;
#22 = EDGE_CURVE ( 'NONE', #1, #41, #317, .T. ) ;
#23 =( NAMED_UNIT ( * ) PLANE_ANGLE_UNIT ( ) SI_UNIT ( $, .RADIAN. ) );
#24 = DIRECTION ( 'NONE',  ( 0.000000000000000000, -1.000000000000000000, 0.000000000000000000 ) ) ;
#25 = DATE_AND_TIME ( #288, #270 ) ;
#26 = EDGE_CURVE ( 'NONE', #38, #365, #273, .T. ) ;
#27 = CARTESIAN_POINT ( 'NONE',  ( 4.000000000000000000, 4.898587196589412829E-16, 182.0000000000000000 ) ) ;
#28 = DIRECTION ( 'NONE',  ( -0.000000000000000000, -0.000000000000000000, -1.000000000000000000 ) ) ;
#29 = AXIS2_PLACEMENT_3D ( 'NONE', #232, #234, #324 ) ;
#30 = ADVANCED_FACE ( 'NONE', ( #112 ), #261, .T. ) ;
#31 = PERSON_AND_ORGANIZATION ( #372, #170 ) ;
#32 = LINE ( 'NONE', #87, #36 ) ;
#33 = DIRECTION ( 'NONE',  ( 0.000000000000000000, 0.000000000000000000, -1.000000000000000000 ) ) ;
#34 = DATE_AND_TIME ( #2, #128 ) ;
#35 = FACE_BOUND ( 'NONE', #103, .T. ) ;
#36 = VECTOR ( 'NONE', #33, 1000.000000000000000 ) ;
#37 = ADVANCED_FACE ( 'NONE', ( #21, #75 ), #379, .T. ) ;
#38 = VERTEX_POINT ( 'NONE', #136 ) ;
#39 = ORIENTED_EDGE ( 'NONE', *, *, #228, .F. ) ;
#40 = LINE ( 'NONE', #215, #115 ) ;
#41 = VERTEX_POINT ( 'NONE', #285 ) ;
#42 = AXIS2_PLACEMENT_3D ( 'NONE', #247, #15, #94 ) ;
#43 = CARTESIAN_POINT ( 'NONE',  ( 0.000000000000000000, 0.000000000000000000, 0.000000000000000000 ) ) ;
#44 = ADVANCED_FACE ( 'NONE', ( #197 ), #172, .T. ) ;
#45 = ORIENTED_EDGE ( 'NONE', *, *, #26, .F. ) ;
#46 = EDGE_LOOP ( 'NONE', ( #160, #311, #11, #344 ) ) ;
#47 = EDGE_CURVE ( 'NONE', #187, #185, #78, .T. ) ;
#48 = DIRECTION ( 'NONE',  ( 0.000000000000000000, 0.000000000000000000, 1.000000000000000000 ) ) ;
#49 = CIRCLE ( 'NONE', #76, 4.000000000000000000 ) ;
#50 = COORDINATED_UNIVERSAL_TIME_OFFSET ( 1, 0, .AHEAD. ) ;
#51 = DIRECTION ( 'NONE',  ( 1.000000000000000000, 0.000000000000000000, 0.000000000000000000 ) ) ;
#52 = DIRECTION ( 'NONE',  ( 1.000000000000000000, 0.000000000000000000, 0.000000000000000000 ) ) ;
#53 = APPROVAL_PERSON_ORGANIZATION ( #210, #256, #111 ) ;
#54 = CARTESIAN_POINT ( 'NONE',  ( -6.000000000000000888, 0.000000000000000000, 182.0000000000000000 ) ) ;
#55 = CARTESIAN_POINT ( 'NONE',  ( 0.000000000000000000, 0.000000000000000000, 0.000000000000000000 ) ) ;
#56 = DIRECTION ( 'NONE',  ( 1.000000000000000000, 0.000000000000000000, -0.000000000000000000 ) ) ;
#57 = COORDINATED_UNIVERSAL_TIME_OFFSET ( 1, 0, .AHEAD. ) ;
#58 = DIRECTION ( 'NONE',  ( 1.000000000000000000, 0.000000000000000000, -0.000000000000000000 ) ) ;
#59 = CC_DESIGN_PERSON_AND_ORGANIZATION_ASSIGNMENT ( #255, #318, ( #88 ) ) ;
#60 = AXIS2_PLACEMENT_3D ( 'NONE', #83, #116, #58 ) ;
#61 = DIRECTION ( 'NONE',  ( -1.000000000000000000, 0.000000000000000000, 0.000000000000000000 ) ) ;
#62 = VERTEX_POINT ( 'NONE', #258 ) ;
#63 = CARTESIAN_POINT ( 'NONE',  ( 0.000000000000000000, 0.000000000000000000, 182.0000000000000000 ) ) ;
#64 = AXIS2_PLACEMENT_3D ( 'NONE', #353, #229, #373 ) ;
#65 = CARTESIAN_POINT ( 'NONE',  ( 0.000000000000000000, 0.000000000000000000, 7.700000000000012612 ) ) ;
#66 = CYLINDRICAL_SURFACE ( 'NONE', #335, 10.00000000000000000 ) ;
#67 = EDGE_LOOP ( 'NONE', ( #12, #347 ) ) ;
#68 = VERTEX_POINT ( 'NONE', #135 ) ;
#69 = EDGE_CURVE ( 'NONE', #38, #271, #342, .T. ) ;
#70 = DIRECTION ( 'NONE',  ( 1.000000000000000000, 0.000000000000000000, 0.000000000000000000 ) ) ;
#71 = ORIENTED_EDGE ( 'NONE', *, *, #363, .F. ) ;
#72 = ORIENTED_EDGE ( 'NONE', *, *, #178, .T. ) ;
#73 = ORIENTED_EDGE ( 'NONE', *, *, #82, .F. ) ;
#74 = PRODUCT ( '8511', '8511', '', ( #321 ) ) ;
#75 = FACE_OUTER_BOUND ( 'NONE', #226, .T. ) ;
#76 = AXIS2_PLACEMENT_3D ( 'NONE', #55, #28, #52 ) ;
#77 = DIRECTION ( 'NONE',  ( -0.000000000000000000, -0.000000000000000000, -1.000000000000000000 ) ) ;
#78 = LINE ( 'NONE', #106, #96 ) ;
#79 = CARTESIAN_POINT ( 'NONE',  ( 0.000000000000000000, 0.000000000000000000, 182.0000000000000000 ) ) ;
#80 = APPLICATION_CONTEXT ( 'configuration controlled 3d designs of mechanical parts and assemblies' ) ;
#81 = PERSON_AND_ORGANIZATION_ROLE ( 'design_supplier' ) ;
#82 = EDGE_CURVE ( 'NONE', #191, #365, #168, .T. ) ;
#83 = CARTESIAN_POINT ( 'NONE',  ( 0.000000000000000000, 0.000000000000000000, 0.000000000000000000 ) ) ;
#84 = ORIENTED_EDGE ( 'NONE', *, *, #114, .F. ) ;
#85 = APPROVAL_DATE_TIME ( #206, #200 ) ;
#86 = CIRCLE ( 'NONE', #308, 10.00000000000000000 ) ;
#87 = CARTESIAN_POINT ( 'NONE',  ( 4.000000000000000000, 4.898587196589412829E-16, 182.0000000000000000 ) ) ;
#88 = PRODUCT_DEFINITION ( 'NEZNÁMÝ', '', #13, #216 ) ;
#89 = CALENDAR_DATE ( 2022, 10, 7 ) ;
#90 = PLANE ( 'NONE',  #60 ) ;
#91 = DIRECTION ( 'NONE',  ( -0.000000000000000000, -0.000000000000000000, -1.000000000000000000 ) ) ;
#92 = APPROVAL_PERSON_ORGANIZATION ( #169, #237, #109 ) ;
#93 = CARTESIAN_POINT ( 'NONE',  ( -4.000000000000000000, 0.000000000000000000, 182.0000000000000000 ) ) ;
#94 = DIRECTION ( 'NONE',  ( 1.000000000000000000, 0.000000000000000000, 0.000000000000000000 ) ) ;
#95 = ORIENTED_EDGE ( 'NONE', *, *, #154, .F. ) ;
#96 = VECTOR ( 'NONE', #110, 1000.000000000000000 ) ;
#97 = DIRECTION ( 'NONE',  ( 0.000000000000000000, 0.000000000000000000, 1.000000000000000000 ) ) ;
#98 = DIRECTION ( 'NONE',  ( -0.000000000000000000, -0.000000000000000000, -1.000000000000000000 ) ) ;
#99 = DIRECTION ( 'NONE',  ( 0.000000000000000000, 0.000000000000000000, 1.000000000000000000 ) ) ;
#100 = CIRCLE ( 'NONE', #274, 4.000000000000000000 ) ;
#101 = LOCAL_TIME ( 11, 3, 48.00000000000000000, #235 ) ;
#102 = EDGE_CURVE ( 'NONE', #365, #191, #375, .T. ) ;
#103 = EDGE_LOOP ( 'NONE', ( #277, #95 ) ) ;
#104 = CARTESIAN_POINT ( 'NONE',  ( 6.700000000000001066, 0.000000000000000000, 7.700000000000012612 ) ) ;
#105 = APPROVAL_STATUS ( 'not_yet_approved' ) ;
#106 = CARTESIAN_POINT ( 'NONE',  ( -10.00000000000000000, 0.000000000000000000, 7.000000000000000000 ) ) ;
#107 = TOROIDAL_SURFACE ( 'NONE', #378, 6.700000000000001066, 0.6999999999999999556 ) ;
#108 = EDGE_CURVE ( 'NONE', #368, #185, #203, .T. ) ;
#109 = APPROVAL_ROLE ( '' ) ;
#110 = DIRECTION ( 'NONE',  ( -0.000000000000000000, -0.000000000000000000, -1.000000000000000000 ) ) ;
#111 = APPROVAL_ROLE ( '' ) ;
#112 = FACE_OUTER_BOUND ( 'NONE', #46, .T. ) ;
#113 = AXIS2_PLACEMENT_3D ( 'NONE', #161, #184, #343 ) ;
#114 = EDGE_CURVE ( 'NONE', #62, #41, #49, .T. ) ;
#115 = VECTOR ( 'NONE', #306, 1000.000000000000000 ) ;
#116 = DIRECTION ( 'NONE',  ( 0.000000000000000000, 0.000000000000000000, 1.000000000000000000 ) ) ;
#117 = AXIS2_PLACEMENT_3D ( 'NONE', #104, #24, #380 ) ;
#118 = SHAPE_DEFINITION_REPRESENTATION ( #284, #339 ) ;
#119 = CC_DESIGN_PERSON_AND_ORGANIZATION_ASSIGNMENT ( #31, #81, ( #13 ) ) ;
#120 = ORIENTED_EDGE ( 'NONE', *, *, #264, .T. ) ;
#121 = PERSON_AND_ORGANIZATION_ROLE ( 'classification_officer' ) ;
#122 = DIRECTION ( 'NONE',  ( 0.000000000000000000, 0.000000000000000000, 1.000000000000000000 ) ) ;
#123 = DIRECTION ( 'NONE',  ( 1.000000000000000000, 0.000000000000000000, 0.000000000000000000 ) ) ;
#124 = EDGE_LOOP ( 'NONE', ( #338, #158 ) ) ;
#125 = ADVANCED_FACE ( 'NONE', ( #35, #325 ), #205, .T. ) ;
#126 = CIRCLE ( 'NONE', #151, 4.000000000000000000 ) ;
#127 = CARTESIAN_POINT ( 'NONE',  ( 10.00000000000000000, 1.224646799147353256E-15, 7.000000000000000000 ) ) ;
#128 = LOCAL_TIME ( 11, 3, 48.00000000000000000, #57 ) ;
#129 = ORIENTED_EDGE ( 'NONE', *, *, #241, .T. ) ;
#130 = CARTESIAN_POINT ( 'NONE',  ( 0.000000000000000000, 0.000000000000000000, 7.000000000000000000 ) ) ;
#131 = ORIENTED_EDGE ( 'NONE', *, *, #26, .T. ) ;
#132 = ORIENTED_EDGE ( 'NONE', *, *, #108, .F. ) ;
#133 = CIRCLE ( 'NONE', #356, 10.00000000000000000 ) ;
#134 = EDGE_LOOP ( 'NONE', ( #248, #84 ) ) ;
#135 = CARTESIAN_POINT ( 'NONE',  ( 6.000000000000000888, 7.347880794884120722E-16, 182.0000000000000000 ) ) ;
#136 = CARTESIAN_POINT ( 'NONE',  ( 6.000000000000000888, 7.347880794884120722E-16, 7.700000000000012612 ) ) ;
#137 = EDGE_CURVE ( 'NONE', #218, #68, #8, .T. ) ;
#138 = DIRECTION ( 'NONE',  ( 1.000000000000000000, 0.000000000000000000, -0.000000000000000000 ) ) ;
#139 = AXIS2_PLACEMENT_3D ( 'NONE', #266, #240, #359 ) ;
#140 = DIRECTION ( 'NONE',  ( 1.000000000000000000, 0.000000000000000000, 0.000000000000000000 ) ) ;
#141 = PERSON_AND_ORGANIZATION ( #372, #170 ) ;
#142 = DIRECTION ( 'NONE',  ( 0.000000000000000000, 0.000000000000000000, -1.000000000000000000 ) ) ;
#143 = AXIS2_PLACEMENT_3D ( 'NONE', #351, #77, #289 ) ;
#144 = DATE_TIME_ROLE ( 'classification_date' ) ;
#145 = FACE_OUTER_BOUND ( 'NONE', #245, .T. ) ;
#146 = DATE_TIME_ROLE ( 'creation_date' ) ;
#147 = FACE_OUTER_BOUND ( 'NONE', #246, .T. ) ;
#148 = COORDINATED_UNIVERSAL_TIME_OFFSET ( 1, 0, .AHEAD. ) ;
#149 = DIRECTION ( 'NONE',  ( 1.000000000000000000, 0.000000000000000000, 0.000000000000000000 ) ) ;
#150 = CARTESIAN_POINT ( 'NONE',  ( -10.00000000000000000, 0.000000000000000000, 0.000000000000000000 ) ) ;
#151 = AXIS2_PLACEMENT_3D ( 'NONE', #262, #152, #294 ) ;
#152 = DIRECTION ( 'NONE',  ( 0.000000000000000000, 0.000000000000000000, 1.000000000000000000 ) ) ;
#153 = ORIENTED_EDGE ( 'NONE', *, *, #228, .T. ) ;
#154 = EDGE_CURVE ( 'NONE', #19, #1, #100, .T. ) ;
#155 = AXIS2_PLACEMENT_3D ( 'NONE', #79, #260, #352 ) ;
#156 = CARTESIAN_POINT ( 'NONE',  ( 0.000000000000000000, 0.000000000000000000, 182.0000000000000000 ) ) ;
#157 = EDGE_LOOP ( 'NONE', ( #71, #39, #301, #129 ) ) ;
#158 = ORIENTED_EDGE ( 'NONE', *, *, #82, .T. ) ;
#159 = CARTESIAN_POINT ( 'NONE',  ( 0.000000000000000000, 0.000000000000000000, 182.0000000000000000 ) ) ;
#160 = ORIENTED_EDGE ( 'NONE', *, *, #354, .F. ) ;
#161 = CARTESIAN_POINT ( 'NONE',  ( -6.700000000000001066, 8.205133554287267548E-16, 7.700000000000012612 ) ) ;
#162 = ORIENTED_EDGE ( 'NONE', *, *, #9, .F. ) ;
#163 = DATE_AND_TIME ( #230, #224 ) ;
#164 = AXIS2_PLACEMENT_3D ( 'NONE', #156, #10, #278 ) ;
#165 = CARTESIAN_POINT ( 'NONE',  ( 0.000000000000000000, 0.000000000000000000, 7.000000000000000000 ) ) ;
#166 = DIRECTION ( 'NONE',  ( 1.000000000000000000, 0.000000000000000000, 0.000000000000000000 ) ) ;
#167 = APPLICATION_PROTOCOL_DEFINITION ( 'international standard', 'config_control_design', 1994, #80 ) ;
#168 = CIRCLE ( 'NONE', #64, 6.700000000000001066 ) ;
#169 = PERSON_AND_ORGANIZATION ( #372, #170 ) ;
#170 = ORGANIZATION ( 'NEURÈENÝ', 'NEURÈENÝ', '' ) ;
#171 = ADVANCED_FACE ( 'NONE', ( #145 ), #214, .F. ) ;
#172 = CYLINDRICAL_SURFACE ( 'NONE', #252, 10.00000000000000000 ) ;
#173 = VECTOR ( 'NONE', #142, 1000.000000000000000 ) ;
#174 = CARTESIAN_POINT ( 'NONE',  ( 0.000000000000000000, 0.000000000000000000, 182.0000000000000000 ) ) ;
#175 = AXIS2_PLACEMENT_3D ( 'NONE', #63, #4, #61 ) ;
#176 = AXIS2_PLACEMENT_3D ( 'NONE', #159, #17, #186 ) ;
#177 = APPROVAL_STATUS ( 'not_yet_approved' ) ;
#178 = EDGE_CURVE ( 'NONE', #1, #19, #126, .T. ) ;
#179 = DIRECTION ( 'NONE',  ( 0.000000000000000000, 0.000000000000000000, 1.000000000000000000 ) ) ;
#180 = ORIENTED_EDGE ( 'NONE', *, *, #108, .T. ) ;
#181 = UNCERTAINTY_MEASURE_WITH_UNIT (LENGTH_MEASURE( 1.000000000000000082E-05 ), #259, 'distance_accuracy_value', 'NONE');
#182 = FACE_OUTER_BOUND ( 'NONE', #220, .T. ) ;
#183 = ADVANCED_FACE ( 'NONE', ( #332, #238 ), #90, .F. ) ;
#184 = DIRECTION ( 'NONE',  ( 1.224646799147353207E-16, 1.000000000000000000, -0.000000000000000000 ) ) ;
#185 = VERTEX_POINT ( 'NONE', #150 ) ;
#186 = DIRECTION ( 'NONE',  ( -1.000000000000000000, 0.000000000000000000, 0.000000000000000000 ) ) ;
#187 = VERTEX_POINT ( 'NONE', #208 ) ;
#188 = ADVANCED_FACE ( 'NONE', ( #147 ), #107, .F. ) ;
#189 = CARTESIAN_POINT ( 'NONE',  ( -6.000000000000000888, 0.000000000000000000, 182.0000000000000000 ) ) ;
#190 = CC_DESIGN_APPROVAL ( #237, ( #88 ) ) ;
#191 = VERTEX_POINT ( 'NONE', #358 ) ;
#192 = CARTESIAN_POINT ( 'NONE',  ( 0.000000000000000000, 0.000000000000000000, 7.000000000000000000 ) ) ;
#193 = ORIENTED_EDGE ( 'NONE', *, *, #376, .F. ) ;
#194 = DIRECTION ( 'NONE',  ( 0.000000000000000000, 0.000000000000000000, 1.000000000000000000 ) ) ;
#195 = ORIENTED_EDGE ( 'NONE', *, *, #329, .T. ) ;
#196 = ADVANCED_FACE ( 'NONE', ( #7 ), #20, .F. ) ;
#197 = FACE_OUTER_BOUND ( 'NONE', #222, .T. ) ;
#198 = APPROVAL_DATE_TIME ( #163, #237 ) ;
#199 = CARTESIAN_POINT ( 'NONE',  ( 0.000000000000000000, 0.000000000000000000, 0.000000000000000000 ) ) ;
#200 = APPROVAL ( #355, 'NEURÈENÝ' ) ;
#201 = DIRECTION ( 'NONE',  ( -0.000000000000000000, -0.000000000000000000, -1.000000000000000000 ) ) ;
#202 = DIRECTION ( 'NONE',  ( -1.000000000000000000, 0.000000000000000000, 0.000000000000000000 ) ) ;
#203 = CIRCLE ( 'NONE', #381, 10.00000000000000000 ) ;
#204 = APPROVAL_ROLE ( '' ) ;
#205 = PLANE ( 'NONE',  #292 ) ;
#206 = DATE_AND_TIME ( #89, #282 ) ;
#207 = AXIS2_PLACEMENT_3D ( 'NONE', #316, #48, #138 ) ;
#208 = CARTESIAN_POINT ( 'NONE',  ( -10.00000000000000000, 0.000000000000000000, 7.000000000000000000 ) ) ;
#209 = ORIENTED_EDGE ( 'NONE', *, *, #102, .F. ) ;
#210 = PERSON_AND_ORGANIZATION ( #372, #170 ) ;
#211 = EDGE_CURVE ( 'NONE', #19, #62, #32, .T. ) ;
#212 = ORIENTED_EDGE ( 'NONE', *, *, #241, .F. ) ;
#213 = CIRCLE ( 'NONE', #113, 0.7000000000000000666 ) ;
#214 = CYLINDRICAL_SURFACE ( 'NONE', #175, 4.000000000000000000 ) ;
#215 = CARTESIAN_POINT ( 'NONE',  ( 10.00000000000000000, 1.224646799147353256E-15, 7.000000000000000000 ) ) ;
#216 = DESIGN_CONTEXT ( 'detailed design', #312, 'design' ) ;
#217 = DIRECTION ( 'NONE',  ( 1.000000000000000000, 0.000000000000000000, 0.000000000000000000 ) ) ;
#218 = VERTEX_POINT ( 'NONE', #189 ) ;
#219 = LINE ( 'NONE', #54, #263 ) ;
#220 = EDGE_LOOP ( 'NONE', ( #16, #280, #307, #193 ) ) ;
#221 = CYLINDRICAL_SURFACE ( 'NONE', #176, 4.000000000000000000 ) ;
#222 = EDGE_LOOP ( 'NONE', ( #267, #369, #180, #225 ) ) ;
#223 = CARTESIAN_POINT ( 'NONE',  ( 6.000000000000000888, 7.347880794884120722E-16, 182.0000000000000000 ) ) ;
#224 = LOCAL_TIME ( 11, 3, 48.00000000000000000, #349 ) ;
#225 = ORIENTED_EDGE ( 'NONE', *, *, #47, .F. ) ;
#226 = EDGE_LOOP ( 'NONE', ( #153, #195 ) ) ;
#227 = CIRCLE ( 'NONE', #315, 6.000000000000000888 ) ;
#228 = EDGE_CURVE ( 'NONE', #187, #341, #249, .T. ) ;
#229 = DIRECTION ( 'NONE',  ( -0.000000000000000000, -0.000000000000000000, -1.000000000000000000 ) ) ;
#230 = CALENDAR_DATE ( 2022, 10, 7 ) ;
#231 = CC_DESIGN_SECURITY_CLASSIFICATION ( #257, ( #13 ) ) ;
#232 = CARTESIAN_POINT ( 'NONE',  ( 0.000000000000000000, 0.000000000000000000, 7.700000000000012612 ) ) ;
#233 = CARTESIAN_POINT ( 'NONE',  ( 0.000000000000000000, 0.000000000000000000, 7.700000000000012612 ) ) ;
#234 = DIRECTION ( 'NONE',  ( 0.000000000000000000, 0.000000000000000000, 1.000000000000000000 ) ) ;
#235 = COORDINATED_UNIVERSAL_TIME_OFFSET ( 1, 0, .AHEAD. ) ;
#236 = ORIENTED_EDGE ( 'NONE', *, *, #264, .F. ) ;
#237 = APPROVAL ( #105, 'NEURÈENÝ' ) ;
#238 = FACE_OUTER_BOUND ( 'NONE', #371, .T. ) ;
#239 = AXIS2_PLACEMENT_3D ( 'NONE', #287, #194, #253 ) ;
#240 = DIRECTION ( 'NONE',  ( 0.000000000000000000, 0.000000000000000000, 1.000000000000000000 ) ) ;
#241 = EDGE_CURVE ( 'NONE', #185, #368, #133, .T. ) ;
#242 = CARTESIAN_POINT ( 'NONE',  ( 6.700000000000001066, 0.000000000000000000, 7.000000000000006217 ) ) ;
#243 = ORIENTED_EDGE ( 'NONE', *, *, #114, .T. ) ;
#244 = VECTOR ( 'NONE', #91, 1000.000000000000000 ) ;
#245 = EDGE_LOOP ( 'NONE', ( #72, #276, #243, #367 ) ) ;
#246 = EDGE_LOOP ( 'NONE', ( #236, #314, #131, #73 ) ) ;
#247 = CARTESIAN_POINT ( 'NONE',  ( 0.000000000000000000, 0.000000000000000000, 182.0000000000000000 ) ) ;
#248 = ORIENTED_EDGE ( 'NONE', *, *, #3, .F. ) ;
#249 = CIRCLE ( 'NONE', #328, 10.00000000000000000 ) ;
#250 = DIRECTION ( 'NONE',  ( 0.000000000000000000, 0.000000000000000000, 1.000000000000000000 ) ) ;
#251 = ADVANCED_FACE ( 'NONE', ( #333 ), #66, .T. ) ;
#252 = AXIS2_PLACEMENT_3D ( 'NONE', #165, #254, #202 ) ;
#253 = DIRECTION ( 'NONE',  ( 1.000000000000000000, 0.000000000000000000, 0.000000000000000000 ) ) ;
#254 = DIRECTION ( 'NONE',  ( -0.000000000000000000, -0.000000000000000000, -1.000000000000000000 ) ) ;
#255 = PERSON_AND_ORGANIZATION ( #372, #170 ) ;
#256 = APPROVAL ( #177, 'NEURÈENÝ' ) ;
#257 = SECURITY_CLASSIFICATION ( '', '', #265 ) ;
#258 = CARTESIAN_POINT ( 'NONE',  ( 4.000000000000000000, 4.898587196589412829E-16, 0.000000000000000000 ) ) ;
#259 =( LENGTH_UNIT ( ) NAMED_UNIT ( * ) SI_UNIT ( .MILLI., .METRE. ) );
#260 = DIRECTION ( 'NONE',  ( -0.000000000000000000, -0.000000000000000000, -1.000000000000000000 ) ) ;
#261 = CYLINDRICAL_SURFACE ( 'NONE', #155, 6.000000000000000888 ) ;
#262 = CARTESIAN_POINT ( 'NONE',  ( 0.000000000000000000, 0.000000000000000000, 182.0000000000000000 ) ) ;
#263 = VECTOR ( 'NONE', #201, 1000.000000000000000 ) ;
#264 = EDGE_CURVE ( 'NONE', #271, #191, #213, .T. ) ;
#265 = SECURITY_CLASSIFICATION_LEVEL ( 'unclassified' ) ;
#266 = CARTESIAN_POINT ( 'NONE',  ( 0.000000000000000000, 0.000000000000000000, 7.700000000000012612 ) ) ;
#267 = ORIENTED_EDGE ( 'NONE', *, *, #329, .F. ) ;
#268 = DIRECTION ( 'NONE',  ( 0.000000000000000000, 0.000000000000000000, 1.000000000000000000 ) ) ;
#269 = CC_DESIGN_PERSON_AND_ORGANIZATION_ASSIGNMENT ( #6, #298, ( #13 ) ) ;
#270 = LOCAL_TIME ( 11, 3, 48.00000000000000000, #50 ) ;
#271 = VERTEX_POINT ( 'NONE', #310 ) ;
#272 = DIRECTION ( 'NONE',  ( -1.000000000000000000, 0.000000000000000000, 0.000000000000000000 ) ) ;
#273 = CIRCLE ( 'NONE', #117, 0.7000000000000000666 ) ;
#274 = AXIS2_PLACEMENT_3D ( 'NONE', #300, #291, #149 ) ;
#275 = DIRECTION ( 'NONE',  ( -0.000000000000000000, -0.000000000000000000, -1.000000000000000000 ) ) ;
#276 = ORIENTED_EDGE ( 'NONE', *, *, #211, .T. ) ;
#277 = ORIENTED_EDGE ( 'NONE', *, *, #178, .F. ) ;
#278 = DIRECTION ( 'NONE',  ( -1.000000000000000000, 0.000000000000000000, 0.000000000000000000 ) ) ;
#279 = CC_DESIGN_PERSON_AND_ORGANIZATION_ASSIGNMENT ( #331, #121, ( #257 ) ) ;
#280 = ORIENTED_EDGE ( 'NONE', *, *, #354, .T. ) ;
#281 =( NAMED_UNIT ( * ) SI_UNIT ( $, .STERADIAN. ) SOLID_ANGLE_UNIT ( ) );
#282 = LOCAL_TIME ( 11, 3, 48.00000000000000000, #148 ) ;
#283 = DIRECTION ( 'NONE',  ( 0.000000000000000000, 0.000000000000000000, 1.000000000000000000 ) ) ;
#284 = PRODUCT_DEFINITION_SHAPE ( 'NONE', 'NONE',  #88 ) ;
#285 = CARTESIAN_POINT ( 'NONE',  ( -4.000000000000000000, 0.000000000000000000, 0.000000000000000000 ) ) ;
#286 = CLOSED_SHELL ( 'NONE', ( #171, #196, #290, #44, #251, #37, #183, #30, #125, #188, #337 ) ) ;
#287 = CARTESIAN_POINT ( 'NONE',  ( 0.000000000000000000, 0.000000000000000000, 0.000000000000000000 ) ) ;
#288 = CALENDAR_DATE ( 2022, 10, 7 ) ;
#289 = DIRECTION ( 'NONE',  ( 1.000000000000000000, 0.000000000000000000, 0.000000000000000000 ) ) ;
#290 = ADVANCED_FACE ( 'NONE', ( #182 ), #313, .T. ) ;
#291 = DIRECTION ( 'NONE',  ( 0.000000000000000000, 0.000000000000000000, 1.000000000000000000 ) ) ;
#292 = AXIS2_PLACEMENT_3D ( 'NONE', #174, #122, #56 ) ;
#293 = DATE_AND_TIME ( #357, #101 ) ;
#294 = DIRECTION ( 'NONE',  ( 1.000000000000000000, 0.000000000000000000, 0.000000000000000000 ) ) ;
#295 = PERSON_AND_ORGANIZATION ( #372, #170 ) ;
#296 = DIRECTION ( 'NONE',  ( 1.000000000000000000, 0.000000000000000000, 0.000000000000000000 ) ) ;
#297 = ORIENTED_EDGE ( 'NONE', *, *, #154, .T. ) ;
#298 = PERSON_AND_ORGANIZATION_ROLE ( 'creator' ) ;
#299 = MANIFOLD_SOLID_BREP ( 'Odebrat vysunutím3', #286 ) ;
#300 = CARTESIAN_POINT ( 'NONE',  ( 0.000000000000000000, 0.000000000000000000, 182.0000000000000000 ) ) ;
#301 = ORIENTED_EDGE ( 'NONE', *, *, #47, .T. ) ;
#302 = CARTESIAN_POINT ( 'NONE',  ( 0.000000000000000000, 0.000000000000000000, 7.000000000000000000 ) ) ;
#303 = LINE ( 'NONE', #223, #244 ) ;
#304 = ORIENTED_EDGE ( 'NONE', *, *, #3, .T. ) ;
#305 = EDGE_CURVE ( 'NONE', #68, #218, #334, .T. ) ;
#306 = DIRECTION ( 'NONE',  ( -0.000000000000000000, -0.000000000000000000, -1.000000000000000000 ) ) ;
#307 = ORIENTED_EDGE ( 'NONE', *, *, #69, .T. ) ;
#308 = AXIS2_PLACEMENT_3D ( 'NONE', #130, #99, #123 ) ;
#309 = CC_DESIGN_APPROVAL ( #256, ( #13 ) ) ;
#310 = CARTESIAN_POINT ( 'NONE',  ( -6.000000000000000888, 0.000000000000000000, 7.700000000000012612 ) ) ;
#311 = ORIENTED_EDGE ( 'NONE', *, *, #137, .F. ) ;
#312 = APPLICATION_CONTEXT ( 'configuration controlled 3d designs of mechanical parts and assemblies' ) ;
#313 = CYLINDRICAL_SURFACE ( 'NONE', #164, 6.000000000000000888 ) ;
#314 = ORIENTED_EDGE ( 'NONE', *, *, #69, .F. ) ;
#315 = AXIS2_PLACEMENT_3D ( 'NONE', #233, #283, #140 ) ;
#316 = CARTESIAN_POINT ( 'NONE',  ( 0.000000000000000000, 0.000000000000000000, 7.000000000000000000 ) ) ;
#317 = LINE ( 'NONE', #322, #173 ) ;
#318 = PERSON_AND_ORGANIZATION_ROLE ( 'creator' ) ;
#319 = DIRECTION ( 'NONE',  ( 0.000000000000000000, 0.000000000000000000, 1.000000000000000000 ) ) ;
#320 = CC_DESIGN_DATE_AND_TIME_ASSIGNMENT ( #34, #144, ( #257 ) ) ;
#321 = MECHANICAL_CONTEXT ( 'NONE', #80, 'mechanical' ) ;
#322 = CARTESIAN_POINT ( 'NONE',  ( -4.000000000000000000, 0.000000000000000000, 182.0000000000000000 ) ) ;
#323 = CC_DESIGN_APPROVAL ( #200, ( #257 ) ) ;
#324 = DIRECTION ( 'NONE',  ( 1.000000000000000000, 0.000000000000000000, 0.000000000000000000 ) ) ;
#325 = FACE_OUTER_BOUND ( 'NONE', #67, .T. ) ;
#326 = CARTESIAN_POINT ( 'NONE',  ( 0.000000000000000000, 0.000000000000000000, 182.0000000000000000 ) ) ;
#327 = EDGE_LOOP ( 'NONE', ( #360, #297, #330, #304 ) ) ;
#328 = AXIS2_PLACEMENT_3D ( 'NONE', #302, #250, #217 ) ;
#329 = EDGE_CURVE ( 'NONE', #341, #187, #86, .T. ) ;
#330 = ORIENTED_EDGE ( 'NONE', *, *, #22, .T. ) ;
#331 = PERSON_AND_ORGANIZATION ( #372, #170 ) ;
#332 = FACE_BOUND ( 'NONE', #134, .T. ) ;
#333 = FACE_OUTER_BOUND ( 'NONE', #157, .T. ) ;
#334 = CIRCLE ( 'NONE', #42, 6.000000000000000888 ) ;
#335 = AXIS2_PLACEMENT_3D ( 'NONE', #192, #275, #272 ) ;
#336 = CARTESIAN_POINT ( 'NONE',  ( 0.000000000000000000, 0.000000000000000000, 0.000000000000000000 ) ) ;
#337 = ADVANCED_FACE ( 'NONE', ( #18 ), #221, .F. ) ;
#338 = ORIENTED_EDGE ( 'NONE', *, *, #102, .T. ) ;
#339 = ADVANCED_BREP_SHAPE_REPRESENTATION ( '8511', ( #299, #239 ), #346 ) ;
#340 = AXIS2_PLACEMENT_3D ( 'NONE', #43, #98, #166 ) ;
#341 = VERTEX_POINT ( 'NONE', #127 ) ;
#342 = CIRCLE ( 'NONE', #29, 6.000000000000000888 ) ;
#343 = DIRECTION ( 'NONE',  ( -1.000000000000000000, 1.224646799147353454E-16, 0.000000000000000000 ) ) ;
#344 = ORIENTED_EDGE ( 'NONE', *, *, #9, .T. ) ;
#345 = CC_DESIGN_PERSON_AND_ORGANIZATION_ASSIGNMENT ( #141, #377, ( #74 ) ) ;
#346 =( GEOMETRIC_REPRESENTATION_CONTEXT ( 3 ) GLOBAL_UNCERTAINTY_ASSIGNED_CONTEXT ( ( #181 ) ) GLOBAL_UNIT_ASSIGNED_CONTEXT ( ( #259, #23, #281 ) ) REPRESENTATION_CONTEXT ( 'NONE', 'WORKASPACE' ) );
#347 = ORIENTED_EDGE ( 'NONE', *, *, #305, .T. ) ;
#348 = APPROVAL_PERSON_ORGANIZATION ( #295, #200, #204 ) ;
#349 = COORDINATED_UNIVERSAL_TIME_OFFSET ( 1, 0, .AHEAD. ) ;
#350 = CC_DESIGN_DATE_AND_TIME_ASSIGNMENT ( #25, #146, ( #88 ) ) ;
#351 = CARTESIAN_POINT ( 'NONE',  ( 0.000000000000000000, 0.000000000000000000, 7.000000000000000000 ) ) ;
#352 = DIRECTION ( 'NONE',  ( -1.000000000000000000, 0.000000000000000000, 0.000000000000000000 ) ) ;
#353 = CARTESIAN_POINT ( 'NONE',  ( 0.000000000000000000, 0.000000000000000000, 7.000000000000000000 ) ) ;
#354 = EDGE_CURVE ( 'NONE', #68, #38, #303, .T. ) ;
#355 = APPROVAL_STATUS ( 'not_yet_approved' ) ;
#356 = AXIS2_PLACEMENT_3D ( 'NONE', #336, #97, #70 ) ;
#357 = CALENDAR_DATE ( 2022, 10, 7 ) ;
#358 = CARTESIAN_POINT ( 'NONE',  ( -6.700000000000001066, 8.205133554287267548E-16, 7.000000000000006217 ) ) ;
#359 = DIRECTION ( 'NONE',  ( 1.000000000000000000, 0.000000000000000000, 0.000000000000000000 ) ) ;
#360 = ORIENTED_EDGE ( 'NONE', *, *, #211, .F. ) ;
#361 = APPROVAL_DATE_TIME ( #293, #256 ) ;
#362 = DIRECTION ( 'NONE',  ( 1.000000000000000000, 0.000000000000000000, 0.000000000000000000 ) ) ;
#363 = EDGE_CURVE ( 'NONE', #341, #368, #40, .T. ) ;
#364 = AXIS2_PLACEMENT_3D ( 'NONE', #326, #268, #362 ) ;
#365 = VERTEX_POINT ( 'NONE', #242 ) ;
#366 = CARTESIAN_POINT ( 'NONE',  ( 10.00000000000000000, 1.224646799147353256E-15, 0.000000000000000000 ) ) ;
#367 = ORIENTED_EDGE ( 'NONE', *, *, #22, .F. ) ;
#368 = VERTEX_POINT ( 'NONE', #366 ) ;
#369 = ORIENTED_EDGE ( 'NONE', *, *, #363, .T. ) ;
#370 = APPLICATION_PROTOCOL_DEFINITION ( 'international standard', 'config_control_design', 1994, #312 ) ;
#371 = EDGE_LOOP ( 'NONE', ( #212, #132 ) ) ;
#372 = PERSON ( 'NEURÈENÝ', 'NEURÈENÝ', 'NEURÈENÝ', ('NEURÈENÝ'), ('NEURÈENÝ'), ('NEURÈENÝ') ) ;
#373 = DIRECTION ( 'NONE',  ( 1.000000000000000000, 0.000000000000000000, 0.000000000000000000 ) ) ;
#374 = CIRCLE ( 'NONE', #340, 4.000000000000000000 ) ;
#375 = CIRCLE ( 'NONE', #143, 6.700000000000001066 ) ;
#376 = EDGE_CURVE ( 'NONE', #218, #271, #219, .T. ) ;
#377 = PERSON_AND_ORGANIZATION_ROLE ( 'design_owner' ) ;
#378 = AXIS2_PLACEMENT_3D ( 'NONE', #65, #179, #296 ) ;
#379 = PLANE ( 'NONE',  #207 ) ;
#380 = DIRECTION ( 'NONE',  ( 0.000000000000000000, 0.000000000000000000, -1.000000000000000000 ) ) ;
#381 = AXIS2_PLACEMENT_3D ( 'NONE', #199, #319, #51 ) ;
ENDSEC;
END-ISO-10303-21;
